  0
SECTION
  2
HEADER
  9
$ACADVER
  1
AC1015
  9
$ACADMAINTVER
 70
     6
  9
$DWGCODEPAGE
  3
ANSI_932
  9
$INSBASE
 10
0.0
 20
0.0
 30
0.0
  9
$EXTMIN
 10
11.936567
 20
14.111111
 30
-0.00000001
  9
$EXTMAX
 10
200.407406
 20
286.788869
 30
0.00000001
  9
$LIMMIN
 10
11.804275
 20
13.978819
  9
$LIMMAX
 10
200.539697
 20
286.9211599999998
  9
$ORTHOMODE
 70
     0
  9
$REGENMODE
 70
     1
  9
$FILLMODE
 70
     1
  9
$QTEXTMODE
 70
     0
  9
$MIRRTEXT
 70
     1
  9
$LTSCALE
 40
1.0
  9
$ATTMODE
 70
     1
  9
$TEXTSIZE
 40
0.0
  9
$TRACEWID
 40
0.05
  9
$TEXTSTYLE
  7
Standard
  9
$CLAYER
  8
0
  9
$CELTYPE
  6
Continuous
  9
$CECOLOR
 62
   256
  9
$CELTSCALE
 40
1.0
  9
$DISPSILH
 70
     0
  9
$DIMSCALE
 40
1.0
  9
$DIMASZ
 40
0.18
  9
$DIMEXO
 40
0.0625
  9
$DIMDLI
 40
0.38
  9
$DIMRND
 40
0.0
  9
$DIMDLE
 40
0.0
  9
$DIMEXE
 40
0.18
  9
$DIMTP
 40
0.0
  9
$DIMTM
 40
0.0
  9
$DIMTXT
 40
0.18
  9
$DIMCEN
 40
0.09
  9
$DIMTSZ
 40
0.0
  9
$DIMTOL
 70
     0
  9
$DIMLIM
 70
     0
  9
$DIMTIH
 70
     1
  9
$DIMTOH
 70
     1
  9
$DIMSE1
 70
     0
  9
$DIMSE2
 70
     0
  9
$DIMTAD
 70
     0
  9
$DIMZIN
 70
     0
  9
$DIMBLK
  1

  9
$DIMASO
 70
     1
  9
$DIMSHO
 70
     1
  9
$DIMPOST
  1

  9
$DIMAPOST
  1

  9
$DIMALT
 70
     0
  9
$DIMALTD
 70
     2
  9
$DIMALTF
 40
25.4
  9
$DIMLFAC
 40
1.0
  9
$DIMTOFL
 70
     0
  9
$DIMTVP
 40
0.0
  9
$DIMTIX
 70
     0
  9
$DIMSOXD
 70
     0
  9
$DIMSAH
 70
     0
  9
$DIMBLK1
  1

  9
$DIMBLK2
  1

  9
$DIMSTYLE
  2
Standard
  9
$DIMCLRD
 70
     0
  9
$DIMCLRE
 70
     0
  9
$DIMCLRT
 70
     0
  9
$DIMTFAC
 40
1.0
  9
$DIMGAP
 40
0.09
  9
$DIMJUST
 70
     0
  9
$DIMSD1
 70
     0
  9
$DIMSD2
 70
     0
  9
$DIMTOLJ
 70
     1
  9
$DIMTZIN
 70
     0
  9
$DIMALTZ
 70
     0
  9
$DIMALTTZ
 70
     0
  9
$DIMUPT
 70
     0
  9
$DIMDEC
 70
     4
  9
$DIMTDEC
 70
     4
  9
$DIMALTU
 70
     2
  9
$DIMALTTD
 70
     2
  9
$DIMTXSTY
  7
Standard
  9
$DIMAUNIT
 70
     0
  9
$DIMADEC
 70
     0
  9
$DIMALTRND
 40
0.0
  9
$DIMAZIN
 70
     0
  9
$DIMDSEP
 70
     0
  9
$DIMATFIT
 70
     3
  9
$DIMFRAC
 70
     0
  9
$DIMLDRBLK
  1

  9
$DIMLUNIT
 70
     2
  9
$DIMLWD
 70
     0
  9
$DIMLWE
 70
     0
  9
$DIMTMOVE
 70
     0
  9
$LUNITS
 70
     2
  9
$LUPREC
 70
     4
  9
$SKETCHINC
 40
0.1
  9
$FILLETRAD
 40
0.0
  9
$AUNITS
 70
     0
  9
$AUPREC
 70
     0
  9
$MENU
  1
acad
  9
$ELEVATION
 40
0.0
  9
$PELEVATION
 40
0.0
  9
$THICKNESS
 40
0.0
  9
$LIMCHECK
 70
     0
  9
$CHAMFERA
 40
0.0
  9
$CHAMFERB
 40
0.0
  9
$CHAMFERC
 40
0.0
  9
$CHAMFERD
 40
0.0
  9
$SKPOLY
 70
     0
  9
$TDCREATE
 40
2454267.636469178
  9
$TDUCREATE
 40
2454267.261469178
  9
$TDUPDATE
 40
2454267.652675058
  9
$TDUUPDATE
 40
2454267.277675057
  9
$TDINDWG
 40
0.0010295486
  9
$TDUSRTIMER
 40
0.0010295486
  9
$USRTIMER
 70
     1
  9
$ANGBASE
 50
0.0
  9
$ANGDIR
 70
     0
  9
$PDMODE
 70
     0
  9
$PDSIZE
 40
0.0
  9
$PLINEWID
 40
0.0
  9
$SPLFRAME
 70
     0
  9
$SPLINETYPE
 70
     6
  9
$SPLINESEGS
 70
     8
  9
$HANDSEED
  5
257
  9
$SURFTAB1
 70
     6
  9
$SURFTAB2
 70
     6
  9
$SURFTYPE
 70
     6
  9
$SURFU
 70
     6
  9
$SURFV
 70
     6
  9
$UCSBASE
  2

  9
$UCSNAME
  2

  9
$UCSORG
 10
0.0
 20
0.0
 30
0.0
  9
$UCSXDIR
 10
1.0
 20
0.0
 30
0.0
  9
$UCSYDIR
 10
0.0
 20
1.0
 30
0.0
  9
$UCSORTHOREF
  2

  9
$UCSORTHOVIEW
 70
     0
  9
$UCSORGTOP
 10
0.0
 20
0.0
 30
0.0
  9
$UCSORGBOTTOM
 10
0.0
 20
0.0
 30
0.0
  9
$UCSORGLEFT
 10
0.0
 20
0.0
 30
0.0
  9
$UCSORGRIGHT
 10
0.0
 20
0.0
 30
0.0
  9
$UCSORGFRONT
 10
0.0
 20
0.0
 30
0.0
  9
$UCSORGBACK
 10
0.0
 20
0.0
 30
0.0
  9
$PUCSBASE
  2

  9
$PUCSNAME
  2

  9
$PUCSORG
 10
0.0
 20
0.0
 30
0.0
  9
$PUCSXDIR
 10
1.0
 20
0.0
 30
0.0
  9
$PUCSYDIR
 10
0.0
 20
1.0
 30
0.0
  9
$PUCSORTHOREF
  2

  9
$PUCSORTHOVIEW
 70
     0
  9
$PUCSORGTOP
 10
0.0
 20
0.0
 30
0.0
  9
$PUCSORGBOTTOM
 10
0.0
 20
0.0
 30
0.0
  9
$PUCSORGLEFT
 10
0.0
 20
0.0
 30
0.0
  9
$PUCSORGRIGHT
 10
0.0
 20
0.0
 30
0.0
  9
$PUCSORGFRONT
 10
0.0
 20
0.0
 30
0.0
  9
$PUCSORGBACK
 10
0.0
 20
0.0
 30
0.0
  9
$USERI1
 70
     0
  9
$USERI2
 70
     0
  9
$USERI3
 70
     0
  9
$USERI4
 70
     0
  9
$USERI5
 70
     0
  9
$USERR1
 40
0.0
  9
$USERR2
 40
0.0
  9
$USERR3
 40
0.0
  9
$USERR4
 40
0.0
  9
$USERR5
 40
0.0
  9
$WORLDVIEW
 70
     1
  9
$SHADEDGE
 70
     3
  9
$SHADEDIF
 70
    70
  9
$TILEMODE
 70
     1
  9
$MAXACTVP
 70
    16
  9
$PINSBASE
 10
0.0
 20
0.0
 30
0.0
  9
$PLIMCHECK
 70
     0
  9
$PEXTMIN
 10
1.000000000000000E+20
 20
1.000000000000000E+20
 30
1.000000000000000E+20
  9
$PEXTMAX
 10
-1.000000000000000E+20
 20
-1.000000000000000E+20
 30
-1.000000000000000E+20
  9
$PLIMMIN
 10
0.0
 20
0.0
  9
$PLIMMAX
 10
12.0
 20
9.0
  9
$UNITMODE
 70
     0
  9
$VISRETAIN
 70
     0
  9
$PLINEGEN
 70
     1
  9
$PSLTSCALE
 70
     0
  9
$TREEDEPTH
 70
  3020
  9
$CMLSTYLE
  2
Standard
  9
$CMLJUST
 70
     0
  9
$CMLSCALE
 40
1.0
  9
$PROXYGRAPHICS
 70
     0
  9
$MEASUREMENT
 70
     0
  9
$CELWEIGHT
370
     0
  9
$ENDCAPS
280
     0
  9
$JOINSTYLE
280
     0
  9
$LWDISPLAY
290
     0
  9
$INSUNITS
 70
     0
  9
$HYPERLINKBASE
  1

  9
$STYLESHEET
  1

  9
$XEDIT
290
     1
  9
$CEPSNTYPE
380
     0
  9
$PSTYLEMODE
290
     1
  9
$FINGERPRINTGUID
  2

  9
$VERSIONGUID
  2
{E66CDC3B-8FC5-4553-AA2A-F95391B99BF1}
  9
$EXTNAMES
290
     1
  9
$PSVPSCALE
 40
0.0
  9
$OLESTARTUP
290
     0
  0
ENDSEC
  0
SECTION
  2
CLASSES
  0
CLASS
  1
LWPOLYLINE
  2
AcDbPolyline
  3
AutoCAD 2000
 90
    32768
280
     0
281
     1
  0
CLASS
  1
IMAGE
  2
AcDbRasterImage
  3
ISM
 90
    32895
280
     0
281
     1
  0
CLASS
  1
OLE2FRAME
  2
AcDbOle2Frame
  3
AutoCAD 2000
 90
    32768
280
     0
281
     1
  0
CLASS
  1
HATCH
  2
AcDbHatch
  3
AutoCAD 2000
 90
    32768
280
     0
281
     1
  0
CLASS
  1
DICTIONARYVAR
  2
AcDbDictionaryVar
  3
AutoCAD 2000
 90
    32768
280
     0
281
     0
  0
CLASS
  1
RASTERVARIABLES
  2
AcDbRasterVariables
  3
ISM
 90
    32768
280
     0
281
     0
  0
CLASS
  1
IMAGEDEF
  2
AcDbRasterImageDef
  3
ISM
 90
    32768
280
     0
281
     0
  0
CLASS
  1
IMAGEDEF_REACTOR
  2
AcDbRasterImageDefReactor
  3
ISM
 90
    32769
280
     0
281
     0
  0
CLASS
  1
IDBUFFER
  2
AcDbIdBuffer
  3
AutoCAD 2000
 90
    32768
280
     0
281
     0
  0
CLASS
  1
SPATIAL_FILTER
  2
AcDbSpatialFilter
  3
AutoCAD 2000
 90
    32768
280
     0
281
     0
  0
CLASS
  1
XRECORD
  2
AcDbXrecord
  3
AutoCAD 2000
 90
    32768
280
     0
281
     0
  0
CLASS
  1
SORTENTSTABLE
  2
AcDbSortentsTable
  3
AutoCAD 2000
 90
    32768
280
     0
281
     0
  0
CLASS
  1
LAYER_INDEX
  2
AcDbLayerIndex
  3
AutoCAD 2000
 90
    32768
280
     0
281
     0
  0
CLASS
  1
SPATIAL_INDEX
  2
AcDbSpatialIndex
  3
AutoCAD 2000
 90
    32768
280
     0
281
     0
  0
CLASS
  1
OBJECT_PTR
  2
CAseDLPNTableRecord
  3
"ASE-LPNTableRecord"
 90
    32769
280
     0
281
     0
  0
CLASS
  1
LAYOUT
  2
AcDbLayout
  3
AutoCAD 2000
 90
        0
280
     0
281
     0
  0
CLASS
  1
PLOTSETTINGS
  2
AcDbPlotSettings
  3
AutoCAD 2000
 90
    32768
280
     0
281
     0
  0
CLASS
  1
ACDBDICTIONARYWDFLT
  2
AcDbDictionaryWithDefault
  3
AutoCAD 2000
 90
        0
280
     0
281
     0
  0
CLASS
  1
ACDBPLACEHOLDER
  2
AcDbPlaceHolder
  3
AutoCAD 2000
 90
        0
280
     0
281
     0
  0
CLASS
  1
VBA_PROJECT
  2
AcDbVbaProject
  3
"acadvba"
 90
    32769
280
     0
281
     0
  0
CLASS
  1
WIPEOUT
  2
AcDbWipeout
  3
WipeOut|AutoCAD Express Tool|expresstools@autodesk.com
 90
    32895
280
     0
281
     1
  0
CLASS
  1
WIPEOUTVARIABLES
  2
AcDbWipeoutVariables
  3
WipeOut|AutoCAD Express Tool|expresstools@autodesk.com
 90
        0
280
     0
281
     0
  0
CLASS
  1
RTEXT
  2
RText
  3
RText|AutoCAD Express Tool|expresstools@autodesk.com
 90
    32768
280
     0
281
     1
  0
CLASS
  1
ARCALIGNEDTEXT
  2
AcDbArcAlignedText
  3
ATEXT|AutoCAD Express Tool|expresstools@autodesk.com
 90
    32768
280
     0
281
     1
  0
ENDSEC
  0
SECTION
  2
TABLES
  0
TABLE
  2
VPORT
  5
7
330
0
100
AcDbSymbolTable
 70
     2
  0
VPORT
  5
256
330
7
100
AcDbSymbolTableRecord
100
AcDbViewportTableRecord
  2
*Active
 70
     0
 10
0.0
 20
0.0
 11
1.0
 21
1.0
 12
199.6142547582568
 22
75.20482692520975
 13
0.0
 23
0.0
 14
1.0
 24
1.0
 15
0.0
 25
0.0
 16
0.0
 26
0.0
 36
1.0
 17
0.0
 27
0.0
 37
0.0
 40
185.9755533687584
 41
1.551461245235069
 42
50.0
 43
0.0
 44
0.0
 50
0.0
 51
0.0
 71
     0
 72
   100
 73
     1
 74
     1
 75
     0
 76
     0
 77
     0
 78
     0
281
     0
 65
     0
110
0.0
120
0.0
130
0.0
111
1.0
121
0.0
131
0.0
112
0.0
122
1.0
132
0.0
 79
     0
146
0.0
  0
ENDTAB
  0
TABLE
  2
LTYPE
  5
4
330
0
100
AcDbSymbolTable
 70
    17
  0
LTYPE
  5
11
330
4
100
AcDbSymbolTableRecord
100
AcDbLinetypeTableRecord
  2
ByBlock
 70
     0
  3

 72
    65
 73
     0
 40
0.0
  0
LTYPE
  5
12
330
4
100
AcDbSymbolTableRecord
100
AcDbLinetypeTableRecord
  2
ByLayer
 70
     0
  3

 72
    65
 73
     0
 40
0.0
  0
LTYPE
  5
13
330
4
100
AcDbSymbolTableRecord
100
AcDbLinetypeTableRecord
  2
Continuous
 70
     0
  3
Solid line
 72
    65
 73
     0
 40
0.0
  0
LTYPE
  5
CE
330
4
100
AcDbSymbolTableRecord
100
AcDbLinetypeTableRecord
  2
AI9-LType1
 70
     0
  3
Illustrator Dash Style No.1
 72
    65
 73
     4
 40
1.909256
 49
1.272854999999998
 74
     0
 49
-0.159099
 74
     0
 49
0.318203
 74
     0
 49
-0.159099
 74
     0
  0
LTYPE
  5
DC
330
4
100
AcDbSymbolTableRecord
100
AcDbLinetypeTableRecord
  2
AI9-LType2
 70
     0
  3
Illustrator Dash Style No.2
 72
    65
 73
     4
 40
1.960168
 49
1.306795
 74
     0
 49
-0.163335
 74
     0
 49
0.326703
 74
     0
 49
-0.163335
 74
     0
  0
LTYPE
  5
E7
330
4
100
AcDbSymbolTableRecord
100
AcDbLinetypeTableRecord
  2
AI9-LType3
 70
     0
  3
Illustrator Dash Style No.3
 72
    65
 73
     4
 40
3.999927999999998
 49
0.9999819999999999
 74
     0
 49
-0.9999819999999999
 74
     0
 49
0.9999819999999999
 74
     0
 49
-0.9999819999999999
 74
     0
  0
LTYPE
  5
EE
330
4
100
AcDbSymbolTableRecord
100
AcDbLinetypeTableRecord
  2
AI9-LType4
 70
     0
  3
Illustrator Dash Style No.4
 72
    65
 73
     4
 40
3.999927999999998
 49
0.9999819999999999
 74
     0
 49
-0.9999819999999999
 74
     0
 49
0.9999819999999999
 74
     0
 49
-0.9999819999999999
 74
     0
  0
LTYPE
  5
F5
330
4
100
AcDbSymbolTableRecord
100
AcDbLinetypeTableRecord
  2
AI9-LType5
 70
     0
  3
Illustrator Dash Style No.5
 72
    65
 73
     4
 40
9.801033
 49
6.534042999999998
 74
     0
 49
-0.816746
 74
     0
 49
1.633497
 74
     0
 49
-0.816746
 74
     0
  0
LTYPE
  5
101
330
4
100
AcDbSymbolTableRecord
100
AcDbLinetypeTableRecord
  2
AI9-LType6
 70
     0
  3
Illustrator Dash Style No.6
 72
    65
 73
     4
 40
3.999927999999998
 49
0.9999819999999999
 74
     0
 49
-0.9999819999999999
 74
     0
 49
0.9999819999999999
 74
     0
 49
-0.9999819999999999
 74
     0
  0
LTYPE
  5
14A
330
4
100
AcDbSymbolTableRecord
100
AcDbLinetypeTableRecord
  2
AI9-LType7
 70
     0
  3
Illustrator Dash Style No.7
 72
    65
 73
     4
 40
3.999927999999998
 49
0.9999819999999999
 74
     0
 49
-0.9999819999999999
 74
     0
 49
0.9999819999999999
 74
     0
 49
-0.9999819999999999
 74
     0
  0
LTYPE
  5
151
330
4
100
AcDbSymbolTableRecord
100
AcDbLinetypeTableRecord
  2
AI9-LType8
 70
     0
  3
Illustrator Dash Style No.8
 72
    65
 73
     4
 40
3.999927999999998
 49
0.9999819999999999
 74
     0
 49
-0.9999819999999999
 74
     0
 49
0.9999819999999999
 74
     0
 49
-0.9999819999999999
 74
     0
  0
LTYPE
  5
192
330
4
100
AcDbSymbolTableRecord
100
AcDbLinetypeTableRecord
  2
AI9-LType9
 70
     0
  3
Illustrator Dash Style No.9
 72
    65
 73
     2
 40
24.502671
 49
19.60212999999998
 74
     0
 49
-4.900541
 74
     0
  0
LTYPE
  5
194
330
4
100
AcDbSymbolTableRecord
100
AcDbLinetypeTableRecord
  2
AI9-LType10
 70
     0
  3
Illustrator Dash Style No.10
 72
    65
 73
     2
 40
24.502671
 49
19.60212999999998
 74
     0
 49
-4.900541
 74
     0
  0
LTYPE
  5
196
330
4
100
AcDbSymbolTableRecord
100
AcDbLinetypeTableRecord
  2
AI9-LType11
 70
     0
  3
Illustrator Dash Style No.11
 72
    65
 73
     2
 40
24.502671
 49
19.60212999999998
 74
     0
 49
-4.900541
 74
     0
  0
LTYPE
  5
198
330
4
100
AcDbSymbolTableRecord
100
AcDbLinetypeTableRecord
  2
AI9-LType12
 70
     0
  3
Illustrator Dash Style No.12
 72
    65
 73
     2
 40
24.502671
 49
19.60212999999998
 74
     0
 49
-4.900541
 74
     0
  0
LTYPE
  5
19A
330
4
100
AcDbSymbolTableRecord
100
AcDbLinetypeTableRecord
  2
AI9-LType13
 70
     0
  3
Illustrator Dash Style No.13
 72
    65
 73
     2
 40
24.502671
 49
19.60212999999998
 74
     0
 49
-4.900541
 74
     0
  0
LTYPE
  5
19C
330
4
100
AcDbSymbolTableRecord
100
AcDbLinetypeTableRecord
  2
AI9-LType14
 70
     0
  3
Illustrator Dash Style No.14
 72
    65
 73
     2
 40
24.502671
 49
19.60212999999998
 74
     0
 49
-4.900541
 74
     0
  0
LTYPE
  5
1A0
330
4
100
AcDbSymbolTableRecord
100
AcDbLinetypeTableRecord
  2
AI9-LType15
 70
     0
  3
Illustrator Dash Style No.15
 72
    65
 73
     4
 40
5.880621999999998
 49
3.920416
 74
     0
 49
-0.490043
 74
     0
 49
0.980119
 74
     0
 49
-0.490043
 74
     0
  0
LTYPE
  5
203
330
4
100
AcDbSymbolTableRecord
100
AcDbLinetypeTableRecord
  2
AI9-LType16
 70
     0
  3
Illustrator Dash Style No.16
 72
    65
 73
     4
 40
3.999927999999998
 49
0.9999819999999999
 74
     0
 49
-0.9999819999999999
 74
     0
 49
0.9999819999999999
 74
     0
 49
-0.9999819999999999
 74
     0
  0
ENDTAB
  0
TABLE
  2
LAYER
  5
2
330
0
100
AcDbSymbolTable
 70
     1
  0
LAYER
  5
14
330
2
100
AcDbSymbolTableRecord
100
AcDbLayerTableRecord
  2
0
 70
     0
 62
     7
  6
Continuous
370
    -3
390
1D
  0
ENDTAB
  0
TABLE
  2
STYLE
  5
3
330
0
100
AcDbSymbolTable
 70
     5
  0
STYLE
  5
17
330
3
100
AcDbSymbolTableRecord
100
AcDbTextStyleTableRecord
  2
Standard
 70
     0
 40
0.0
 41
1.0
 50
0.0
 71
     0
 42
0.0
  3
txt
  4

  0
STYLE
  5
24
330
3
100
AcDbSymbolTableRecord
100
AcDbTextStyleTableRecord
  2
STD
 70
     0
 40
0.0
 41
1.0
 50
0.0
 71
     0
 42
0.0
  3
txt
  4

  0
STYLE
  5
25
330
3
100
AcDbSymbolTableRecord
100
AcDbTextStyleTableRecord
  2
TATESTD
 70
     4
 40
0.0
 41
1.0
 50
0.0
 71
     0
 42
0.0
  3
txt
  4

  0
STYLE
  5
26
330
3
100
AcDbSymbolTableRecord
100
AcDbTextStyleTableRecord
  2
KANJISTD
 70
     0
 40
0.0
 41
1.0
 50
0.0
 71
     0
 42
0.0
  3
txt
  4
extfont
  0
STYLE
  5
27
330
3
100
AcDbSymbolTableRecord
100
AcDbTextStyleTableRecord
  2
KANJITATE
 70
     4
 40
0.0
 41
1.0
 50
0.0
 71
     0
 42
0.0
  3
txt
  4
extfont
  0
ENDTAB
  0
TABLE
  2
VIEW
  5
5
330
0
100
AcDbSymbolTable
 70
     0
  0
ENDTAB
  0
TABLE
  2
UCS
  5
6
330
0
100
AcDbSymbolTable
 70
     0
  0
ENDTAB
  0
TABLE
  2
APPID
  5
8
330
0
100
AcDbSymbolTable
 70
     1
  0
APPID
  5
16
330
8
100
AcDbSymbolTableRecord
100
AcDbRegAppTableRecord
  2
ACAD
 70
     0
  0
ENDTAB
  0
TABLE
  2
DIMSTYLE
  5
9
330
0
100
AcDbSymbolTable
 70
     1
100
AcDbDimStyleTable
 71
     0
  0
DIMSTYLE
105
18
330
9
100
AcDbSymbolTableRecord
100
AcDbDimStyleTableRecord
  2
Standard
 70
     0
340
17
  0
ENDTAB
  0
TABLE
  2
BLOCK_RECORD
  5
1
330
0
100
AcDbSymbolTable
 70
     0
  0
BLOCK_RECORD
  5
A
330
1
100
AcDbSymbolTableRecord
100
AcDbBlockTableRecord
  2
*MODEL_SPACE
340
20
  0
BLOCK_RECORD
  5
B
330
1
100
AcDbSymbolTableRecord
100
AcDbBlockTableRecord
  2
*PAPER_SPACE
340
21
  0
ENDTAB
  0
ENDSEC
  0
SECTION
  2
BLOCKS
  0
BLOCK
  5
D
330
A
100
AcDbEntity
  8
0
100
AcDbBlockBegin
  2
*MODEL_SPACE
 70
     0
 10
0.0
 20
0.0
 30
0.0
  3
*MODEL_SPACE
  1

  0
ENDBLK
  5
E
330
A
100
AcDbEntity
  8
0
100
AcDbBlockEnd
  0
BLOCK
  5
F
330
B
100
AcDbEntity
 67
     1
  8
0
100
AcDbBlockBegin
  2
*PAPER_SPACE
 70
     0
 10
0.0
 20
0.0
 30
0.0
  3
*PAPER_SPACE
  1

  0
ENDBLK
  5
10
330
B
100
AcDbEntity
 67
     1
  8
0
100
AcDbBlockEnd
  0
ENDSEC
  0
SECTION
  2
ENTITIES
  0
POLYLINE
  5
241
330
A
100
AcDbEntity
  8
0
 62
   222
100
AcDb2dPolyline
 66
     1
 10
0.0
 20
0.0
 30
0.0
 70
     1
  0
VERTEX
  5
242
330
241
100
AcDbEntity
  8
0
 62
   222
100
AcDbVertex
100
AcDb2dVertex
 10
79.99373900000001
 20
221.2283569999999
 30
0.0
  0
VERTEX
  5
243
330
241
100
AcDbEntity
  8
0
 62
   222
100
AcDbVertex
100
AcDb2dVertex
 10
64.44809000000001
 20
221.2283569999999
 30
0.0
  0
VERTEX
  5
244
330
241
100
AcDbEntity
  8
0
 62
   222
100
AcDbVertex
100
AcDb2dVertex
 10
64.44809000000001
 20
231.227747
 30
0.0
  0
VERTEX
  5
245
330
241
100
AcDbEntity
  8
0
 62
   222
100
AcDbVertex
100
AcDb2dVertex
 10
79.99373900000001
 20
231.227747
 30
0.0
  0
SEQEND
  5
246
330
241
100
AcDbEntity
  8
0
 62
   222
  0
HATCH
  5
240
330
A
100
AcDbEntity
  8
0
 62
   254
100
AcDbHatch
 10
0.0
 20
0.0
 30
0.0
210
0.0
220
0.0
230
1.0
  2
SOLID
 70
     1
 71
     0
 91
        1
 92
        3
 72
     0
 73
     1
 93
        4
 10
79.99373914930554
 20
221.2283569335935
 10
64.44809027777778
 20
221.2283569335935
 10
64.44809027777778
 20
231.2277465820312
 10
79.99373914930554
 20
231.2277465820312
 97
        0
 75
     0
 76
     1
 98
        1
 10
0.0
 20
0.0
  0
POLYLINE
  5
23A
330
A
100
AcDbEntity
  8
0
 62
   222
100
AcDb2dPolyline
 66
     1
 10
0.0
 20
0.0
 30
0.0
 70
     1
  0
VERTEX
  5
23B
330
23A
100
AcDbEntity
  8
0
 62
   222
100
AcDbVertex
100
AcDb2dVertex
 10
79.99373900000001
 20
201.2318169999999
 30
0.0
  0
VERTEX
  5
23C
330
23A
100
AcDbEntity
  8
0
 62
   222
100
AcDbVertex
100
AcDb2dVertex
 10
64.44809000000001
 20
201.2318169999999
 30
0.0
  0
VERTEX
  5
23D
330
23A
100
AcDbEntity
  8
0
 62
   222
100
AcDbVertex
100
AcDb2dVertex
 10
64.44809000000001
 20
211.230345
 30
0.0
  0
VERTEX
  5
23E
330
23A
100
AcDbEntity
  8
0
 62
   222
100
AcDbVertex
100
AcDb2dVertex
 10
79.99373900000001
 20
211.230345
 30
0.0
  0
SEQEND
  5
23F
330
23A
100
AcDbEntity
  8
0
 62
   222
  0
HATCH
  5
239
330
A
100
AcDbEntity
  8
0
 62
   254
100
AcDbHatch
 10
0.0
 20
0.0
 30
0.0
210
0.0
220
0.0
230
1.0
  2
SOLID
 70
     1
 71
     0
 91
        1
 92
        3
 72
     0
 73
     1
 93
        4
 10
79.99373914930554
 20
201.2318169487846
 10
64.44809027777778
 20
201.2318169487846
 10
64.44809027777778
 20
211.2303453233506
 10
79.99373914930554
 20
211.2303453233506
 97
        0
 75
     0
 76
     1
 98
        1
 10
0.0
 20
0.0
  0
POLYLINE
  5
233
330
A
100
AcDbEntity
  8
0
 62
   222
100
AcDb2dPolyline
 66
     1
 10
0.0
 20
0.0
 30
0.0
 70
     1
  0
VERTEX
  5
234
330
233
100
AcDbEntity
  8
0
 62
   222
100
AcDbVertex
100
AcDb2dVertex
 10
79.99373900000001
 20
181.235794
 30
0.0
  0
VERTEX
  5
235
330
233
100
AcDbEntity
  8
0
 62
   222
100
AcDbVertex
100
AcDb2dVertex
 10
64.44809000000001
 20
181.235794
 30
0.0
  0
VERTEX
  5
236
330
233
100
AcDbEntity
  8
0
 62
   222
100
AcDbVertex
100
AcDb2dVertex
 10
64.44809000000001
 20
191.233805
 30
0.0
  0
VERTEX
  5
237
330
233
100
AcDbEntity
  8
0
 62
   222
100
AcDbVertex
100
AcDb2dVertex
 10
79.99373900000001
 20
191.233805
 30
0.0
  0
SEQEND
  5
238
330
233
100
AcDbEntity
  8
0
 62
   222
  0
HATCH
  5
232
330
A
100
AcDbEntity
  8
0
 62
   254
100
AcDbHatch
 10
0.0
 20
0.0
 30
0.0
210
0.0
220
0.0
230
1.0
  2
SOLID
 70
     1
 71
     0
 91
        1
 92
        3
 72
     0
 73
     1
 93
        4
 10
79.99373914930554
 20
181.2357937282986
 10
64.44809027777778
 20
181.2357937282986
 10
64.44809027777778
 20
191.2338053385416
 10
79.99373914930554
 20
191.2338053385416
 97
        0
 75
     0
 76
     1
 98
        1
 10
0.0
 20
0.0
  0
POLYLINE
  5
22C
330
A
100
AcDbEntity
  8
0
 62
   222
100
AcDb2dPolyline
 66
     1
 10
0.0
 20
0.0
 30
0.0
 70
     1
  0
VERTEX
  5
22D
330
22C
100
AcDbEntity
  8
0
 62
   222
100
AcDbVertex
100
AcDb2dVertex
 10
79.99373900000001
 20
161.2397709999999
 30
0.0
  0
VERTEX
  5
22E
330
22C
100
AcDbEntity
  8
0
 62
   222
100
AcDbVertex
100
AcDb2dVertex
 10
64.44809000000001
 20
161.2397709999999
 30
0.0
  0
VERTEX
  5
22F
330
22C
100
AcDbEntity
  8
0
 62
   222
100
AcDbVertex
100
AcDb2dVertex
 10
64.44809000000001
 20
171.237782
 30
0.0
  0
VERTEX
  5
230
330
22C
100
AcDbEntity
  8
0
 62
   222
100
AcDbVertex
100
AcDb2dVertex
 10
79.99373900000001
 20
171.237782
 30
0.0
  0
SEQEND
  5
231
330
22C
100
AcDbEntity
  8
0
 62
   222
  0
HATCH
  5
22B
330
A
100
AcDbEntity
  8
0
 62
   254
100
AcDbHatch
 10
0.0
 20
0.0
 30
0.0
210
0.0
220
0.0
230
1.0
  2
SOLID
 70
     1
 71
     0
 91
        1
 92
        3
 72
     0
 73
     1
 93
        4
 10
79.99373914930554
 20
161.2397705078124
 10
64.44809027777778
 20
161.2397705078124
 10
64.44809027777778
 20
171.2377821180554
 10
79.99373914930554
 20
171.2377821180554
 97
        0
 75
     0
 76
     1
 98
        1
 10
0.0
 20
0.0
  0
LINE
  5
22A
330
A
100
AcDbEntity
  8
0
 62
     7
100
AcDbLine
 10
64.735928
 20
241.450895
 30
0.0
 11
80.07969399999998
 21
241.450895
 31
0.0
  0
CIRCLE
  5
229
330
A
100
AcDbEntity
  8
0
 62
     7
100
AcDbCircle
 10
138.599981
 20
153.632483
 30
0.0
 40
1.978863
  0
HATCH
  5
228
330
A
100
AcDbEntity
  8
0
 62
   255
100
AcDbHatch
 10
0.0
 20
0.0
 30
0.0
210
0.0
220
0.0
230
1.0
  2
SOLID
 70
     1
 71
     0
 91
        1
 92
        1
 93
        1
 72
     4
 94
        3
 73
     0
 74
     0
 95
       17
 96
       13
 40
0.0
 40
0.0
 40
0.0
 40
0.0
 40
1.0
 40
1.0
 40
1.0
 40
2.0
 40
2.0
 40
2.0
 40
3.0
 40
3.0
 40
3.0
 40
4.0
 40
4.0
 40
4.0
 40
4.0
 10
140.5788438585068
 20
153.6324829101562
 10
140.5788438585068
 20
154.7256117078993
 10
139.6931098090277
 20
155.6113457573784
 10
138.6003255208333
 20
155.6113457573784
 10
137.5071967230901
 20
155.6113457573784
 10
136.6211181640625
 20
154.7256117078993
 10
136.6211181640625
 20
153.6324829101562
 10
136.6211181640625
 20
152.5400431315103
 10
137.5071967230901
 20
151.6532755533854
 10
138.6003255208333
 20
151.6532755533854
 10
139.6931098090277
 20
151.6532755533854
 10
140.5788438585068
 20
152.5400431315103
 10
140.5788438585068
 20
153.6324829101562
 97
        0
 75
     0
 76
     1
 98
        1
 10
0.0
 20
0.0
  0
MTEXT
  5
227
330
A
100
AcDbEntity
  8
0
 62
     7
100
AcDbMText
 10
105.1067629999999
 20
146.3931199999999
 30
0.0
 40
2.817731999999999
 41
0.0
 71
     1
 72
     2
  1
\W0.75;\fMSGothic|b0|i0|c128; セットピン(2本)1：3
  7
KANJISTD
 73
     1
 44
1.0
  0
POLYLINE
  5
221
330
A
100
AcDbEntity
  8
0
 62
     7
100
AcDb2dPolyline
 66
     1
 10
0.0
 20
0.0
 30
0.0
 70
     1
  0
VERTEX
  5
222
330
221
100
AcDbEntity
  8
0
 62
     7
100
AcDbVertex
100
AcDb2dVertex
 10
104.801527
 20
148.077439
 30
0.0
  0
VERTEX
  5
223
330
221
100
AcDbEntity
  8
0
 62
     7
100
AcDbVertex
100
AcDb2dVertex
 10
135.436694
 20
148.077439
 30
0.0
  0
VERTEX
  5
224
330
221
100
AcDbEntity
  8
0
 62
     7
100
AcDbVertex
100
AcDb2dVertex
 10
135.436694
 20
141.7866939999998
 30
0.0
  0
VERTEX
  5
225
330
221
100
AcDbEntity
  8
0
 62
     7
100
AcDbVertex
100
AcDb2dVertex
 10
104.801527
 20
141.704701
 30
0.0
  0
SEQEND
  5
226
330
221
100
AcDbEntity
  8
0
 62
     7
  0
LINE
  5
220
330
A
100
AcDbEntity
  8
0
  6
AI9-LType1
 62
     7
100
AcDbLine
 10
138.6010149999999
 20
159.1811539999999
 30
0.0
 11
138.6010149999999
 21
149.50767
 31
0.0
  0
LINE
  5
21F
330
A
100
AcDbEntity
  8
0
 62
     7
100
AcDbLine
 10
134.662581
 20
151.63226
 30
0.0
 11
143.3383649999998
 21
151.63226
 31
0.0
  0
LINE
  5
21E
330
A
100
AcDbEntity
  8
0
 62
     7
100
AcDbLine
 10
134.662581
 20
155.589986
 30
0.0
 11
143.3383649999998
 21
155.589986
 31
0.0
  0
LINE
  5
21D
330
A
100
AcDbEntity
  8
0
 62
     7
100
AcDbLine
 10
99.398928
 20
163.00521
 30
0.0
 11
132.697843
 21
163.00521
 31
0.0
  0
LINE
  5
21C
330
A
100
AcDbEntity
  8
0
 62
     7
100
AcDbLine
 10
143.2859999999999
 20
151.5974649999999
 30
0.0
 11
143.2859999999999
 21
155.462173
 31
0.0
  0
MTEXT
  5
21B
330
A
100
AcDbEntity
  8
0
 62
     7
100
AcDbMText
 10
144.758762
 20
149.8228959999998
 30
0.0
 40
2.624835
 41
0.0
 71
     1
 72
     2
  1
\W0.90;\fMSGothic|b0|i0|c128;Φ-12
  7
KANJISTD
 11
0.0
 21
1.0
 31
0.0
 73
     1
 44
1.0
  0
LINE
  5
21A
330
A
100
AcDbEntity
  8
0
 62
     7
100
AcDbLine
 10
44.313746
 20
242.4968259999999
 30
0.0
 11
44.313746
 21
161.3271039999998
 31
0.0
  0
MTEXT
  5
219
330
A
100
AcDbEntity
  8
0
 62
     7
100
AcDbMText
 10
96.33572200000001
 20
34.021871
 30
0.0
 40
2.847891
 41
0.0
 71
     1
 72
     2
  1
\W0.90;\fMSGothic|b0|i0|c128; 品  名
  7
KANJISTD
 73
     1
 44
1.0
  0
MTEXT
  5
218
330
A
100
AcDbEntity
  8
0
 62
     7
100
AcDbMText
 10
96.33572200000001
 20
26.423024
 30
0.0
 40
2.847891
 41
0.0
 71
     1
 72
     2
  1
\W0.90;\fMSGothic|b0|i0|c128; 材  質
  7
KANJISTD
 73
     1
 44
1.0
  0
MTEXT
  5
217
330
A
100
AcDbEntity
  8
0
 62
     7
100
AcDbMText
 10
112.9715709999999
 20
33.56643
 30
0.0
 40
2.847891
 41
0.0
 71
     1
 72
     2
  1
\W0.90;\fMSGothic|b0|i0|c128; ポストフレックス　  品　番  ＰＦ-1000.
  7
KANJISTD
 73
     1
 44
1.0
  0
MTEXT
  5
216
330
A
100
AcDbEntity
  8
0
 62
     7
100
AcDbMText
 10
26.270059
 20
26.587126
 30
0.0
 40
4.442741999999999
 41
0.0
 71
     1
 72
     2
  1
\W0.90;\fMSGothic|b0|i0|c128;保安道路企画株式会社
  7
KANJISTD
 73
     1
 44
1.0
  0
LINE
  5
215
330
A
100
AcDbEntity
  8
0
 62
     7
100
AcDbLine
 10
110.8934899999999
 20
36.001937
 30
0.0
 11
110.8934899999999
 21
28.311106
 31
0.0
  0
LINE
  5
214
330
A
100
AcDbEntity
  8
0
 62
     7
100
AcDbLine
 10
110.8934899999999
 20
28.56122
 30
0.0
 11
110.8934899999999
 21
20.870388
 31
0.0
  0
LINE
  5
213
330
A
100
AcDbEntity
  8
0
 62
     7
100
AcDbLine
 10
146.3951989999999
 20
36.001937
 30
0.0
 11
146.3951989999999
 21
28.311106
 31
0.0
  0
LINE
  5
212
330
A
100
AcDbEntity
  8
0
 62
     7
100
AcDbLine
 10
161.2731879999999
 20
36.001937
 30
0.0
 11
161.2731879999999
 21
28.311106
 31
0.0
  0
LINE
  5
211
330
A
100
AcDbEntity
  8
0
  6
AI9-LType5
 62
     7
100
AcDbLine
 10
154.4326059999999
 20
51.65335
 30
0.0
 11
154.4326059999999
 21
95.964168
 31
0.0
  0
POLYLINE
  5
20B
330
A
100
AcDbEntity
  8
0
 62
     7
100
AcDb2dPolyline
 66
     1
 10
0.0
 20
0.0
 30
0.0
 70
     1
  0
VERTEX
  5
20C
330
20B
100
AcDbEntity
  8
0
 62
     7
100
AcDbVertex
100
AcDb2dVertex
 10
200.407406
 20
14.111111
 30
0.0
  0
VERTEX
  5
20D
330
20B
100
AcDbEntity
  8
0
 62
     7
100
AcDbVertex
100
AcDb2dVertex
 10
11.936567
 20
14.111111
 30
0.0
  0
VERTEX
  5
20E
330
20B
100
AcDbEntity
  8
0
 62
     7
100
AcDbVertex
100
AcDb2dVertex
 10
11.936567
 20
286.788869
 30
0.0
  0
VERTEX
  5
20F
330
20B
100
AcDbEntity
  8
0
 62
     7
100
AcDbVertex
100
AcDb2dVertex
 10
200.407406
 20
286.788869
 30
0.0
  0
SEQEND
  5
210
330
20B
100
AcDbEntity
  8
0
 62
     7
  0
LINE
  5
20A
330
A
100
AcDbEntity
  8
0
 62
     7
100
AcDbLine
 10
92.998975
 20
20.931711
 30
0.0
 11
200.255477
 21
20.931711
 31
0.0
  0
LINE
  5
209
330
A
100
AcDbEntity
  8
0
 62
     7
100
AcDbLine
 10
92.998975
 20
28.311106
 30
0.0
 11
200.255477
 21
28.311106
 31
0.0
  0
LINE
  5
208
330
A
100
AcDbEntity
  8
0
 62
     7
100
AcDbLine
 10
92.998975
 20
36.001937
 30
0.0
 11
92.998975
 21
14.111111
 31
0.0
  0
LINE
  5
207
330
A
100
AcDbEntity
  8
0
 62
     7
100
AcDbLine
 10
11.936567
 20
36.001937
 30
0.0
 11
200.3998259999999
 21
36.001937
 31
0.0
  0
LINE
  5
206
330
A
100
AcDbEntity
  8
0
  6
AI9-LType5
 62
   222
100
AcDbLine
 10
72.28551
 20
247.143054
 30
0.0
 11
72.28551
 21
269.775264
 31
0.0
  0
SPLINE
  5
205
330
A
100
AcDbEntity
  8
0
 62
     7
100
AcDbSpline
210
0.0
220
0.0
230
1.0
 70
    11
 71
     3
 72
    35
 73
    31
 74
     0
 42
0.0000000001
 43
0.0000000001
 40
0.0
 40
0.0
 40
0.0
 40
0.0
 40
1.0
 40
1.0
 40
1.0
 40
2.0
 40
2.0
 40
2.0
 40
3.0
 40
3.0
 40
3.0
 40
4.0
 40
4.0
 40
4.0
 40
5.0
 40
5.0
 40
5.0
 40
6.0
 40
6.0
 40
6.0
 40
7.0
 40
7.0
 40
7.0
 40
8.0
 40
8.0
 40
8.0
 40
9.0
 40
9.0
 40
9.0
 40
10.0
 40
10.0
 40
10.0
 40
10.0
 10
77.68328586154513
 20
258.4684611002604
 30
0.0
 10
74.76081136067709
 20
258.7544040256076
 30
0.0
 10
75.07672661675345
 20
261.4898098415798
 30
0.0
 10
75.07672661675345
 20
261.4898098415798
 30
0.0
 10
75.07672661675345
 20
263.0235663519964
 30
0.0
 10
73.83373616536456
 20
264.2669013129339
 30
0.0
 10
72.2999796549479
 20
264.2669013129339
 30
0.0
 10
70.76639539930553
 20
264.2669013129339
 30
0.0
 10
69.52323269314236
 20
263.0235663519964
 30
0.0
 10
69.52323269314236
 20
261.4898098415798
 30
0.0
 10
69.52323269314236
 20
261.4898098415798
 30
0.0
 10
69.80728081597222
 20
258.698937988281
 30
0.0
 10
66.92821451822915
 20
258.4684611002604
 30
0.0
 10
65.39945339626736
 20
258.3465047200519
 30
0.0
 10
64.1512953016493
 20
257.2254706488715
 30
0.0
 10
64.1512953016493
 20
255.6917141384548
 30
0.0
 10
64.1512953016493
 20
254.1579576280381
 30
0.0
 10
65.39445800781249
 20
252.9149671766491
 30
0.0
 10
66.92821451822915
 20
252.9149671766491
 30
0.0
 10
66.92821451822915
 20
252.9149671766491
 30
0.0
 10
72.46586100260414
 20
252.797661675347
 30
0.0
 10
72.46586100260414
 20
252.797661675347
 30
0.0
 10
72.46586100260414
 20
252.797661675347
 30
0.0
 10
77.68328586154513
 20
252.9149671766491
 30
0.0
 10
77.68328586154513
 20
252.9149671766491
 30
0.0
 10
79.2170423719618
 20
252.9149671766491
 30
0.0
 10
80.46003282335069
 20
254.1579576280381
 30
0.0
 10
80.46003282335069
 20
255.6917141384548
 30
0.0
 10
80.46003282335069
 20
257.2254706488715
 30
0.0
 10
79.20946316189237
 20
258.3196329752603
 30
0.0
 10
77.68328586154513
 20
258.4684611002604
 30
0.0
  0
SPLINE
  5
204
330
A
100
AcDbEntity
  8
0
  6
AI9-LType16
 62
     7
100
AcDbSpline
210
0.0
220
0.0
230
1.0
 70
    11
 71
     3
 72
    50
 73
    46
 74
     0
 42
0.0000000001
 43
0.0000000001
 40
0.0
 40
0.0
 40
0.0
 40
0.0
 40
1.0
 40
1.0
 40
1.0
 40
2.0
 40
2.0
 40
2.0
 40
3.0
 40
3.0
 40
3.0
 40
4.0
 40
4.0
 40
4.0
 40
5.0
 40
5.0
 40
5.0
 40
6.0
 40
6.0
 40
6.0
 40
7.0
 40
7.0
 40
7.0
 40
8.0
 40
8.0
 40
8.0
 40
9.0
 40
9.0
 40
9.0
 40
10.0
 40
10.0
 40
10.0
 40
11.0
 40
11.0
 40
11.0
 40
12.0
 40
12.0
 40
12.0
 40
13.0
 40
13.0
 40
13.0
 40
14.0
 40
14.0
 40
14.0
 40
15.0
 40
15.0
 40
15.0
 40
15.0
 10
70.12405734592014
 20
261.4975613064236
 30
0.0
 10
70.12698567708333
 20
261.454497612847
 30
0.0
 10
70.13043077256944
 20
261.3923136393228
 30
0.0
 10
70.13043077256944
 20
261.2941284179687
 30
0.0
 10
70.13043077256944
 20
260.8262844509547
 30
0.0
 10
70.04309760199652
 20
259.8111870659721
 30
0.0
 10
69.36338026258678
 20
258.995905219184
 30
0.0
 10
68.80940890842014
 20
258.3315185546875
 30
0.0
 10
68.00618489583333
 20
257.9529025607637
 30
0.0
 10
66.9761013454861
 20
257.8703925238714
 30
0.0
 10
65.68694661458334
 20
257.7675564236109
 30
0.0
 10
64.75125868055553
 20
256.8513332790798
 30
0.0
 10
64.75125868055553
 20
255.6917141384548
 30
0.0
 10
64.75125868055553
 20
254.4914428710936
 30
0.0
 10
65.72794325086803
 20
253.5149305555555
 30
0.0
 10
66.92821451822915
 20
253.5149305555555
 30
0.0
 10
66.92821451822915
 20
253.5149305555555
 30
0.0
 10
72.46586100260414
 20
253.3976250542533
 30
0.0
 10
72.46586100260414
 20
253.3976250542533
 30
0.0
 10
72.46586100260414
 20
253.3976250542533
 30
0.0
 10
77.68328586154513
 20
253.5149305555555
 30
0.0
 10
77.68328586154513
 20
253.5149305555555
 30
0.0
 10
78.88355712890623
 20
253.5149305555555
 30
0.0
 10
79.86006944444444
 20
254.4914428710936
 30
0.0
 10
79.86006944444444
 20
255.6917141384548
 30
0.0
 10
79.86006944444444
 20
256.9794908311631
 30
0.0
 10
78.73576253255206
 20
257.7629055447048
 30
0.0
 10
77.62506374782986
 20
257.871253797743
 30
0.0
 10
75.35319552951389
 20
258.0936347113715
 30
0.0
 10
74.71878119574651
 20
259.607581922743
 30
0.0
 10
74.54273681640623
 20
260.4902153862846
 30
0.0
 10
74.48124186197915
 20
260.7988959418401
 30
0.0
 10
74.45660942925345
 20
261.0436699761284
 30
0.0
 10
74.45660942925345
 20
261.238490125868
 30
0.0
 10
74.45660942925345
 20
261.3461493598089
 30
0.0
 10
74.47107883029513
 20
261.4226304796007
 30
0.0
 10
74.48399793836805
 20
261.5020399305555
 30
0.0
 10
74.48365342881942
 20
261.5013509114583
 30
0.0
 10
74.47676323784722
 20
261.4898098415798
 30
0.0
 10
74.47676323784722
 20
261.4898098415798
 30
0.0
 10
74.47676323784722
 20
262.6902533637151
 30
0.0
 10
73.50025092230902
 20
263.6669379340276
 30
0.0
 10
72.2999796549479
 20
263.6669379340276
 30
0.0
 10
71.10246446397569
 20
263.6669379340276
 30
0.0
 10
70.12836371527777
 20
262.6943874782986
 30
0.0
 10
70.12405734592014
 20
261.4975613064236
 30
0.0
  0
CIRCLE
  5
202
330
A
100
AcDbEntity
  8
0
 62
     7
100
AcDbCircle
 10
72.33098599999998
 20
254.9877089999998
 30
0.0
 40
0.276469
  0
LINE
  5
201
330
A
100
AcDbEntity
  8
0
  6
AI9-LType5
 62
     7
100
AcDbLine
 10
67.577443
 20
50.156456
 30
0.0
 11
67.577443
 21
96.423055
 31
0.0
  0
SPLINE
  5
200
330
A
100
AcDbEntity
  8
0
 62
     7
100
AcDbSpline
210
0.0
220
0.0
230
1.0
 70
    11
 71
     3
 72
    35
 73
    31
 74
     0
 42
0.0000000001
 43
0.0000000001
 40
0.0
 40
0.0
 40
0.0
 40
0.0
 40
1.0
 40
1.0
 40
1.0
 40
2.0
 40
2.0
 40
2.0
 40
3.0
 40
3.0
 40
3.0
 40
4.0
 40
4.0
 40
4.0
 40
5.0
 40
5.0
 40
5.0
 40
6.0
 40
6.0
 40
6.0
 40
7.0
 40
7.0
 40
7.0
 40
8.0
 40
8.0
 40
8.0
 40
9.0
 40
9.0
 40
9.0
 40
10.0
 40
10.0
 40
10.0
 40
10.0
 10
72.97521837022569
 20
74.93117133246528
 30
0.0
 10
70.05274386935759
 20
75.2171142578125
 30
0.0
 10
70.36865912543402
 20
77.95252007378469
 30
0.0
 10
70.36865912543402
 20
77.95252007378469
 30
0.0
 10
70.36865912543402
 20
79.48627658420138
 30
0.0
 10
69.12566867404513
 20
80.72961154513889
 30
0.0
 10
67.59191216362848
 20
80.72961154513889
 30
0.0
 10
66.05832790798611
 20
80.72961154513889
 30
0.0
 10
64.81516520182291
 20
79.48627658420138
 30
0.0
 10
64.81516520182291
 20
77.95252007378469
 30
0.0
 10
64.81516520182291
 20
77.95252007378469
 30
0.0
 10
65.09921332465278
 20
75.1616482204861
 30
0.0
 10
62.22014702690971
 20
74.93117133246528
 30
0.0
 10
60.69138590494792
 20
74.80921495225693
 30
0.0
 10
59.44322781032986
 20
73.68818088107637
 30
0.0
 10
59.44322781032986
 20
72.1544243706597
 30
0.0
 10
59.44322781032986
 20
70.62066786024304
 30
0.0
 10
60.68639051649303
 20
69.37767740885416
 30
0.0
 10
62.22014702690971
 20
69.37767740885416
 30
0.0
 10
62.22014702690971
 20
69.37767740885416
 30
0.0
 10
67.75779351128472
 20
69.26019965277777
 30
0.0
 10
67.75779351128472
 20
69.26019965277777
 30
0.0
 10
67.75779351128472
 20
69.26019965277777
 30
0.0
 10
72.97521837022569
 20
69.37767740885416
 30
0.0
 10
72.97521837022569
 20
69.37767740885416
 30
0.0
 10
74.50880262586803
 20
69.37767740885416
 30
0.0
 10
75.75179307725694
 20
70.62066786024304
 30
0.0
 10
75.75179307725694
 20
72.1544243706597
 30
0.0
 10
75.75179307725694
 20
73.68818088107637
 30
0.0
 10
74.50122341579859
 20
74.78234320746526
 30
0.0
 10
72.97521837022569
 20
74.93117133246528
 30
0.0
  0
LINE
  5
1FF
330
A
100
AcDbEntity
  8
0
 62
     7
100
AcDbLine
 10
36.08789199999999
 20
242.4968259999999
 30
0.0
 11
52.020081
 21
242.4968259999999
 31
0.0
  0
LINE
  5
1FE
330
A
100
AcDbEntity
  8
0
 62
     7
100
AcDbLine
 10
64.15129499999999
 20
275.9790199999999
 30
0.0
 11
80.46399499999997
 21
275.9790199999999
 31
0.0
  0
LINE
  5
1FD
330
A
100
AcDbEntity
  8
0
 62
     7
100
AcDbLine
 10
64.15129499999999
 20
268.246848
 30
0.0
 11
64.15129499999999
 21
275.9790199999999
 31
0.0
  0
LINE
  5
1FC
330
A
100
AcDbEntity
  8
0
 62
     7
100
AcDbLine
 10
80.460033
 20
268.246848
 30
0.0
 11
80.460033
 21
275.9790199999999
 31
0.0
  0
LINE
  5
1FB
330
A
100
AcDbEntity
  8
0
 62
     7
100
AcDbLine
 10
36.08789199999999
 20
111.737882
 30
0.0
 11
48.65267199999999
 21
111.737882
 31
0.0
  0
LINE
  5
1FA
330
A
100
AcDbEntity
  8
0
 62
     7
100
AcDbLine
 10
45.241166
 20
122.2633379999999
 30
0.0
 11
52.632446
 21
122.2633379999999
 31
0.0
  0
LINE
  5
1F9
330
A
100
AcDbEntity
  8
0
 62
     7
100
AcDbLine
 10
44.313746
 20
221.396133
 30
0.0
 11
51.705027
 21
221.396133
 31
0.0
  0
LINE
  5
1F8
330
A
100
AcDbEntity
  8
0
 62
     7
100
AcDbLine
 10
44.313746
 20
201.3995929999999
 30
0.0
 11
51.705027
 21
201.3995929999999
 31
0.0
  0
LINE
  5
1F7
330
A
100
AcDbEntity
  8
0
 62
     7
100
AcDbLine
 10
44.313746
 20
191.233805
 30
0.0
 11
51.705027
 21
191.233805
 31
0.0
  0
LINE
  5
1F6
330
A
100
AcDbEntity
  8
0
 62
     7
100
AcDbLine
 10
44.313746
 20
181.235794
 30
0.0
 11
51.705027
 21
181.235794
 31
0.0
  0
LINE
  5
1F5
330
A
100
AcDbEntity
  8
0
 62
     7
100
AcDbLine
 10
44.313746
 20
171.237782
 30
0.0
 11
51.705027
 21
171.237782
 31
0.0
  0
LINE
  5
1F4
330
A
100
AcDbEntity
  8
0
 62
     7
100
AcDbLine
 10
44.313746
 20
161.2397709999999
 30
0.0
 11
51.705027
 21
161.2397709999999
 31
0.0
  0
LINE
  5
1F3
330
A
100
AcDbEntity
  8
0
 62
     7
100
AcDbLine
 10
44.313746
 20
211.3981209999999
 30
0.0
 11
51.705027
 21
211.3981209999999
 31
0.0
  0
LINE
  5
1F2
330
A
100
AcDbEntity
  8
0
 62
     7
100
AcDbLine
 10
44.332867
 20
231.3955229999999
 30
0.0
 11
51.724147
 21
231.3955229999999
 31
0.0
  0
LINE
  5
1F1
330
A
100
AcDbEntity
  8
0
 62
     7
100
AcDbLine
 10
45.35519899999999
 20
122.1785889999999
 30
0.0
 11
45.35519899999999
 21
111.737882
 31
0.0
  0
LINE
  5
1F0
330
A
100
AcDbEntity
  8
0
 62
     7
100
AcDbLine
 10
36.08789199999999
 20
111.571484
 30
0.0
 11
36.08789199999999
 21
242.4043249999999
 31
0.0
  0
HATCH
  5
1EF
330
A
100
AcDbEntity
  8
0
 62
     7
100
AcDbHatch
 10
0.0
 20
0.0
 30
0.0
210
0.0
220
0.0
230
1.0
  2
SOLID
 70
     1
 71
     0
 91
        1
 92
        1
 93
        1
 72
     4
 94
        3
 73
     0
 74
     0
 95
       17
 96
       13
 40
0.0
 40
0.0
 40
0.0
 40
0.0
 40
1.0
 40
1.0
 40
1.0
 40
2.0
 40
2.0
 40
2.0
 40
3.0
 40
3.0
 40
3.0
 40
4.0
 40
4.0
 40
4.0
 40
4.0
 10
36.31630181206595
 20
111.7278917100694
 10
36.31630181206595
 20
111.6231608072915
 10
36.23155246310763
 20
111.5384114583332
 10
36.12682156032985
 20
111.5384114583332
 10
36.02209065755207
 20
111.5384114583332
 10
35.93734130859372
 20
111.6231608072915
 10
35.93734130859372
 20
111.7278917100694
 10
35.93734130859372
 20
111.8326226128471
 10
36.02209065755207
 20
111.9173719618055
 10
36.12682156032985
 20
111.9173719618055
 10
36.23155246310763
 20
111.9173719618055
 10
36.31630181206595
 20
111.8326226128471
 10
36.31630181206595
 20
111.7278917100694
 97
        0
 75
     0
 76
     1
 98
        1
 10
0.0
 20
0.0
  0
HATCH
  5
1EE
330
A
100
AcDbEntity
  8
0
 62
     7
100
AcDbHatch
 10
0.0
 20
0.0
 30
0.0
210
0.0
220
0.0
230
1.0
  2
SOLID
 70
     1
 71
     0
 91
        1
 92
        1
 93
        1
 72
     4
 94
        3
 73
     0
 74
     0
 95
       17
 96
       13
 40
0.0
 40
0.0
 40
0.0
 40
0.0
 40
1.0
 40
1.0
 40
1.0
 40
2.0
 40
2.0
 40
2.0
 40
3.0
 40
3.0
 40
3.0
 40
4.0
 40
4.0
 40
4.0
 40
4.0
 10
45.61874864366319
 20
111.7278917100694
 10
45.61874864366319
 20
111.6231608072915
 10
45.53399929470486
 20
111.5384114583332
 10
45.42926839192708
 20
111.5384114583332
 10
45.32453748914928
 20
111.5384114583332
 10
45.23978814019097
 20
111.6231608072915
 10
45.23978814019097
 20
111.7278917100694
 10
45.23978814019097
 20
111.8326226128471
 10
45.32453748914928
 20
111.9173719618055
 10
45.42926839192708
 20
111.9173719618055
 10
45.53399929470486
 20
111.9173719618055
 10
45.61874864366319
 20
111.8326226128471
 10
45.61874864366319
 20
111.7278917100694
 97
        0
 75
     0
 76
     1
 98
        1
 10
0.0
 20
0.0
  0
HATCH
  5
1ED
330
A
100
AcDbEntity
  8
0
 62
     7
100
AcDbHatch
 10
0.0
 20
0.0
 30
0.0
210
0.0
220
0.0
230
1.0
  2
SOLID
 70
     1
 71
     0
 91
        1
 92
        1
 93
        1
 72
     4
 94
        3
 73
     0
 74
     0
 95
       17
 96
       13
 40
0.0
 40
0.0
 40
0.0
 40
0.0
 40
1.0
 40
1.0
 40
1.0
 40
2.0
 40
2.0
 40
2.0
 40
3.0
 40
3.0
 40
3.0
 40
4.0
 40
4.0
 40
4.0
 40
4.0
 10
45.61874864366319
 20
122.2006374782985
 10
45.61874864366319
 20
122.0959065755208
 10
45.53399929470486
 20
122.0111572265624
 10
45.42926839192708
 20
122.0111572265624
 10
45.32453748914928
 20
122.0111572265624
 10
45.23978814019097
 20
122.0959065755208
 10
45.23978814019097
 20
122.2006374782985
 10
45.23978814019097
 20
122.3053683810762
 10
45.32453748914928
 20
122.3901177300346
 10
45.42926839192708
 20
122.3901177300346
 10
45.53399929470486
 20
122.3901177300346
 10
45.61874864366319
 20
122.3053683810762
 10
45.61874864366319
 20
122.2006374782985
 97
        0
 75
     0
 76
     1
 98
        1
 10
0.0
 20
0.0
  0
HATCH
  5
1EC
330
A
100
AcDbEntity
  8
0
 62
     7
100
AcDbHatch
 10
0.0
 20
0.0
 30
0.0
210
0.0
220
0.0
230
1.0
  2
SOLID
 70
     1
 71
     0
 91
        1
 92
        1
 93
        1
 72
     4
 94
        3
 73
     0
 74
     0
 95
       17
 96
       13
 40
0.0
 40
0.0
 40
0.0
 40
0.0
 40
1.0
 40
1.0
 40
1.0
 40
2.0
 40
2.0
 40
2.0
 40
3.0
 40
3.0
 40
3.0
 40
4.0
 40
4.0
 40
4.0
 40
4.0
 10
36.20657552083333
 20
242.469782172309
 10
36.20657552083333
 20
242.365051269531
 10
36.121826171875
 20
242.2803019205729
 10
36.01709526909722
 20
242.2803019205729
 10
35.91236436631943
 20
242.2803019205729
 10
35.8276150173611
 20
242.365051269531
 10
35.8276150173611
 20
242.469782172309
 10
35.8276150173611
 20
242.5745130750868
 10
35.91236436631943
 20
242.6592624240451
 10
36.01709526909722
 20
242.6592624240451
 10
36.121826171875
 20
242.6592624240451
 10
36.20657552083333
 20
242.5745130750868
 10
36.20657552083333
 20
242.469782172309
 97
        0
 75
     0
 76
     1
 98
        1
 10
0.0
 20
0.0
  0
HATCH
  5
1EB
330
A
100
AcDbEntity
  8
0
 62
     7
100
AcDbHatch
 10
0.0
 20
0.0
 30
0.0
210
0.0
220
0.0
230
1.0
  2
SOLID
 70
     1
 71
     0
 91
        1
 92
        1
 93
        1
 72
     4
 94
        3
 73
     0
 74
     0
 95
       17
 96
       13
 40
0.0
 40
0.0
 40
0.0
 40
0.0
 40
1.0
 40
1.0
 40
1.0
 40
2.0
 40
2.0
 40
2.0
 40
3.0
 40
3.0
 40
3.0
 40
4.0
 40
4.0
 40
4.0
 40
4.0
 10
44.48462320963541
 20
242.469782172309
 10
44.48462320963541
 20
242.365051269531
 10
44.39987386067708
 20
242.2803019205729
 10
44.29514295789928
 20
242.2803019205729
 10
44.19041205512153
 20
242.2803019205729
 10
44.10566270616318
 20
242.365051269531
 10
44.10566270616318
 20
242.469782172309
 10
44.10566270616318
 20
242.5745130750868
 10
44.19041205512153
 20
242.6592624240451
 10
44.29514295789928
 20
242.6592624240451
 10
44.39987386067708
 20
242.6592624240451
 10
44.48462320963541
 20
242.5745130750868
 10
44.48462320963541
 20
242.469782172309
 97
        0
 75
     0
 76
     1
 98
        1
 10
0.0
 20
0.0
  0
HATCH
  5
1EA
330
A
100
AcDbEntity
  8
0
 62
     7
100
AcDbHatch
 10
0.0
 20
0.0
 30
0.0
210
0.0
220
0.0
230
1.0
  2
SOLID
 70
     1
 71
     0
 91
        1
 92
        1
 93
        1
 72
     4
 94
        3
 73
     0
 74
     0
 95
       17
 96
       13
 40
0.0
 40
0.0
 40
0.0
 40
0.0
 40
1.0
 40
1.0
 40
1.0
 40
2.0
 40
2.0
 40
2.0
 40
3.0
 40
3.0
 40
3.0
 40
4.0
 40
4.0
 40
4.0
 40
4.0
 10
44.48462320963541
 20
231.3436740451388
 10
44.48462320963541
 20
231.2389431423611
 10
44.39987386067708
 20
231.1541937934026
 10
44.29514295789928
 20
231.1541937934026
 10
44.19041205512153
 20
231.1541937934026
 10
44.10566270616318
 20
231.2389431423611
 10
44.10566270616318
 20
231.3436740451388
 10
44.10566270616318
 20
231.4484049479165
 10
44.19041205512153
 20
231.5331542968749
 10
44.29514295789928
 20
231.5331542968749
 10
44.39987386067708
 20
231.5331542968749
 10
44.48462320963541
 20
231.4484049479165
 10
44.48462320963541
 20
231.3436740451388
 97
        0
 75
     0
 76
     1
 98
        1
 10
0.0
 20
0.0
  0
HATCH
  5
1E9
330
A
100
AcDbEntity
  8
0
 62
     7
100
AcDbHatch
 10
0.0
 20
0.0
 30
0.0
210
0.0
220
0.0
230
1.0
  2
SOLID
 70
     1
 71
     0
 91
        1
 92
        1
 93
        1
 72
     4
 94
        3
 73
     0
 74
     0
 95
       17
 96
       13
 40
0.0
 40
0.0
 40
0.0
 40
0.0
 40
1.0
 40
1.0
 40
1.0
 40
2.0
 40
2.0
 40
2.0
 40
3.0
 40
3.0
 40
3.0
 40
4.0
 40
4.0
 40
4.0
 40
4.0
 10
44.48462320963541
 20
221.4386800130208
 10
44.48462320963541
 20
221.333949110243
 10
44.39987386067708
 20
221.2491997612846
 10
44.29514295789928
 20
221.2491997612846
 10
44.19041205512153
 20
221.2491997612846
 10
44.10566270616318
 20
221.333949110243
 10
44.10566270616318
 20
221.4386800130208
 10
44.10566270616318
 20
221.5434109157984
 10
44.19041205512153
 20
221.6281602647569
 10
44.29514295789928
 20
221.6281602647569
 10
44.39987386067708
 20
221.6281602647569
 10
44.48462320963541
 20
221.5434109157984
 10
44.48462320963541
 20
221.4386800130208
 97
        0
 75
     0
 76
     1
 98
        1
 10
0.0
 20
0.0
  0
HATCH
  5
1E8
330
A
100
AcDbEntity
  8
0
 62
     7
100
AcDbHatch
 10
0.0
 20
0.0
 30
0.0
210
0.0
220
0.0
230
1.0
  2
SOLID
 70
     1
 71
     0
 91
        1
 92
        1
 93
        1
 72
     4
 94
        3
 73
     0
 74
     0
 95
       17
 96
       13
 40
0.0
 40
0.0
 40
0.0
 40
0.0
 40
1.0
 40
1.0
 40
1.0
 40
2.0
 40
2.0
 40
2.0
 40
3.0
 40
3.0
 40
3.0
 40
4.0
 40
4.0
 40
4.0
 40
4.0
 10
44.48462320963541
 20
211.4522094726561
 10
44.48462320963541
 20
211.3474785698783
 10
44.39987386067708
 20
211.2627292209201
 10
44.29514295789928
 20
211.2627292209201
 10
44.19041205512153
 20
211.2627292209201
 10
44.10566270616318
 20
211.3474785698783
 10
44.10566270616318
 20
211.4522094726561
 10
44.10566270616318
 20
211.5569403754339
 10
44.19041205512153
 20
211.6416897243923
 10
44.29514295789928
 20
211.6416897243923
 10
44.39987386067708
 20
211.6416897243923
 10
44.48462320963541
 20
211.5569403754339
 10
44.48462320963541
 20
211.4522094726561
 97
        0
 75
     0
 76
     1
 98
        1
 10
0.0
 20
0.0
  0
HATCH
  5
1E7
330
A
100
AcDbEntity
  8
0
 62
     7
100
AcDbHatch
 10
0.0
 20
0.0
 30
0.0
210
0.0
220
0.0
230
1.0
  2
SOLID
 70
     1
 71
     0
 91
        1
 92
        1
 93
        1
 72
     4
 94
        3
 73
     0
 74
     0
 95
       17
 96
       13
 40
0.0
 40
0.0
 40
0.0
 40
0.0
 40
1.0
 40
1.0
 40
1.0
 40
2.0
 40
2.0
 40
2.0
 40
3.0
 40
3.0
 40
3.0
 40
4.0
 40
4.0
 40
4.0
 40
4.0
 10
44.48462320963541
 20
201.4385226779514
 10
44.48462320963541
 20
201.3337917751736
 10
44.39987386067708
 20
201.2490424262151
 10
44.29514295789928
 20
201.2490424262151
 10
44.19041205512153
 20
201.2490424262151
 10
44.10566270616318
 20
201.3337917751736
 10
44.10566270616318
 20
201.4385226779514
 10
44.10566270616318
 20
201.5432535807291
 10
44.19041205512153
 20
201.6280029296874
 10
44.29514295789928
 20
201.6280029296874
 10
44.39987386067708
 20
201.6280029296874
 10
44.48462320963541
 20
201.5432535807291
 10
44.48462320963541
 20
201.4385226779514
 97
        0
 75
     0
 76
     1
 98
        1
 10
0.0
 20
0.0
  0
HATCH
  5
1E6
330
A
100
AcDbEntity
  8
0
 62
     7
100
AcDbHatch
 10
0.0
 20
0.0
 30
0.0
210
0.0
220
0.0
230
1.0
  2
SOLID
 70
     1
 71
     0
 91
        1
 92
        1
 93
        1
 72
     4
 94
        3
 73
     0
 74
     0
 95
       17
 96
       13
 40
0.0
 40
0.0
 40
0.0
 40
0.0
 40
1.0
 40
1.0
 40
1.0
 40
2.0
 40
2.0
 40
2.0
 40
3.0
 40
3.0
 40
3.0
 40
4.0
 40
4.0
 40
4.0
 40
4.0
 10
44.48462320963541
 20
191.2079671223958
 10
44.48462320963541
 20
191.103236219618
 10
44.39987386067708
 20
191.0184868706595
 10
44.29514295789928
 20
191.0184868706595
 10
44.19041205512153
 20
191.0184868706595
 10
44.10566270616318
 20
191.103236219618
 10
44.10566270616318
 20
191.2079671223958
 10
44.10566270616318
 20
191.3126980251736
 10
44.19041205512153
 20
191.3974473741319
 10
44.29514295789928
 20
191.3974473741319
 10
44.39987386067708
 20
191.3974473741319
 10
44.48462320963541
 20
191.3126980251736
 10
44.48462320963541
 20
191.2079671223958
 97
        0
 75
     0
 76
     1
 98
        1
 10
0.0
 20
0.0
  0
HATCH
  5
1E5
330
A
100
AcDbEntity
  8
0
 62
     7
100
AcDbHatch
 10
0.0
 20
0.0
 30
0.0
210
0.0
220
0.0
230
1.0
  2
SOLID
 70
     1
 71
     0
 91
        1
 92
        1
 93
        1
 72
     4
 94
        3
 73
     0
 74
     0
 95
       17
 96
       13
 40
0.0
 40
0.0
 40
0.0
 40
0.0
 40
1.0
 40
1.0
 40
1.0
 40
2.0
 40
2.0
 40
2.0
 40
3.0
 40
3.0
 40
3.0
 40
4.0
 40
4.0
 40
4.0
 40
4.0
 10
44.48462320963541
 20
181.2419949001736
 10
44.48462320963541
 20
181.1372639973958
 10
44.39987386067708
 20
181.0525146484374
 10
44.29514295789928
 20
181.0525146484374
 10
44.19041205512153
 20
181.0525146484374
 10
44.10566270616318
 20
181.1372639973958
 10
44.10566270616318
 20
181.2419949001736
 10
44.10566270616318
 20
181.3467258029513
 10
44.19041205512153
 20
181.4314751519096
 10
44.29514295789928
 20
181.4314751519096
 10
44.39987386067708
 20
181.4314751519096
 10
44.48462320963541
 20
181.3467258029513
 10
44.48462320963541
 20
181.2419949001736
 97
        0
 75
     0
 76
     1
 98
        1
 10
0.0
 20
0.0
  0
HATCH
  5
1E4
330
A
100
AcDbEntity
  8
0
 62
     7
100
AcDbHatch
 10
0.0
 20
0.0
 30
0.0
210
0.0
220
0.0
230
1.0
  2
SOLID
 70
     1
 71
     0
 91
        1
 92
        1
 93
        1
 72
     4
 94
        3
 73
     0
 74
     0
 95
       17
 96
       13
 40
0.0
 40
0.0
 40
0.0
 40
0.0
 40
1.0
 40
1.0
 40
1.0
 40
2.0
 40
2.0
 40
2.0
 40
3.0
 40
3.0
 40
3.0
 40
4.0
 40
4.0
 40
4.0
 40
4.0
 10
44.48462320963541
 20
171.1804212782116
 10
44.48462320963541
 20
171.0756903754339
 10
44.39987386067708
 20
170.9909410264756
 10
44.29514295789928
 20
170.9909410264756
 10
44.19041205512153
 20
170.9909410264756
 10
44.10566270616318
 20
171.0756903754339
 10
44.10566270616318
 20
171.1804212782116
 10
44.10566270616318
 20
171.2851521809894
 10
44.19041205512153
 20
171.3699015299479
 10
44.29514295789928
 20
171.3699015299479
 10
44.39987386067708
 20
171.3699015299479
 10
44.48462320963541
 20
171.2851521809894
 10
44.48462320963541
 20
171.1804212782116
 97
        0
 75
     0
 76
     1
 98
        1
 10
0.0
 20
0.0
  0
HATCH
  5
1E3
330
A
100
AcDbEntity
  8
0
 62
     7
100
AcDbHatch
 10
0.0
 20
0.0
 30
0.0
210
0.0
220
0.0
230
1.0
  2
SOLID
 70
     1
 71
     0
 91
        1
 92
        1
 93
        1
 72
     4
 94
        3
 73
     0
 74
     0
 95
       17
 96
       13
 40
0.0
 40
0.0
 40
0.0
 40
0.0
 40
1.0
 40
1.0
 40
1.0
 40
2.0
 40
2.0
 40
2.0
 40
3.0
 40
3.0
 40
3.0
 40
4.0
 40
4.0
 40
4.0
 40
4.0
 10
44.48462320963541
 20
161.2849012586804
 10
44.48462320963541
 20
161.1801703559027
 10
44.39987386067708
 20
161.0954210069444
 10
44.29514295789928
 20
161.0954210069444
 10
44.19041205512153
 20
161.0954210069444
 10
44.10566270616318
 20
161.1801703559027
 10
44.10566270616318
 20
161.2849012586804
 10
44.10566270616318
 20
161.3896321614583
 10
44.19041205512153
 20
161.4743815104166
 10
44.29514295789928
 20
161.4743815104166
 10
44.39987386067708
 20
161.4743815104166
 10
44.48462320963541
 20
161.3896321614583
 10
44.48462320963541
 20
161.2849012586804
 97
        0
 75
     0
 76
     1
 98
        1
 10
0.0
 20
0.0
  0
HATCH
  5
1E2
330
A
100
AcDbEntity
  8
0
 62
     7
100
AcDbHatch
 10
0.0
 20
0.0
 30
0.0
210
0.0
220
0.0
230
1.0
  2
SOLID
 70
     1
 71
     0
 91
        1
 92
        1
 93
        1
 72
     4
 94
        3
 73
     0
 74
     0
 95
       17
 96
       13
 40
0.0
 40
0.0
 40
0.0
 40
0.0
 40
1.0
 40
1.0
 40
1.0
 40
2.0
 40
2.0
 40
2.0
 40
3.0
 40
3.0
 40
3.0
 40
4.0
 40
4.0
 40
4.0
 40
4.0
 10
143.266362847222
 20
151.7617960611979
 10
143.37109375
 20
151.7617960611979
 10
143.4558430989583
 20
151.6770467122395
 10
143.4558430989583
 20
151.5723158094616
 10
143.4558430989583
 20
151.467584906684
 10
143.37109375
 20
151.3828355577255
 10
143.266362847222
 20
151.3828355577255
 10
143.1616319444444
 20
151.3828355577255
 10
143.0768825954859
 20
151.467584906684
 10
143.0768825954859
 20
151.5723158094616
 10
143.0768825954859
 20
151.6770467122395
 10
143.1616319444444
 20
151.7617960611979
 10
143.266362847222
 20
151.7617960611979
 97
        0
 75
     0
 76
     1
 98
        1
 10
0.0
 20
0.0
  0
HATCH
  5
1E1
330
A
100
AcDbEntity
  8
0
 62
     7
100
AcDbHatch
 10
0.0
 20
0.0
 30
0.0
210
0.0
220
0.0
230
1.0
  2
SOLID
 70
     1
 71
     0
 91
        1
 92
        1
 93
        1
 72
     4
 94
        3
 73
     0
 74
     0
 95
       17
 96
       13
 40
0.0
 40
0.0
 40
0.0
 40
0.0
 40
1.0
 40
1.0
 40
1.0
 40
2.0
 40
2.0
 40
2.0
 40
3.0
 40
3.0
 40
3.0
 40
4.0
 40
4.0
 40
4.0
 40
4.0
 10
143.3459445529513
 20
155.7212443033854
 10
143.4506754557291
 20
155.7212443033854
 10
143.5354248046874
 20
155.636494954427
 10
143.5354248046874
 20
155.5317640516491
 10
143.5354248046874
 20
155.4270331488714
 10
143.4506754557291
 20
155.3422837999131
 10
143.3459445529513
 20
155.3422837999131
 10
143.2412136501735
 20
155.3422837999131
 10
143.1564643012151
 20
155.4270331488714
 10
143.1564643012151
 20
155.5317640516491
 10
143.1564643012151
 20
155.636494954427
 10
143.2412136501735
 20
155.7212443033854
 10
143.3459445529513
 20
155.7212443033854
 97
        0
 75
     0
 76
     1
 98
        1
 10
0.0
 20
0.0
  0
HATCH
  5
1E0
330
A
100
AcDbEntity
  8
0
 62
     7
100
AcDbHatch
 10
0.0
 20
0.0
 30
0.0
210
0.0
220
0.0
230
1.0
  2
SOLID
 70
     1
 71
     0
 91
        1
 92
        1
 93
        1
 72
     4
 94
        3
 73
     0
 74
     0
 95
       17
 96
       13
 40
0.0
 40
0.0
 40
0.0
 40
0.0
 40
1.0
 40
1.0
 40
1.0
 40
2.0
 40
2.0
 40
2.0
 40
3.0
 40
3.0
 40
3.0
 40
4.0
 40
4.0
 40
4.0
 40
4.0
 10
132.6885416666665
 20
163.1722968207465
 10
132.7932725694444
 20
163.1722968207465
 10
132.8780219184027
 20
163.0875474717881
 10
132.8780219184027
 20
162.9828165690104
 10
132.8780219184027
 20
162.8780856662325
 10
132.7932725694444
 20
162.7933363172741
 10
132.6885416666665
 20
162.7933363172741
 10
132.5838107638888
 20
162.7933363172741
 10
132.4990614149305
 20
162.8780856662325
 10
132.4990614149305
 20
162.9828165690104
 10
132.4990614149305
 20
163.0875474717881
 10
132.5838107638888
 20
163.1722968207465
 10
132.6885416666665
 20
163.1722968207465
 97
        0
 75
     0
 76
     1
 98
        1
 10
0.0
 20
0.0
  0
HATCH
  5
1DF
330
A
100
AcDbEntity
  8
0
 62
     7
100
AcDbHatch
 10
0.0
 20
0.0
 30
0.0
210
0.0
220
0.0
230
1.0
  2
SOLID
 70
     1
 71
     0
 91
        1
 92
        1
 93
        1
 72
     4
 94
        3
 73
     0
 74
     0
 95
       17
 96
       13
 40
0.0
 40
0.0
 40
0.0
 40
0.0
 40
1.0
 40
1.0
 40
1.0
 40
2.0
 40
2.0
 40
2.0
 40
3.0
 40
3.0
 40
3.0
 40
4.0
 40
4.0
 40
4.0
 40
4.0
 10
99.32451443142362
 20
163.1722968207465
 10
99.42924533420136
 20
163.1722968207465
 10
99.51399468315971
 20
163.0875474717881
 10
99.51399468315971
 20
162.9828165690104
 10
99.51399468315971
 20
162.8780856662325
 10
99.42924533420136
 20
162.7933363172741
 10
99.32451443142362
 20
162.7933363172741
 10
99.21978352864584
 20
162.7933363172741
 10
99.13503417968748
 20
162.8780856662325
 10
99.13503417968748
 20
162.9828165690104
 10
99.13503417968748
 20
163.0875474717881
 10
99.21978352864584
 20
163.1722968207465
 10
99.32451443142362
 20
163.1722968207465
 97
        0
 75
     0
 76
     1
 98
        1
 10
0.0
 20
0.0
  0
HATCH
  5
1DE
330
A
100
AcDbEntity
  8
0
 62
     7
100
AcDbHatch
 10
0.0
 20
0.0
 30
0.0
210
0.0
220
0.0
230
1.0
  2
SOLID
 70
     1
 71
     0
 91
        1
 92
        1
 93
        1
 72
     4
 94
        3
 73
     0
 74
     0
 95
       17
 96
       13
 40
0.0
 40
0.0
 40
0.0
 40
0.0
 40
1.0
 40
1.0
 40
1.0
 40
2.0
 40
2.0
 40
2.0
 40
3.0
 40
3.0
 40
3.0
 40
4.0
 40
4.0
 40
4.0
 40
4.0
 10
94.24334309895831
 20
152.7653523763019
 10
94.34807400173612
 20
152.7653523763019
 10
94.43282335069445
 20
152.6806030273436
 10
94.43282335069445
 20
152.5758721245659
 10
94.43282335069445
 20
152.471141221788
 10
94.34807400173612
 20
152.3863918728298
 10
94.24334309895831
 20
152.3863918728298
 10
94.13861219618055
 20
152.3863918728298
 10
94.05386284722222
 20
152.471141221788
 10
94.05386284722222
 20
152.5758721245659
 10
94.05386284722222
 20
152.6806030273436
 10
94.13861219618055
 20
152.7653523763019
 10
94.24334309895831
 20
152.7653523763019
 97
        0
 75
     0
 76
     1
 98
        1
 10
0.0
 20
0.0
  0
HATCH
  5
1DD
330
A
100
AcDbEntity
  8
0
 62
     7
100
AcDbHatch
 10
0.0
 20
0.0
 30
0.0
210
0.0
220
0.0
230
1.0
  2
SOLID
 70
     1
 71
     0
 91
        1
 92
        1
 93
        1
 72
     4
 94
        3
 73
     0
 74
     0
 95
       17
 96
       13
 40
0.0
 40
0.0
 40
0.0
 40
0.0
 40
1.0
 40
1.0
 40
1.0
 40
2.0
 40
2.0
 40
2.0
 40
3.0
 40
3.0
 40
3.0
 40
4.0
 40
4.0
 40
4.0
 40
4.0
 10
94.24334309895831
 20
154.7672973632811
 10
94.34807400173612
 20
154.7672973632811
 10
94.43282335069445
 20
154.6825480143228
 10
94.43282335069445
 20
154.577817111545
 10
94.43282335069445
 20
154.4730862087673
 10
94.34807400173612
 20
154.3883368598089
 10
94.24334309895831
 20
154.3883368598089
 10
94.13861219618055
 20
154.3883368598089
 10
94.05386284722222
 20
154.4730862087673
 10
94.05386284722222
 20
154.577817111545
 10
94.05386284722222
 20
154.6825480143228
 10
94.13861219618055
 20
154.7672973632811
 10
94.24334309895831
 20
154.7672973632811
 97
        0
 75
     0
 76
     1
 98
        1
 10
0.0
 20
0.0
  0
HATCH
  5
1DC
330
A
100
AcDbEntity
  8
0
 62
     7
100
AcDbHatch
 10
0.0
 20
0.0
 30
0.0
210
0.0
220
0.0
230
1.0
  2
SOLID
 70
     1
 71
     0
 91
        1
 92
        1
 93
        1
 72
     4
 94
        3
 73
     0
 74
     0
 95
       17
 96
       13
 40
0.0
 40
0.0
 40
0.0
 40
0.0
 40
1.0
 40
1.0
 40
1.0
 40
2.0
 40
2.0
 40
2.0
 40
3.0
 40
3.0
 40
3.0
 40
4.0
 40
4.0
 40
4.0
 40
4.0
 10
131.0631456163194
 20
159.9018676757812
 10
131.1678765190972
 20
159.9018676757812
 10
131.2526258680555
 20
159.8171183268229
 10
131.2526258680555
 20
159.712387424045
 10
131.2526258680555
 20
159.6076565212673
 10
131.1678765190972
 20
159.522907172309
 10
131.0631456163194
 20
159.522907172309
 10
130.9584147135415
 20
159.522907172309
 10
130.8736653645833
 20
159.6076565212673
 10
130.8736653645833
 20
159.712387424045
 10
130.8736653645833
 20
159.8171183268229
 10
130.9584147135415
 20
159.9018676757812
 10
131.0631456163194
 20
159.9018676757812
 97
        0
 75
     0
 76
     1
 98
        1
 10
0.0
 20
0.0
  0
HATCH
  5
1DB
330
A
100
AcDbEntity
  8
0
 62
     7
100
AcDbHatch
 10
0.0
 20
0.0
 30
0.0
210
0.0
220
0.0
230
1.0
  2
SOLID
 70
     1
 71
     0
 91
        1
 92
        1
 93
        1
 72
     4
 94
        3
 73
     0
 74
     0
 95
       17
 96
       13
 40
0.0
 40
0.0
 40
0.0
 40
0.0
 40
1.0
 40
1.0
 40
1.0
 40
2.0
 40
2.0
 40
2.0
 40
3.0
 40
3.0
 40
3.0
 40
4.0
 40
4.0
 40
4.0
 40
4.0
 10
132.6544352213541
 20
159.9018676757812
 10
132.7591661241318
 20
159.9018676757812
 10
132.8439154730902
 20
159.8171183268229
 10
132.8439154730902
 20
159.712387424045
 10
132.8439154730902
 20
159.6076565212673
 10
132.7591661241318
 20
159.522907172309
 10
132.6544352213541
 20
159.522907172309
 10
132.5497043185762
 20
159.522907172309
 10
132.4649549696179
 20
159.6076565212673
 10
132.4649549696179
 20
159.712387424045
 10
132.4649549696179
 20
159.8171183268229
 10
132.5497043185762
 20
159.9018676757812
 10
132.6544352213541
 20
159.9018676757812
 97
        0
 75
     0
 76
     1
 98
        1
 10
0.0
 20
0.0
  0
HATCH
  5
1DA
330
A
100
AcDbEntity
  8
0
 62
     7
100
AcDbHatch
 10
0.0
 20
0.0
 30
0.0
210
0.0
220
0.0
230
1.0
  2
SOLID
 70
     1
 71
     0
 91
        1
 92
        1
 93
        1
 72
     4
 94
        3
 73
     0
 74
     0
 95
       17
 96
       13
 40
0.0
 40
0.0
 40
0.0
 40
0.0
 40
1.0
 40
1.0
 40
1.0
 40
2.0
 40
2.0
 40
2.0
 40
3.0
 40
3.0
 40
3.0
 40
4.0
 40
4.0
 40
4.0
 40
4.0
 10
64.33698594835068
 20
275.9852213541666
 10
64.33698594835068
 20
275.8804904513888
 10
64.25223659939236
 20
275.7957411024305
 10
64.14750569661457
 20
275.7957411024305
 10
64.04277479383678
 20
275.7957411024305
 10
63.95802544487847
 20
275.8804904513888
 10
63.95802544487847
 20
275.9852213541666
 10
63.95802544487847
 20
276.0899522569443
 10
64.04277479383678
 20
276.1747016059026
 10
64.14750569661457
 20
276.1747016059026
 10
64.25223659939236
 20
276.1747016059026
 10
64.33698594835068
 20
276.0899522569443
 10
64.33698594835068
 20
275.9852213541666
 97
        0
 75
     0
 76
     1
 98
        1
 10
0.0
 20
0.0
  0
HATCH
  5
1D9
330
A
100
AcDbEntity
  8
0
 62
     7
100
AcDbHatch
 10
0.0
 20
0.0
 30
0.0
210
0.0
220
0.0
230
1.0
  2
SOLID
 70
     1
 71
     0
 91
        1
 92
        1
 93
        1
 72
     4
 94
        3
 73
     0
 74
     0
 95
       17
 96
       13
 40
0.0
 40
0.0
 40
0.0
 40
0.0
 40
1.0
 40
1.0
 40
1.0
 40
2.0
 40
2.0
 40
2.0
 40
3.0
 40
3.0
 40
3.0
 40
4.0
 40
4.0
 40
4.0
 40
4.0
 10
80.65898708767361
 20
275.9852213541666
 10
80.65898708767361
 20
275.8804904513888
 10
80.57423773871528
 20
275.7957411024305
 10
80.46950683593747
 20
275.7957411024305
 10
80.36477593315972
 20
275.7957411024305
 10
80.28002658420138
 20
275.8804904513888
 10
80.28002658420138
 20
275.9852213541666
 10
80.28002658420138
 20
276.0899522569443
 10
80.36477593315972
 20
276.1747016059026
 10
80.46950683593747
 20
276.1747016059026
 10
80.57423773871528
 20
276.1747016059026
 10
80.65898708767361
 20
276.0899522569443
 10
80.65898708767361
 20
275.9852213541666
 97
        0
 75
     0
 76
     1
 98
        1
 10
0.0
 20
0.0
  0
MTEXT
  5
1D8
330
A
100
AcDbEntity
  8
0
 62
     7
100
AcDbMText
 10
32.62211
 20
178.619933
 30
0.0
 40
2.624835
 41
0.0
 71
     1
 72
     2
  1
\W0.90;\fMSGothic|b0|i0|c128;1000±10
  7
KANJISTD
 11
0.0
 21
1.0
 31
0.0
 73
     1
 44
1.0
  0
MTEXT
  5
1D7
330
A
100
AcDbEntity
  8
0
 62
     7
100
AcDbMText
 10
67.98275799999998
 20
279.8232459999999
 30
0.0
 40
2.624835
 41
0.0
 71
     1
 72
     2
  1
\W0.90;\fMSGothic|b0|i0|c128;76±2
  7
KANJISTD
 73
     1
 44
1.0
  0
LINE
  5
1D6
330
A
100
AcDbEntity
  8
0
 62
     7
100
AcDbLine
 10
91.54049300000002
 20
84.94916399999999
 30
0.0
 11
99.27266600000001
 21
84.94916399999999
 31
0.0
  0
LINE
  5
1D5
330
A
100
AcDbEntity
  8
0
 62
     7
100
AcDbLine
 10
91.54049300000002
 20
62.668354
 30
0.0
 11
99.27266600000001
 21
62.668354
 31
0.0
  0
LINE
  5
1D4
330
A
100
AcDbEntity
  8
0
 62
     7
100
AcDbLine
 10
99.27266600000001
 20
84.94916399999999
 30
0.0
 11
99.27266600000001
 21
62.66800899999999
 31
0.0
  0
LINE
  5
1D3
330
A
100
AcDbEntity
  8
0
 62
     7
100
AcDbLine
 10
36.126822
 20
53.774151
 30
0.0
 11
36.126822
 21
93.956022
 31
0.0
  0
LINE
  5
1D2
330
A
100
AcDbEntity
  8
0
 62
     7
100
AcDbLine
 10
43.858994
 20
53.77380600000001
 30
0.0
 11
36.126822
 21
53.77380600000001
 31
0.0
  0
LINE
  5
1D1
330
A
100
AcDbEntity
  8
0
 62
     7
100
AcDbLine
 10
43.858994
 20
93.956022
 30
0.0
 11
36.126822
 21
93.956022
 31
0.0
  0
HATCH
  5
1D0
330
A
100
AcDbEntity
  8
0
 62
     7
100
AcDbHatch
 10
0.0
 20
0.0
 30
0.0
210
0.0
220
0.0
230
1.0
  2
SOLID
 70
     1
 71
     0
 91
        1
 92
        1
 93
        1
 72
     4
 94
        3
 73
     0
 74
     0
 95
       17
 96
       13
 40
0.0
 40
0.0
 40
0.0
 40
0.0
 40
1.0
 40
1.0
 40
1.0
 40
2.0
 40
2.0
 40
2.0
 40
3.0
 40
3.0
 40
3.0
 40
4.0
 40
4.0
 40
4.0
 40
4.0
 10
36.12062038845486
 20
53.96500922309027
 10
36.22535129123264
 20
53.96500922309027
 10
36.31010064019096
 20
53.88025987413193
 10
36.31010064019096
 20
53.77552897135416
 10
36.31010064019096
 20
53.67079806857638
 10
36.22535129123264
 20
53.58604871961803
 10
36.12062038845486
 20
53.58604871961803
 10
36.01588948567707
 20
53.58604871961803
 10
35.93114013671874
 20
53.67079806857638
 10
35.93114013671874
 20
53.77552897135416
 10
35.93114013671874
 20
53.88025987413193
 10
36.01588948567707
 20
53.96500922309027
 10
36.12062038845486
 20
53.96500922309027
 97
        0
 75
     0
 76
     1
 98
        1
 10
0.0
 20
0.0
  0
HATCH
  5
1CF
330
A
100
AcDbEntity
  8
0
 62
     7
100
AcDbHatch
 10
0.0
 20
0.0
 30
0.0
210
0.0
220
0.0
230
1.0
  2
SOLID
 70
     1
 71
     0
 91
        1
 92
        1
 93
        1
 72
     4
 94
        3
 73
     0
 74
     0
 95
       17
 96
       13
 40
0.0
 40
0.0
 40
0.0
 40
0.0
 40
1.0
 40
1.0
 40
1.0
 40
2.0
 40
2.0
 40
2.0
 40
3.0
 40
3.0
 40
3.0
 40
4.0
 40
4.0
 40
4.0
 40
4.0
 10
36.12062038845486
 20
94.15893825954857
 10
36.22535129123264
 20
94.15893825954857
 10
36.31010064019096
 20
94.07418891059029
 10
36.31010064019096
 20
93.96945800781248
 10
36.31010064019096
 20
93.86472710503472
 10
36.22535129123264
 20
93.77997775607635
 10
36.12062038845486
 20
93.77997775607635
 10
36.01588948567707
 20
93.77997775607635
 10
35.93114013671874
 20
93.86472710503472
 10
35.93114013671874
 20
93.96945800781248
 10
35.93114013671874
 20
94.07418891059029
 10
36.01588948567707
 20
94.15893825954857
 10
36.12062038845486
 20
94.15893825954857
 97
        0
 75
     0
 76
     1
 98
        1
 10
0.0
 20
0.0
  0
HATCH
  5
1CE
330
A
100
AcDbEntity
  8
0
 62
     7
100
AcDbHatch
 10
0.0
 20
0.0
 30
0.0
210
0.0
220
0.0
230
1.0
  2
SOLID
 70
     1
 71
     0
 91
        1
 92
        1
 93
        1
 72
     4
 94
        3
 73
     0
 74
     0
 95
       17
 96
       13
 40
0.0
 40
0.0
 40
0.0
 40
0.0
 40
1.0
 40
1.0
 40
1.0
 40
2.0
 40
2.0
 40
2.0
 40
3.0
 40
3.0
 40
3.0
 40
4.0
 40
4.0
 40
4.0
 40
4.0
 10
99.27990044487845
 20
85.21133626302081
 10
99.38463134765626
 20
85.21133626302081
 10
99.46938069661456
 20
85.12658691406249
 10
99.46938069661456
 20
85.0218560112847
 10
99.46938069661456
 20
84.91712510850694
 10
99.38463134765626
 20
84.83237575954859
 10
99.27990044487845
 20
84.83237575954859
 10
99.1751695421007
 20
84.83237575954859
 10
99.09042019314235
 20
84.91712510850694
 10
99.09042019314235
 20
85.0218560112847
 10
99.09042019314235
 20
85.12658691406249
 10
99.1751695421007
 20
85.21133626302081
 10
99.27990044487845
 20
85.21133626302081
 97
        0
 75
     0
 76
     1
 98
        1
 10
0.0
 20
0.0
  0
HATCH
  5
1CD
330
A
100
AcDbEntity
  8
0
 62
     7
100
AcDbHatch
 10
0.0
 20
0.0
 30
0.0
210
0.0
220
0.0
230
1.0
  2
SOLID
 70
     1
 71
     0
 91
        1
 92
        1
 93
        1
 72
     4
 94
        3
 73
     0
 74
     0
 95
       17
 96
       13
 40
0.0
 40
0.0
 40
0.0
 40
0.0
 40
1.0
 40
1.0
 40
1.0
 40
2.0
 40
2.0
 40
2.0
 40
3.0
 40
3.0
 40
3.0
 40
4.0
 40
4.0
 40
4.0
 40
4.0
 10
99.27990044487845
 20
62.85990125868053
 10
99.38463134765626
 20
62.85990125868053
 10
99.46938069661456
 20
62.77515190972223
 10
99.46938069661456
 20
62.67042100694443
 10
99.46938069661456
 20
62.56569010416666
 10
99.38463134765626
 20
62.48094075520833
 10
99.27990044487845
 20
62.48094075520833
 10
99.1751695421007
 20
62.48094075520833
 10
99.09042019314235
 20
62.56569010416666
 10
99.09042019314235
 20
62.67042100694443
 10
99.09042019314235
 20
62.77515190972223
 10
99.1751695421007
 20
62.85990125868053
 10
99.27990044487845
 20
62.85990125868053
 97
        0
 75
     0
 76
     1
 98
        1
 10
0.0
 20
0.0
  0
MTEXT
  5
1CC
330
A
100
AcDbEntity
  8
0
 62
     7
100
AcDbMText
 10
32.845696
 20
67.047759
 30
0.0
 40
2.624835
 41
0.0
 71
     1
 72
     2
  1
\W0.90;\fMSGothic|b0|i0|c128;Φ-200±5
  7
KANJISTD
 11
0.0
 21
1.0
 31
0.0
 73
     1
 44
1.0
  0
MTEXT
  5
1CB
330
A
100
AcDbEntity
  8
0
 62
     7
100
AcDbMText
 10
120.0994569999999
 20
67.047759
 30
0.0
 40
2.624835
 41
0.0
 71
     1
 72
     2
  1
\W0.90;\fMSGothic|b0|i0|c128;Φ-200±5
  7
KANJISTD
 11
0.0
 21
1.0
 31
0.0
 73
     1
 44
1.0
  0
LINE
  5
1CA
330
A
100
AcDbEntity
  8
0
 62
     7
100
AcDbLine
 10
123.968316
 20
53.774151
 30
0.0
 11
123.968316
 21
93.956022
 31
0.0
  0
LINE
  5
1C9
330
A
100
AcDbEntity
  8
0
 62
     7
100
AcDbLine
 10
131.7004879999998
 20
53.77380600000001
 30
0.0
 11
123.968316
 21
53.77380600000001
 31
0.0
  0
LINE
  5
1C8
330
A
100
AcDbEntity
  8
0
 62
     7
100
AcDbLine
 10
131.7004879999998
 20
93.956022
 30
0.0
 11
123.968316
 21
93.956022
 31
0.0
  0
HATCH
  5
1C7
330
A
100
AcDbEntity
  8
0
 62
     7
100
AcDbHatch
 10
0.0
 20
0.0
 30
0.0
210
0.0
220
0.0
230
1.0
  2
SOLID
 70
     1
 71
     0
 91
        1
 92
        1
 93
        1
 72
     4
 94
        3
 73
     0
 74
     0
 95
       17
 96
       13
 40
0.0
 40
0.0
 40
0.0
 40
0.0
 40
1.0
 40
1.0
 40
1.0
 40
2.0
 40
2.0
 40
2.0
 40
3.0
 40
3.0
 40
3.0
 40
4.0
 40
4.0
 40
4.0
 40
4.0
 10
123.9621148003472
 20
53.96500922309027
 10
124.0668457031248
 20
53.96500922309027
 10
124.1515950520833
 20
53.88025987413193
 10
124.1515950520833
 20
53.77552897135416
 10
124.1515950520833
 20
53.67079806857638
 10
124.0668457031248
 20
53.58604871961803
 10
123.9621148003472
 20
53.58604871961803
 10
123.8573838975694
 20
53.58604871961803
 10
123.772634548611
 20
53.67079806857638
 10
123.772634548611
 20
53.77552897135416
 10
123.772634548611
 20
53.88025987413193
 10
123.8573838975694
 20
53.96500922309027
 10
123.9621148003472
 20
53.96500922309027
 97
        0
 75
     0
 76
     1
 98
        1
 10
0.0
 20
0.0
  0
HATCH
  5
1C6
330
A
100
AcDbEntity
  8
0
 62
     7
100
AcDbHatch
 10
0.0
 20
0.0
 30
0.0
210
0.0
220
0.0
230
1.0
  2
SOLID
 70
     1
 71
     0
 91
        1
 92
        1
 93
        1
 72
     4
 94
        3
 73
     0
 74
     0
 95
       17
 96
       13
 40
0.0
 40
0.0
 40
0.0
 40
0.0
 40
1.0
 40
1.0
 40
1.0
 40
2.0
 40
2.0
 40
2.0
 40
3.0
 40
3.0
 40
3.0
 40
4.0
 40
4.0
 40
4.0
 40
4.0
 10
123.9621148003472
 20
94.15893825954857
 10
124.0668457031248
 20
94.15893825954857
 10
124.1515950520833
 20
94.07418891059029
 10
124.1515950520833
 20
93.96945800781248
 10
124.1515950520833
 20
93.86472710503472
 10
124.0668457031248
 20
93.77997775607635
 10
123.9621148003472
 20
93.77997775607635
 10
123.8573838975694
 20
93.77997775607635
 10
123.772634548611
 20
93.86472710503472
 10
123.772634548611
 20
93.96945800781248
 10
123.772634548611
 20
94.07418891059029
 10
123.8573838975694
 20
94.15893825954857
 10
123.9621148003472
 20
94.15893825954857
 97
        0
 75
     0
 76
     1
 98
        1
 10
0.0
 20
0.0
  0
MTEXT
  5
1C5
330
A
100
AcDbEntity
  8
0
 62
     7
100
AcDbMText
 10
56.703516
 20
45.738827
 30
0.0
 40
2.624835
 41
0.0
 71
     1
 72
     2
  1
\W0.75;\fMSGothic|b0|i0|c128; ベース平面　1:5
  7
KANJISTD
 73
     1
 44
1.0
  0
MTEXT
  5
1C4
330
A
100
AcDbEntity
  8
0
 62
     7
100
AcDbMText
 10
144.5617189999999
 20
46.099528
 30
0.0
 40
2.624835
 41
0.0
 71
     1
 72
     2
  1
\W0.75;\fMSGothic|b0|i0|c128;  ベース底面　1:5
  7
KANJISTD
 73
     1
 44
1.0
  0
MTEXT
  5
1C3
330
A
100
AcDbEntity
  8
0
 62
     7
100
AcDbMText
 10
56.805318
 20
45.738827
 30
0.0
 40
2.624835
 41
0.0
 71
     1
 72
     2
  1
\W0.75;\fMS Gothic|b0|i0|c128;
  7
STD
 73
     1
 44
1.0
  0
POLYLINE
  5
1BD
330
A
100
AcDbEntity
  8
0
 62
     7
100
AcDb2dPolyline
 66
     1
 10
0.0
 20
0.0
 30
0.0
 70
     1
  0
VERTEX
  5
1BE
330
1BD
100
AcDbEntity
  8
0
 62
     7
100
AcDbVertex
100
AcDb2dVertex
 10
84.851152
 20
41.65465
 30
0.0
  0
VERTEX
  5
1BF
330
1BD
100
AcDbEntity
  8
0
 62
     7
100
AcDbVertex
100
AcDb2dVertex
 10
50.278929
 20
41.65465
 30
0.0
  0
VERTEX
  5
1C0
330
1BD
100
AcDbEntity
  8
0
 62
     7
100
AcDbVertex
100
AcDb2dVertex
 10
50.278929
 20
47.12270499999998
 30
0.0
  0
VERTEX
  5
1C1
330
1BD
100
AcDbEntity
  8
0
 62
     7
100
AcDbVertex
100
AcDb2dVertex
 10
84.851152
 20
47.12270499999998
 30
0.0
  0
SEQEND
  5
1C2
330
1BD
100
AcDbEntity
  8
0
 62
     7
  0
POLYLINE
  5
1B7
330
A
100
AcDbEntity
  8
0
 62
     7
100
AcDb2dPolyline
 66
     1
 10
0.0
 20
0.0
 30
0.0
 70
     1
  0
VERTEX
  5
1B8
330
1B7
100
AcDbEntity
  8
0
 62
     7
100
AcDbVertex
100
AcDb2dVertex
 10
172.665085
 20
41.834828
 30
0.0
  0
VERTEX
  5
1B9
330
1B7
100
AcDbEntity
  8
0
 62
     7
100
AcDbVertex
100
AcDb2dVertex
 10
138.0928629999999
 20
41.834828
 30
0.0
  0
VERTEX
  5
1BA
330
1B7
100
AcDbEntity
  8
0
 62
     7
100
AcDbVertex
100
AcDb2dVertex
 10
138.0928629999999
 20
47.302884
 30
0.0
  0
VERTEX
  5
1BB
330
1B7
100
AcDbEntity
  8
0
 62
     7
100
AcDbVertex
100
AcDb2dVertex
 10
172.665085
 20
47.302884
 30
0.0
  0
SEQEND
  5
1BC
330
1B7
100
AcDbEntity
  8
0
 62
     7
  0
SPLINE
  5
1B6
330
A
100
AcDbEntity
  8
0
 62
     7
100
AcDbSpline
210
0.0
220
0.0
230
1.0
 70
     8
 71
     3
 72
    11
 73
     7
 74
     0
 42
0.0000000001
 43
0.0000000001
 40
0.0
 40
0.0
 40
0.0
 40
0.0
 40
1.0
 40
1.0
 40
1.0
 40
2.0
 40
2.0
 40
2.0
 40
2.0
 10
52.31877034505208
 20
141.1428059895833
 30
0.0
 10
52.34512532552082
 20
140.8940700954859
 30
0.0
 10
52.56819525824653
 20
140.7135470920138
 30
0.0
 10
52.81744791666666
 20
140.7390407986109
 30
0.0
 10
52.8219265407986
 20
140.7397298177083
 30
0.0
 10
52.82623291015625
 20
140.7404188368055
 30
0.0
 10
52.83036702473958
 20
140.7411078559027
 30
0.0
  0
LINE
  5
1B5
330
A
100
AcDbEntity
  8
0
  6
AI9-LType2
 62
     7
100
AcDbLine
 10
80.090719
 20
120.1938689999999
 30
0.0
 11
64.620517
 21
120.1938689999999
 31
0.0
  0
ELLIPSE
  5
1B4
330
A
100
AcDbEntity
  8
0
 62
     7
100
AcDbEllipse
 10
71.293667
 20
85.97614699999999
 30
0.0
 11
-0.5556939019097223
 21
1.598524305555554
 31
0.0
210
0.0
220
0.0
230
0.9999999999999998
 40
0.799426
 41
0.0
 42
6.283185307179584
  0
ELLIPSE
  5
1B3
330
A
100
AcDbEntity
  8
0
 62
     7
100
AcDbEllipse
 10
63.771818
 20
85.97614699999999
 30
0.0
 11
0.5556939019097223
 21
1.598524305555554
 31
0.0
210
0.0
220
0.0
230
0.9999999999999998
 40
0.799426
 41
0.0
 42
6.283185307179584
  0
ELLIPSE
  5
1B2
330
A
100
AcDbEntity
  8
0
 62
     7
100
AcDbEllipse
 10
63.771818
 20
61.753853
 30
0.0
 11
0.5556939019097224
 21
-1.59869656032986
 31
0.0
210
0.0
220
0.0
230
1.0
 40
0.799382
 41
0.0
 42
6.283185307179584
  0
ELLIPSE
  5
1B1
330
A
100
AcDbEntity
  8
0
 62
     7
100
AcDbEllipse
 10
71.293667
 20
61.753853
 30
0.0
 11
-0.5556939019097224
 21
-1.59869656032986
 31
0.0
210
0.0
220
0.0
230
1.0
 40
0.799382
 41
0.0
 42
6.283185307179584
  0
LINE
  5
1B0
330
A
100
AcDbEntity
  8
0
  6
AI9-LType15
 62
     7
100
AcDbLine
 10
58.406082
 20
87.147824
 30
0.0
 11
54.14380999999998
 21
82.88589700000001
 31
0.0
  0
LINE
  5
1AF
330
A
100
AcDbEntity
  8
0
  6
AI9-LType15
 62
     7
100
AcDbLine
 10
76.448391
 20
87.147824
 30
0.0
 11
80.71031899999999
 21
82.88589700000001
 31
0.0
  0
LINE
  5
1AE
330
A
100
AcDbEntity
  8
0
  6
AI9-LType15
 62
     7
100
AcDbLine
 10
80.71031899999999
 20
64.843587
 30
0.0
 11
76.448391
 21
60.58165999999999
 31
0.0
  0
LINE
  5
1AD
330
A
100
AcDbEntity
  8
0
  6
AI9-LType15
 62
     7
100
AcDbLine
 10
54.14380999999998
 20
64.843587
 30
0.0
 11
58.406082
 21
60.58165999999999
 31
0.0
  0
LINE
  5
1AC
330
A
100
AcDbEntity
  8
0
  6
AI9-LType15
 62
     7
100
AcDbLine
 10
76.448391
 20
64.843587
 30
0.0
 11
80.71031899999999
 21
60.58165999999999
 31
0.0
  0
LINE
  5
1AB
330
A
100
AcDbEntity
  8
0
  6
AI9-LType15
 62
     7
100
AcDbLine
 10
58.406082
 20
64.843587
 30
0.0
 11
54.14380999999998
 21
60.58165999999999
 31
0.0
  0
CIRCLE
  5
1AA
330
A
100
AcDbEntity
  8
0
 62
     7
100
AcDbCircle
 10
56.275118
 20
62.71279599999999
 30
0.0
 40
2.410877999999998
  0
CIRCLE
  5
1A9
330
A
100
AcDbEntity
  8
0
 62
     7
100
AcDbCircle
 10
78.579183
 20
62.71279599999999
 30
0.0
 40
2.410706
  0
CIRCLE
  5
1A8
330
A
100
AcDbEntity
  8
0
 62
     7
100
AcDbCircle
 10
78.579183
 20
85.017033
 30
0.0
 40
2.410706
  0
CIRCLE
  5
1A7
330
A
100
AcDbEntity
  8
0
 62
     7
100
AcDbCircle
 10
56.275118
 20
85.017033
 30
0.0
 40
2.410877999999998
  0
CIRCLE
  5
1A6
330
A
100
AcDbEntity
  8
0
 62
     7
100
AcDbCircle
 10
56.27494599999999
 20
62.71279599999999
 30
0.0
 40
1.004589999999998
  0
CIRCLE
  5
1A5
330
A
100
AcDbEntity
  8
0
 62
     7
100
AcDbCircle
 10
78.579183
 20
62.71279599999999
 30
0.0
 40
1.004589999999998
  0
CIRCLE
  5
1A4
330
A
100
AcDbEntity
  8
0
 62
     7
100
AcDbCircle
 10
78.579183
 20
85.017033
 30
0.0
 40
1.004589999999998
  0
CIRCLE
  5
1A3
330
A
100
AcDbEntity
  8
0
 62
     7
100
AcDbCircle
 10
56.27494599999999
 20
85.017033
 30
0.0
 40
1.004589999999998
  0
LINE
  5
1A2
330
A
100
AcDbEntity
  8
0
  6
AI9-LType15
 62
     7
100
AcDbLine
 10
80.71031899999999
 20
87.147824
 30
0.0
 11
76.448391
 21
82.88589700000001
 31
0.0
  0
LINE
  5
1A1
330
A
100
AcDbEntity
  8
0
  6
AI9-LType15
 62
     7
100
AcDbLine
 10
54.14380999999998
 20
87.147824
 30
0.0
 11
58.406082
 21
82.88589700000001
 31
0.0
  0
CIRCLE
  5
19F
330
A
100
AcDbEntity
  8
0
 62
     7
100
AcDbCircle
 10
67.50354499999999
 20
73.864914
 30
0.0
 40
10.547849
  0
CIRCLE
  5
19E
330
A
100
AcDbEntity
  8
0
 62
     7
100
AcDbCircle
 10
67.427064
 20
73.864914
 30
0.0
 40
20.09093599999999
  0
LINE
  5
19D
330
A
100
AcDbEntity
  8
0
  6
AI9-LType14
 62
     7
100
AcDbLine
 10
159.5127439999999
 20
71.748937
 30
0.0
 11
149.4671899999999
 21
71.748937
 31
0.0
  0
SPLINE
  5
19B
330
A
100
AcDbEntity
  8
0
  6
AI9-LType13
 62
     7
100
AcDbSpline
210
0.0
220
0.0
230
1.0
 70
     8
 71
     3
 72
    11
 73
     7
 74
     0
 42
0.0000000001
 43
0.0000000001
 40
0.0
 40
0.0
 40
0.0
 40
0.0
 40
1.0
 40
1.0
 40
1.0
 40
2.0
 40
2.0
 40
2.0
 40
2.0
 10
149.4671902126734
 20
71.74893663194443
 30
0.0
 10
149.2422254774305
 20
71.74893663194443
 30
0.0
 10
149.0589463975694
 20
71.93221571180554
 30
0.0
 10
149.0589463975694
 20
72.15752495659723
 30
0.0
 10
149.0589463975694
 20
72.3828342013889
 30
0.0
 10
149.2422254774305
 20
72.56576877170137
 30
0.0
 10
149.4671902126734
 20
72.56576877170137
 30
0.0
  0
SPLINE
  5
199
330
A
100
AcDbEntity
  8
0
  6
AI9-LType12
 62
     7
100
AcDbSpline
210
0.0
220
0.0
230
1.0
 70
     8
 71
     3
 72
    11
 73
     7
 74
     0
 42
0.0000000001
 43
0.0000000001
 40
0.0
 40
0.0
 40
0.0
 40
0.0
 40
1.0
 40
1.0
 40
1.0
 40
2.0
 40
2.0
 40
2.0
 40
2.0
 10
159.5127441406249
 20
72.56576877170137
 30
0.0
 10
159.7380533854166
 20
72.56576877170137
 30
0.0
 10
159.9206434461804
 20
72.3828342013889
 30
0.0
 10
159.9206434461804
 20
72.15752495659723
 30
0.0
 10
159.9206434461804
 20
71.93221571180554
 30
0.0
 10
159.7380533854166
 20
71.74893663194443
 30
0.0
 10
159.5127441406249
 20
71.74893663194443
 30
0.0
  0
SPLINE
  5
197
330
A
100
AcDbEntity
  8
0
  6
AI9-LType11
 62
     7
100
AcDbSpline
210
0.0
220
0.0
230
1.0
 70
     8
 71
     3
 72
    11
 73
     7
 74
     0
 42
0.0000000001
 43
0.0000000001
 40
0.0
 40
0.0
 40
0.0
 40
0.0
 40
1.0
 40
1.0
 40
1.0
 40
2.0
 40
2.0
 40
2.0
 40
2.0
 10
154.893560112847
 20
77.46745062934026
 30
0.0
 10
154.732329644097
 20
74.92807074652777
 30
0.0
 10
156.6677842881944
 20
72.7311333550347
 30
0.0
 10
159.2068196614583
 20
72.56990288628472
 30
0.0
 10
159.2040635850693
 20
72.5702473958333
 30
0.0
 10
159.5237684461805
 20
72.5606011284722
 30
0.0
 10
159.5237684461805
 20
72.5606011284722
 30
0.0
  0
SPLINE
  5
195
330
A
100
AcDbEntity
  8
0
  6
AI9-LType10
 62
     7
100
AcDbSpline
210
0.0
220
0.0
230
1.0
 70
     8
 71
     3
 72
    14
 73
    10
 74
     0
 42
0.0000000001
 43
0.0000000001
 40
0.0
 40
0.0
 40
0.0
 40
0.0
 40
1.0
 40
1.0
 40
1.0
 40
2.0
 40
2.0
 40
2.0
 40
3.0
 40
3.0
 40
3.0
 40
3.0
 10
149.4523763020833
 20
72.55095486111112
 30
0.0
 10
150.6850314670138
 20
72.54268663194443
 30
0.0
 10
151.8467176649305
 20
73.01466471354166
 30
0.0
 10
152.724183485243
 20
73.88076171874998
 30
0.0
 10
153.6016493055555
 20
74.7461697048611
 30
0.0
 10
154.0894748263888
 20
75.90234375
 30
0.0
 10
154.0973985460069
 20
77.13499891493056
 30
0.0
 10
154.0973985460069
 20
77.13499891493056
 30
0.0
 10
154.0836181640625
 20
77.52360568576387
 30
0.0
 10
154.0836181640625
 20
77.52360568576387
 30
0.0
  0
SPLINE
  5
193
330
A
100
AcDbEntity
  8
0
  6
AI9-LType9
 62
     7
100
AcDbSpline
210
0.0
220
0.0
230
1.0
 70
     8
 71
     3
 72
    14
 73
    10
 74
     0
 42
0.0000000001
 43
0.0000000001
 40
0.0
 40
0.0
 40
0.0
 40
0.0
 40
1.0
 40
1.0
 40
1.0
 40
2.0
 40
2.0
 40
2.0
 40
3.0
 40
3.0
 40
3.0
 40
3.0
 10
154.0832736545138
 20
77.54496527777778
 30
0.0
 10
154.0832736545138
 20
77.54496527777778
 30
0.0
 10
154.0836181640625
 20
77.62213541666667
 30
0.0
 10
154.0836181640625
 20
77.62213541666667
 30
0.0
 10
154.1053222656248
 20
77.84537760416665
 30
0.0
 10
154.305482313368
 20
78.01005316840276
 30
0.0
 10
154.5294135199652
 20
77.98800455729166
 30
0.0
 10
154.753689236111
 20
77.96630045572915
 30
0.0
 10
154.9183648003472
 20
77.7661404079861
 30
0.0
 10
154.8963161892359
 20
77.54220920138887
 30
0.0
  0
SPLINE
  5
191
330
A
100
AcDbEntity
  8
0
 62
     7
100
AcDbSpline
210
0.0
220
0.0
230
1.0
 70
    11
 71
     3
 72
    17
 73
    13
 74
     0
 42
0.0000000001
 43
0.0000000001
 40
0.0
 40
0.0
 40
0.0
 40
0.0
 40
1.0
 40
1.0
 40
1.0
 40
2.0
 40
2.0
 40
2.0
 40
3.0
 40
3.0
 40
3.0
 40
4.0
 40
4.0
 40
4.0
 40
4.0
 10
154.4136583116319
 20
93.95602213541666
 30
0.0
 10
143.3176947699651
 20
93.95602213541666
 30
0.0
 10
134.322550455729
 20
84.96156684027779
 30
0.0
 10
134.322550455729
 20
73.86525878906248
 30
0.0
 10
134.322550455729
 20
62.76929524739582
 30
0.0
 10
143.3176947699651
 20
53.77415093315972
 30
0.0
 10
154.4136583116319
 20
53.77415093315972
 30
0.0
 10
165.5099663628472
 20
53.77415093315972
 30
0.0
 10
174.5044216579861
 20
62.76929524739582
 30
0.0
 10
174.5044216579861
 20
73.86525878906248
 30
0.0
 10
174.5044216579861
 20
84.96156684027779
 30
0.0
 10
165.5099663628472
 20
93.95602213541666
 30
0.0
 10
154.4136583116319
 20
93.95602213541666
 30
0.0
  0
SPLINE
  5
190
330
A
100
AcDbEntity
  8
0
 62
     7
100
AcDbSpline
210
0.0
220
0.0
230
1.0
 70
    11
 71
     3
 72
    20
 73
    16
 74
     0
 42
0.0000000001
 43
0.0000000001
 40
0.0
 40
0.0
 40
0.0
 40
0.0
 40
1.0
 40
1.0
 40
1.0
 40
2.0
 40
2.0
 40
2.0
 40
3.0
 40
3.0
 40
3.0
 40
4.0
 40
4.0
 40
4.0
 40
5.0
 40
5.0
 40
5.0
 40
5.0
 10
144.4576768663194
 20
89.90665690104165
 30
0.0
 10
144.4576768663194
 20
89.90665690104165
 30
0.0
 10
145.7103135850694
 20
87.73624674479165
 30
0.0
 10
145.7103135850694
 20
87.73624674479165
 30
0.0
 10
145.5790554470484
 20
87.65253092447919
 30
0.0
 10
145.4526204427081
 20
87.56192491319444
 30
0.0
 10
145.3237738715276
 20
87.47510850694444
 30
0.0
 10
144.765323893229
 20
87.94433051215277
 30
0.0
 10
144.0463324652776
 20
88.22820638020832
 30
0.0
 10
143.2615397135416
 20
88.22820638020832
 30
0.0
 10
142.7068793402776
 20
88.22820638020832
 30
0.0
 10
142.1852918836805
 20
88.08661295572916
 30
0.0
 10
141.7295057508679
 20
87.83822157118056
 30
0.0
 10
142.5738986545138
 20
88.60509982638888
 30
0.0
 10
143.4847819010416
 20
89.30032009548609
 30
0.0
 10
144.4576768663194
 20
89.90665690104165
 30
0.0
  0
SPLINE
  5
18F
330
A
100
AcDbEntity
  8
0
 62
     7
100
AcDbSpline
210
0.0
220
0.0
230
1.0
 70
    11
 71
     3
 72
    17
 73
    13
 74
     0
 42
0.0000000001
 43
0.0000000001
 40
0.0
 40
0.0
 40
0.0
 40
0.0
 40
1.0
 40
1.0
 40
1.0
 40
2.0
 40
2.0
 40
2.0
 40
3.0
 40
3.0
 40
3.0
 40
4.0
 40
4.0
 40
4.0
 40
4.0
 10
144.2661295572916
 20
85.01737738715275
 30
0.0
 10
144.2661295572916
 20
84.46237250434027
 30
0.0
 10
143.8162000868055
 20
84.01278754340275
 30
0.0
 10
143.2615397135416
 20
84.01278754340275
 30
0.0
 10
142.7065348307291
 20
84.01278754340275
 30
0.0
 10
142.2569498697916
 20
84.46237250434027
 30
0.0
 10
142.2569498697916
 20
85.01737738715275
 30
0.0
 10
142.2569498697916
 20
85.57203776041665
 30
0.0
 10
142.7065348307291
 20
86.02196723090276
 30
0.0
 10
143.2615397135416
 20
86.02196723090276
 30
0.0
 10
143.8162000868055
 20
86.02196723090276
 30
0.0
 10
144.2661295572916
 20
85.57203776041665
 30
0.0
 10
144.2661295572916
 20
85.01737738715275
 30
0.0
  0
SPLINE
  5
18E
330
A
100
AcDbEntity
  8
0
 62
     7
100
AcDbSpline
210
0.0
220
0.0
230
1.0
 70
    11
 71
     3
 72
    29
 73
    25
 74
     0
 42
0.0000000001
 43
0.0000000001
 40
0.0
 40
0.0
 40
0.0
 40
0.0
 40
1.0
 40
1.0
 40
1.0
 40
2.0
 40
2.0
 40
2.0
 40
3.0
 40
3.0
 40
3.0
 40
4.0
 40
4.0
 40
4.0
 40
5.0
 40
5.0
 40
5.0
 40
6.0
 40
6.0
 40
6.0
 40
7.0
 40
7.0
 40
7.0
 40
8.0
 40
8.0
 40
8.0
 40
8.0
 10
141.7539659288194
 20
82.18378634982638
 30
0.0
 10
142.2038953993055
 20
81.94366319444444
 30
0.0
 10
142.7165256076388
 20
81.80620388454862
 30
0.0
 10
143.2615397135416
 20
81.80620388454862
 30
0.0
 10
145.0319742838541
 20
81.80620388454862
 30
0.0
 10
146.4723687065971
 20
83.24659830729165
 30
0.0
 10
146.4723687065971
 20
85.01737738715275
 30
0.0
 10
146.4723687065971
 20
85.56962619357637
 30
0.0
 10
146.3318088107638
 20
86.08983561197915
 30
0.0
 10
146.0851399739583
 20
86.54424370659722
 30
0.0
 10
146.1609320746527
 20
86.59454210069444
 30
0.0
 10
146.2339680989583
 20
86.64828559027776
 30
0.0
 10
146.31044921875
 20
86.69720594618055
 30
0.0
 10
146.31044921875
 20
86.69720594618055
 30
0.0
 10
147.6488688151041
 20
84.37865668402777
 30
0.0
 10
147.6488688151041
 20
84.37865668402777
 30
0.0
 10
146.1650661892359
 20
83.4098958333333
 30
0.0
 10
144.8979600694443
 20
82.13486599392359
 30
0.0
 10
143.9378119574653
 20
80.64486219618054
 30
0.0
 10
143.9378119574653
 20
80.64486219618054
 30
0.0
 10
141.6192626953125
 20
81.98362630208334
 30
0.0
 10
141.6192626953125
 20
81.98362630208334
 30
0.0
 10
141.6623263888888
 20
82.05149468315971
 30
0.0
 10
141.7098687065972
 20
82.11660698784722
 30
0.0
 10
141.7539659288194
 20
82.18378634982638
 30
0.0
  0
SPLINE
  5
18D
330
A
100
AcDbEntity
  8
0
 62
     7
100
AcDbSpline
210
0.0
220
0.0
230
1.0
 70
    11
 71
     3
 72
    29
 73
    25
 74
     0
 42
0.0000000001
 43
0.0000000001
 40
0.0
 40
0.0
 40
0.0
 40
0.0
 40
1.0
 40
1.0
 40
1.0
 40
2.0
 40
2.0
 40
2.0
 40
3.0
 40
3.0
 40
3.0
 40
4.0
 40
4.0
 40
4.0
 40
5.0
 40
5.0
 40
5.0
 40
6.0
 40
6.0
 40
6.0
 40
7.0
 40
7.0
 40
7.0
 40
8.0
 40
8.0
 40
8.0
 40
8.0
 10
150.4941731770833
 20
77.15877007378472
 30
0.0
 10
150.4941731770833
 20
77.15980360243055
 30
0.0
 10
150.490728081597
 20
77.24455295138887
 30
0.0
 10
150.490728081597
 20
77.24455295138887
 30
0.0
 10
150.490728081597
 20
77.24455295138887
 30
0.0
 10
150.2588731553819
 20
76.99512803819444
 30
0.0
 10
150.2588731553819
 20
76.99512803819444
 30
0.0
 10
150.2588731553819
 20
76.99512803819444
 30
0.0
 10
144.9771972656249
 20
80.04472656249998
 30
0.0
 10
144.9771972656249
 20
80.04472656249998
 30
0.0
 10
145.830202907986
 20
81.35386284722221
 30
0.0
 10
146.9471028645833
 20
82.47558593749998
 30
0.0
 10
148.2500379774305
 20
83.33720431857637
 30
0.0
 10
148.2500379774305
 20
83.33720431857637
 30
0.0
 10
150.7466986762151
 20
79.01326497395834
 30
0.0
 10
150.7466986762151
 20
79.01326497395834
 30
0.0
 10
150.6209526909722
 20
78.68494737413193
 30
0.0
 10
150.5327582465277
 20
78.3366482204861
 30
0.0
 10
150.4969292534721
 20
77.97009006076388
 30
0.0
 10
150.4969292534721
 20
77.97009006076388
 30
0.0
 10
150.493484157986
 20
77.22767198350694
 30
0.0
 10
150.493484157986
 20
77.22767198350694
 30
0.0
 10
150.493484157986
 20
77.22767198350694
 30
0.0
 10
150.4941731770833
 20
77.15877007378472
 30
0.0
 10
150.4941731770833
 20
77.15877007378472
 30
0.0
  0
SPLINE
  5
18C
330
A
100
AcDbEntity
  8
0
 62
     7
100
AcDbSpline
210
0.0
220
0.0
230
1.0
 70
    11
 71
     3
 72
    20
 73
    16
 74
     0
 42
0.0000000001
 43
0.0000000001
 40
0.0
 40
0.0
 40
0.0
 40
0.0
 40
1.0
 40
1.0
 40
1.0
 40
2.0
 40
2.0
 40
2.0
 40
3.0
 40
3.0
 40
3.0
 40
4.0
 40
4.0
 40
4.0
 40
5.0
 40
5.0
 40
5.0
 40
5.0
 10
145.603515625
 20
73.2268825954861
 30
0.0
 10
145.5091200086805
 20
72.8858181423611
 30
0.0
 10
145.4553765190972
 20
72.52821723090277
 30
0.0
 10
145.4553765190972
 20
72.15752495659723
 30
0.0
 10
145.4553765190972
 20
71.344482421875
 30
0.0
 10
145.6999782986111
 20
70.58793945312498
 30
0.0
 10
146.1175238715276
 20
69.95507541232638
 30
0.0
 10
146.1175238715276
 20
69.95507541232638
 30
0.0
 10
144.2888671874999
 20
68.89915364583332
 30
0.0
 10
144.2888671874999
 20
68.89915364583332
 30
0.0
 10
143.6436008029513
 20
70.21931423611111
 30
0.0
 10
143.2470703125
 20
71.6821017795139
 30
0.0
 10
143.160942925347
 20
73.2268825954861
 30
0.0
 10
143.160942925347
 20
73.2268825954861
 30
0.0
 10
145.603515625
 20
73.2268825954861
 30
0.0
 10
145.603515625
 20
73.2268825954861
 30
0.0
  0
SPLINE
  5
18B
330
A
100
AcDbEntity
  8
0
 62
     7
100
AcDbSpline
210
0.0
220
0.0
230
1.0
 70
    11
 71
     3
 72
    17
 73
    13
 74
     0
 42
0.0000000001
 43
0.0000000001
 40
0.0
 40
0.0
 40
0.0
 40
0.0
 40
1.0
 40
1.0
 40
1.0
 40
2.0
 40
2.0
 40
2.0
 40
3.0
 40
3.0
 40
3.0
 40
4.0
 40
4.0
 40
4.0
 40
4.0
 10
143.1564643012151
 20
74.42646484374998
 30
0.0
 10
143.2367350260415
 20
76.06839735243053
 30
0.0
 10
143.6694390190971
 20
77.61800130208334
 30
0.0
 10
144.3777506510415
 20
79.00534125434027
 30
0.0
 10
144.3777506510415
 20
79.00534125434027
 30
0.0
 10
149.3042371961805
 20
76.16107042100694
 30
0.0
 10
149.3042371961805
 20
76.16107042100694
 30
0.0
 10
148.0026801215277
 20
76.10836046006942
 30
0.0
 10
146.8613199869791
 20
75.43277723524306
 30
0.0
 10
146.1657552083333
 20
74.42646484374998
 30
0.0
 10
146.1657552083333
 20
74.42646484374998
 30
0.0
 10
143.1564643012151
 20
74.42646484374998
 30
0.0
 10
143.1564643012151
 20
74.42646484374998
 30
0.0
  0
SPLINE
  5
18A
330
A
100
AcDbEntity
  8
0
 62
     7
100
AcDbSpline
210
0.0
220
0.0
230
1.0
 70
    11
 71
     3
 72
    23
 73
    19
 74
     0
 42
0.0000000001
 43
0.0000000001
 40
0.0
 40
0.0
 40
0.0
 40
0.0
 40
1.0
 40
1.0
 40
1.0
 40
2.0
 40
2.0
 40
2.0
 40
3.0
 40
3.0
 40
3.0
 40
4.0
 40
4.0
 40
4.0
 40
5.0
 40
5.0
 40
5.0
 40
6.0
 40
6.0
 40
6.0
 40
6.0
 10
146.9409016927083
 20
69.04453667534721
 30
0.0
 10
147.6209635416666
 20
68.491943359375
 30
0.0
 10
148.484304470486
 20
68.1574245876736
 30
0.0
 10
149.4248155381943
 20
68.14743381076389
 30
0.0
 10
149.4248155381943
 20
68.14743381076389
 30
0.0
 10
149.4248155381943
 20
68.12917480468749
 30
0.0
 10
149.4248155381943
 20
68.12917480468749
 30
0.0
 10
149.4248155381943
 20
68.12917480468749
 30
0.0
 10
150.4638563368055
 20
68.12917480468749
 30
0.0
 10
150.4638563368055
 20
68.12917480468749
 30
0.0
 10
150.4638563368055
 20
68.12917480468749
 30
0.0
 10
148.2913791232638
 20
64.36678602430554
 30
0.0
 10
148.2913791232638
 20
64.36678602430554
 30
0.0
 10
146.9167860243055
 20
65.267333984375
 30
0.0
 10
145.7482096354165
 20
66.457958984375
 30
0.0
 10
144.8738444010416
 20
67.85115559895833
 30
0.0
 10
144.8738444010416
 20
67.85115559895833
 30
0.0
 10
146.9409016927083
 20
69.04453667534721
 30
0.0
 10
146.9409016927083
 20
69.04453667534721
 30
0.0
  0
SPLINE
  5
189
330
A
100
AcDbEntity
  8
0
 62
     7
100
AcDbSpline
210
0.0
220
0.0
230
1.0
 70
    11
 71
     3
 72
    17
 73
    13
 74
     0
 42
0.0000000001
 43
0.0000000001
 40
0.0
 40
0.0
 40
0.0
 40
0.0
 40
1.0
 40
1.0
 40
1.0
 40
2.0
 40
2.0
 40
2.0
 40
3.0
 40
3.0
 40
3.0
 40
4.0
 40
4.0
 40
4.0
 40
4.0
 10
143.3369873046873
 20
79.60616590711804
 30
0.0
 10
142.5284233940971
 20
78.0414035373264
 30
0.0
 10
142.0388753255208
 20
76.28612738715276
 30
0.0
 10
141.9565375434027
 20
74.42646484374998
 30
0.0
 10
141.9565375434027
 20
74.42646484374998
 30
0.0
 10
139.2790093315972
 20
74.42646484374998
 30
0.0
 10
139.2790093315972
 20
74.42646484374998
 30
0.0
 10
139.3644476996527
 20
76.77257486979165
 30
0.0
 10
139.9855984157985
 20
78.98363715277778
 30
0.0
 10
141.0194715711805
 20
80.94424099392361
 30
0.0
 10
141.0194715711805
 20
80.94424099392361
 30
0.0
 10
143.3369873046873
 20
79.60616590711804
 30
0.0
 10
143.3369873046873
 20
79.60616590711804
 30
0.0
  0
SPLINE
  5
188
330
A
100
AcDbEntity
  8
0
 62
     7
100
AcDbSpline
210
0.0
220
0.0
230
1.0
 70
    11
 71
     3
 72
    20
 73
    16
 74
     0
 42
0.0000000001
 43
0.0000000001
 40
0.0
 40
0.0
 40
0.0
 40
0.0
 40
1.0
 40
1.0
 40
1.0
 40
2.0
 40
2.0
 40
2.0
 40
3.0
 40
3.0
 40
3.0
 40
4.0
 40
4.0
 40
4.0
 40
5.0
 40
5.0
 40
5.0
 40
5.0
 10
140.4427625868054
 20
86.55285644531248
 30
0.0
 10
140.1929931640625
 20
86.09638129340277
 30
0.0
 10
140.050710720486
 20
85.57341579861112
 30
0.0
 10
140.050710720486
 20
85.01737738715275
 30
0.0
 10
140.050710720486
 20
84.22466091579861
 30
0.0
 10
140.3407877604165
 20
83.4994683159722
 30
0.0
 10
140.8182779947916
 20
82.93895128038194
 30
0.0
 10
140.7390407986109
 20
82.8200954861111
 30
0.0
 10
140.6563585069443
 20
82.70434027777778
 30
0.0
 10
140.58056640625
 20
82.58307291666666
 30
0.0
 10
140.58056640625
 20
82.58307291666666
 30
0.0
 10
138.3894856770833
 20
83.84811197916667
 30
0.0
 10
138.3894856770833
 20
83.84811197916667
 30
0.0
 10
138.9916883680554
 20
84.81273871527776
 30
0.0
 10
139.681396484375
 20
85.71569824218748
 30
0.0
 10
140.4427625868054
 20
86.55285644531248
 30
0.0
  0
SPLINE
  5
187
330
A
100
AcDbEntity
  8
0
 62
     7
100
AcDbSpline
210
0.0
220
0.0
230
1.0
 70
    11
 71
     3
 72
    17
 73
    13
 74
     0
 42
0.0000000001
 43
0.0000000001
 40
0.0
 40
0.0
 40
0.0
 40
0.0
 40
1.0
 40
1.0
 40
1.0
 40
2.0
 40
2.0
 40
2.0
 40
3.0
 40
3.0
 40
3.0
 40
4.0
 40
4.0
 40
4.0
 40
4.0
 10
137.7886610243054
 20
82.80941569010416
 30
0.0
 10
137.7886610243054
 20
82.80941569010416
 30
0.0
 10
139.9811197916666
 20
81.54368760850694
 30
0.0
 10
139.9811197916666
 20
81.54368760850694
 30
0.0
 10
138.8459608289929
 20
79.4056613498264
 30
0.0
 10
138.1655544704859
 20
76.9909939236111
 30
0.0
 10
138.078738064236
 20
74.42646484374998
 30
0.0
 10
138.078738064236
 20
74.42646484374998
 30
0.0
 10
135.5369466145833
 20
74.42646484374998
 30
0.0
 10
135.5369466145833
 20
74.42646484374998
 30
0.0
 10
135.6258300781248
 20
77.45263671875
 30
0.0
 10
136.4340494791665
 20
80.2996636284722
 30
0.0
 10
137.7886610243054
 20
82.80941569010416
 30
0.0
  0
SPLINE
  5
186
330
A
100
AcDbEntity
  8
0
 62
     7
100
AcDbSpline
210
0.0
220
0.0
230
1.0
 70
    11
 71
     3
 72
    17
 73
    13
 74
     0
 42
0.0000000001
 43
0.0000000001
 40
0.0
 40
0.0
 40
0.0
 40
0.0
 40
1.0
 40
1.0
 40
1.0
 40
2.0
 40
2.0
 40
2.0
 40
3.0
 40
3.0
 40
3.0
 40
4.0
 40
4.0
 40
4.0
 40
4.0
 10
135.5386691623264
 20
73.2268825954861
 30
0.0
 10
135.5386691623264
 20
73.2268825954861
 30
0.0
 10
138.0808051215277
 20
73.2268825954861
 30
0.0
 10
138.0808051215277
 20
73.2268825954861
 30
0.0
 10
138.1758897569443
 20
70.75950520833329
 30
0.0
 10
138.8173665364583
 20
68.43199869791665
 30
0.0
 10
139.8881022135415
 20
66.35805121527778
 30
0.0
 10
139.8881022135415
 20
66.35805121527778
 30
0.0
 10
137.6918538411458
 20
65.09025607638888
 30
0.0
 10
137.6918538411458
 20
65.09025607638888
 30
0.0
 10
136.4030436197915
 20
67.53696289062499
 30
0.0
 10
135.6368543836804
 20
70.29786241319444
 30
0.0
 10
135.5386691623264
 20
73.2268825954861
 30
0.0
  0
SPLINE
  5
185
330
A
100
AcDbEntity
  8
0
 62
     7
100
AcDbSpline
210
0.0
220
0.0
230
1.0
 70
    11
 71
     3
 72
    20
 73
    16
 74
     0
 42
0.0000000001
 43
0.0000000001
 40
0.0
 40
0.0
 40
0.0
 40
0.0
 40
1.0
 40
1.0
 40
1.0
 40
2.0
 40
2.0
 40
2.0
 40
3.0
 40
3.0
 40
3.0
 40
4.0
 40
4.0
 40
4.0
 40
5.0
 40
5.0
 40
5.0
 40
5.0
 10
140.4510308159721
 20
61.16353624131942
 30
0.0
 10
139.6417778862847
 20
62.0523708767361
 30
0.0
 10
138.9117621527776
 20
63.01424153645832
 30
0.0
 10
138.281654188368
 20
64.04501410590277
 30
0.0
 10
138.281654188368
 20
64.04501410590277
 30
0.0
 10
140.4737684461804
 20
65.31074218749999
 30
0.0
 10
140.4737684461804
 20
65.31074218749999
 30
0.0
 10
140.5826334635416
 20
65.13297526041665
 30
0.0
 10
140.700111219618
 20
64.96140950520832
 30
0.0
 10
140.8155219184026
 20
64.78812120225693
 30
0.0
 10
140.3394097222222
 20
64.22760416666666
 30
0.0
 10
140.050710720486
 20
63.50413411458333
 30
0.0
 10
140.050710720486
 20
62.71314019097222
 30
0.0
 10
140.050710720486
 20
62.15124511718749
 30
0.0
 10
140.1967827690971
 20
61.62311197916666
 30
0.0
 10
140.4510308159721
 20
61.16353624131942
 30
0.0
  0
SPLINE
  5
184
330
A
100
AcDbEntity
  8
0
 62
     7
100
AcDbSpline
210
0.0
220
0.0
230
1.0
 70
    11
 71
     3
 72
    17
 73
    13
 74
     0
 42
0.0000000001
 43
0.0000000001
 40
0.0
 40
0.0
 40
0.0
 40
0.0
 40
1.0
 40
1.0
 40
1.0
 40
2.0
 40
2.0
 40
2.0
 40
3.0
 40
3.0
 40
3.0
 40
4.0
 40
4.0
 40
4.0
 40
4.0
 10
139.2807318793402
 20
73.2268825954861
 30
0.0
 10
139.2807318793402
 20
73.2268825954861
 30
0.0
 10
141.9586046006944
 20
73.2268825954861
 30
0.0
 10
141.9586046006944
 20
73.2268825954861
 30
0.0
 10
142.0474880642361
 20
71.46402723524303
 30
0.0
 10
142.5036187065972
 20
69.7976345486111
 30
0.0
 10
143.2491373697916
 20
68.29867350260416
 30
0.0
 10
143.2491373697916
 20
68.29867350260416
 30
0.0
 10
140.9278320312498
 20
66.95887586805553
 30
0.0
 10
140.9278320312498
 20
66.95887586805553
 30
0.0
 10
139.9583821614583
 20
68.85471191406249
 30
0.0
 10
139.3740939670138
 20
70.97792426215277
 30
0.0
 10
139.2807318793402
 20
73.2268825954861
 30
0.0
  0
SPLINE
  5
183
330
A
100
AcDbEntity
  8
0
 62
     7
100
AcDbSpline
210
0.0
220
0.0
230
1.0
 70
    11
 71
     3
 72
    29
 73
    25
 74
     0
 42
0.0000000001
 43
0.0000000001
 40
0.0
 40
0.0
 40
0.0
 40
0.0
 40
1.0
 40
1.0
 40
1.0
 40
2.0
 40
2.0
 40
2.0
 40
3.0
 40
3.0
 40
3.0
 40
4.0
 40
4.0
 40
4.0
 40
5.0
 40
5.0
 40
5.0
 40
6.0
 40
6.0
 40
6.0
 40
7.0
 40
7.0
 40
7.0
 40
8.0
 40
8.0
 40
8.0
 40
8.0
 10
143.8341145833333
 20
67.25101996527778
 30
0.0
 10
144.8149332682291
 20
65.67626681857638
 30
0.0
 10
146.1354383680555
 20
64.33509114583333
 30
0.0
 10
147.6912434895833
 20
63.32705620659722
 30
0.0
 10
147.6912434895833
 20
63.32705620659722
 30
0.0
 10
146.3531684027777
 20
61.00919596354166
 30
0.0
 10
146.3531684027777
 20
61.00919596354166
 30
0.0
 10
146.262562391493
 20
61.06672905815972
 30
0.0
 10
146.1760904947915
 20
61.12977430555553
 30
0.0
 10
146.0868625217013
 20
61.18902994791666
 30
0.0
 10
146.3324978298611
 20
61.6427490234375
 30
0.0
 10
146.4723687065971
 20
62.16192491319444
 30
0.0
 10
146.4723687065971
 20
62.71314019097222
 30
0.0
 10
146.4723687065971
 20
64.48323025173611
 30
0.0
 10
145.0319742838541
 20
65.92396918402778
 30
0.0
 10
143.2615397135416
 20
65.92396918402778
 30
0.0
 10
142.7165256076388
 20
65.92396918402778
 30
0.0
 10
142.2032063802083
 20
65.78616536458333
 30
0.0
 10
141.7532769097221
 20
65.54569769965278
 30
0.0
 10
141.6733506944443
 20
65.66765407986109
 30
0.0
 10
141.5899793836804
 20
65.78685438368053
 30
0.0
 10
141.5134982638888
 20
65.91122233072916
 30
0.0
 10
141.5134982638888
 20
65.91122233072916
 30
0.0
 10
143.8341145833333
 20
67.25101996527778
 30
0.0
 10
143.8341145833333
 20
67.25101996527778
 30
0.0
  0
SPLINE
  5
182
330
A
100
AcDbEntity
  8
0
 62
     7
100
AcDbSpline
210
0.0
220
0.0
230
1.0
 70
    11
 71
     3
 72
    17
 73
    13
 74
     0
 42
0.0000000001
 43
0.0000000001
 40
0.0
 40
0.0
 40
0.0
 40
0.0
 40
1.0
 40
1.0
 40
1.0
 40
2.0
 40
2.0
 40
2.0
 40
3.0
 40
3.0
 40
3.0
 40
4.0
 40
4.0
 40
4.0
 40
4.0
 10
144.2661295572916
 20
62.71314019097222
 30
0.0
 10
144.2661295572916
 20
62.15813530815971
 30
0.0
 10
143.8162000868055
 20
61.70855034722221
 30
0.0
 10
143.2615397135416
 20
61.70855034722221
 30
0.0
 10
142.7065348307291
 20
61.70855034722221
 30
0.0
 10
142.2569498697916
 20
62.15813530815971
 30
0.0
 10
142.2569498697916
 20
62.71314019097222
 30
0.0
 10
142.2569498697916
 20
63.2678005642361
 30
0.0
 10
142.7065348307291
 20
63.71773003472222
 30
0.0
 10
143.2615397135416
 20
63.71773003472222
 30
0.0
 10
143.8162000868055
 20
63.71773003472222
 30
0.0
 10
144.2661295572916
 20
63.2678005642361
 30
0.0
 10
144.2661295572916
 20
62.71314019097222
 30
0.0
  0
SPLINE
  5
181
330
A
100
AcDbEntity
  8
0
 62
     7
100
AcDbSpline
210
0.0
220
0.0
230
1.0
 70
    11
 71
     3
 72
    20
 73
    16
 74
     0
 42
0.0000000001
 43
0.0000000001
 40
0.0
 40
0.0
 40
0.0
 40
0.0
 40
1.0
 40
1.0
 40
1.0
 40
2.0
 40
2.0
 40
2.0
 40
3.0
 40
3.0
 40
3.0
 40
4.0
 40
4.0
 40
4.0
 40
5.0
 40
5.0
 40
5.0
 40
5.0
 10
141.7043565538193
 20
59.9067654079861
 30
0.0
 10
142.1659993489583
 20
59.64976128472223
 30
0.0
 10
142.6965440538193
 20
59.50196668836803
 30
0.0
 10
143.2615397135416
 20
59.50196668836803
 30
0.0
 10
144.0473659939236
 20
59.50196668836803
 30
0.0
 10
144.7670464409721
 20
59.78687608506944
 30
0.0
 10
145.3258409288194
 20
60.25747612847222
 30
0.0
 10
145.4681233723958
 20
60.16135796440972
 30
0.0
 10
145.6079942491319
 20
60.0617947048611
 30
0.0
 10
145.7530327690971
 20
59.97015516493053
 30
0.0
 10
145.7530327690971
 20
59.97015516493053
 30
0.0
 10
144.4962619357638
 20
57.79319932725694
 30
0.0
 10
144.4962619357638
 20
57.79319932725694
 30
0.0
 10
143.4992513020833
 20
58.41056043836804
 30
0.0
 10
142.5670084635416
 20
59.12093912760416
 30
0.0
 10
141.7043565538193
 20
59.9067654079861
 30
0.0
  0
SPLINE
  5
180
330
A
100
AcDbEntity
  8
0
 62
     7
100
AcDbSpline
210
0.0
220
0.0
230
1.0
 70
    11
 71
     3
 72
    17
 73
    13
 74
     0
 42
0.0000000001
 43
0.0000000001
 40
0.0
 40
0.0
 40
0.0
 40
0.0
 40
1.0
 40
1.0
 40
1.0
 40
2.0
 40
2.0
 40
2.0
 40
3.0
 40
3.0
 40
3.0
 40
4.0
 40
4.0
 40
4.0
 40
4.0
 10
153.8700222439234
 20
54.9830349392361
 30
0.0
 10
150.8652099609373
 20
55.06847330729166
 30
0.0
 10
148.0336859809026
 20
55.85808919270832
 30
0.0
 10
145.5359917534721
 20
57.19409722222223
 30
0.0
 10
145.5359917534721
 20
57.19409722222223
 30
0.0
 10
146.7913845486109
 20
59.36795247395833
 30
0.0
 10
146.7913845486109
 20
59.36795247395833
 30
0.0
 10
148.9176974826388
 20
58.23382703993053
 30
0.0
 10
151.3192735460069
 20
57.55583224826388
 30
0.0
 10
153.8700222439234
 20
57.46005859374999
 30
0.0
 10
153.8700222439234
 20
57.46005859374999
 30
0.0
 10
153.8700222439234
 20
54.9830349392361
 30
0.0
 10
153.8700222439234
 20
54.9830349392361
 30
0.0
  0
SPLINE
  5
17F
330
A
100
AcDbEntity
  8
0
 62
     7
100
AcDbSpline
210
0.0
220
0.0
230
1.0
 70
    11
 71
     3
 72
    17
 73
    13
 74
     0
 42
0.0000000001
 43
0.0000000001
 40
0.0
 40
0.0
 40
0.0
 40
0.0
 40
1.0
 40
1.0
 40
1.0
 40
2.0
 40
2.0
 40
2.0
 40
3.0
 40
3.0
 40
3.0
 40
4.0
 40
4.0
 40
4.0
 40
4.0
 10
153.8700222439234
 20
58.6599853515625
 30
0.0
 10
151.5373480902777
 20
58.75403645833333
 30
0.0
 10
149.3404106987846
 20
59.37449815538194
 30
0.0
 10
147.391175672743
 20
60.40733778211803
 30
0.0
 10
147.391175672743
 20
60.40733778211803
 30
0.0
 10
148.7302842881944
 20
62.72692057291666
 30
0.0
 10
148.7302842881944
 20
62.72692057291666
 30
0.0
 10
150.2836778428819
 20
61.92007921006942
 30
0.0
 10
152.0237955729166
 20
61.42846408420138
 30
0.0
 10
153.8700222439234
 20
61.33785807291666
 30
0.0
 10
153.8700222439234
 20
61.33785807291666
 30
0.0
 10
153.8700222439234
 20
58.6599853515625
 30
0.0
 10
153.8700222439234
 20
58.6599853515625
 30
0.0
  0
SPLINE
  5
17E
330
A
100
AcDbEntity
  8
0
 62
     7
100
AcDbSpline
210
0.0
220
0.0
230
1.0
 70
    11
 71
     3
 72
    17
 73
    13
 74
     0
 42
0.0000000001
 43
0.0000000001
 40
0.0
 40
0.0
 40
0.0
 40
0.0
 40
1.0
 40
1.0
 40
1.0
 40
2.0
 40
2.0
 40
2.0
 40
3.0
 40
3.0
 40
3.0
 40
4.0
 40
4.0
 40
4.0
 40
4.0
 10
153.8700222439234
 20
62.53778483072916
 30
0.0
 10
152.2418701171874
 20
62.62632378472222
 30
0.0
 10
150.7060465494791
 20
63.06040581597223
 30
0.0
 10
149.3304199218749
 20
63.766650390625
 30
0.0
 10
149.3304199218749
 20
63.766650390625
 30
0.0
 10
151.8494737413194
 20
68.12917480468749
 30
0.0
 10
151.8494737413194
 20
68.12917480468749
 30
0.0
 10
151.8494737413194
 20
68.12917480468749
 30
0.0
 10
153.8700222439234
 20
68.12917480468749
 30
0.0
 10
153.8700222439234
 20
68.12917480468749
 30
0.0
 10
153.8700222439234
 20
68.12917480468749
 30
0.0
 10
153.8700222439234
 20
62.53778483072916
 30
0.0
 10
153.8700222439234
 20
62.53778483072916
 30
0.0
  0
SPLINE
  5
17D
330
A
100
AcDbEntity
  8
0
 62
     7
100
AcDbSpline
210
0.0
220
0.0
230
1.0
 70
    11
 71
     3
 72
    17
 73
    13
 74
     0
 42
0.0000000001
 43
0.0000000001
 40
0.0
 40
0.0
 40
0.0
 40
0.0
 40
1.0
 40
1.0
 40
1.0
 40
2.0
 40
2.0
 40
2.0
 40
3.0
 40
3.0
 40
3.0
 40
4.0
 40
4.0
 40
4.0
 40
4.0
 10
153.8700222439234
 20
81.54437662760416
 30
0.0
 10
152.9177978515624
 20
81.3945149739583
 30
0.0
 10
152.0637586805555
 20
80.90531141493054
 30
0.0
 10
151.4505316840276
 20
80.19355468749997
 30
0.0
 10
151.4505316840276
 20
80.19355468749997
 30
0.0
 10
149.2846001519095
 20
83.94526367187499
 30
0.0
 10
149.2846001519095
 20
83.94526367187499
 30
0.0
 10
150.6715955946179
 20
84.66459960937497
 30
0.0
 10
152.2249891493054
 20
85.10453830295137
 30
0.0
 10
153.8700222439234
 20
85.19376627604165
 30
0.0
 10
153.8700222439234
 20
85.19376627604165
 30
0.0
 10
153.8700222439234
 20
81.54437662760416
 30
0.0
 10
153.8700222439234
 20
81.54437662760416
 30
0.0
  0
SPLINE
  5
17C
330
A
100
AcDbEntity
  8
0
 62
     7
100
AcDbSpline
210
0.0
220
0.0
230
1.0
 70
    11
 71
     3
 72
    17
 73
    13
 74
     0
 42
0.0000000001
 43
0.0000000001
 40
0.0
 40
0.0
 40
0.0
 40
0.0
 40
1.0
 40
1.0
 40
1.0
 40
2.0
 40
2.0
 40
2.0
 40
3.0
 40
3.0
 40
3.0
 40
4.0
 40
4.0
 40
4.0
 40
4.0
 10
153.8700222439234
 20
86.39334852430556
 30
0.0
 10
152.0065700954861
 20
86.30239800347222
 30
0.0
 10
150.248193359375
 20
85.80595974392362
 30
0.0
 10
148.6841200086805
 20
84.98568250868054
 30
0.0
 10
148.6841200086805
 20
84.98568250868054
 30
0.0
 10
147.3446668836805
 20
87.30560980902778
 30
0.0
 10
147.3446668836805
 20
87.30560980902778
 30
0.0
 10
149.3042371961805
 20
88.35222981770831
 30
0.0
 10
151.5201226128471
 20
88.97648111979165
 30
0.0
 10
153.8700222439234
 20
89.07122124565971
 30
0.0
 10
153.8700222439234
 20
89.07122124565971
 30
0.0
 10
153.8700222439234
 20
86.39334852430556
 30
0.0
 10
153.8700222439234
 20
86.39334852430556
 30
0.0
  0
SPLINE
  5
17B
330
A
100
AcDbEntity
  8
0
 62
     7
100
AcDbSpline
210
0.0
220
0.0
230
1.0
 70
    11
 71
     3
 72
    17
 73
    13
 74
     0
 42
0.0000000001
 43
0.0000000001
 40
0.0
 40
0.0
 40
0.0
 40
0.0
 40
1.0
 40
1.0
 40
1.0
 40
2.0
 40
2.0
 40
2.0
 40
3.0
 40
3.0
 40
3.0
 40
4.0
 40
4.0
 40
4.0
 40
4.0
 10
153.8700222439234
 20
90.27114800347222
 30
0.0
 10
151.3017035590277
 20
90.17468532986105
 30
0.0
 10
148.8818684895833
 20
89.49255642361109
 30
0.0
 10
146.7448757595485
 20
88.34465060763887
 30
0.0
 10
146.7448757595485
 20
88.34465060763887
 30
0.0
 10
145.4939615885415
 20
90.51161566840276
 30
0.0
 10
145.4939615885415
 20
90.51161566840276
 30
0.0
 10
148.0013020833333
 20
91.86140407986107
 30
0.0
 10
150.8483289930555
 20
92.65274251302082
 30
0.0
 10
153.8700222439234
 20
92.7392144097222
 30
0.0
 10
153.8700222439234
 20
92.7392144097222
 30
0.0
 10
153.8700222439234
 20
90.27114800347222
 30
0.0
 10
153.8700222439234
 20
90.27114800347222
 30
0.0
  0
SPLINE
  5
17A
330
A
100
AcDbEntity
  8
0
 62
     7
100
AcDbSpline
210
0.0
220
0.0
230
1.0
 70
    11
 71
     3
 72
    17
 73
    13
 74
     0
 42
0.0000000001
 43
0.0000000001
 40
0.0
 40
0.0
 40
0.0
 40
0.0
 40
1.0
 40
1.0
 40
1.0
 40
2.0
 40
2.0
 40
2.0
 40
3.0
 40
3.0
 40
3.0
 40
4.0
 40
4.0
 40
4.0
 40
4.0
 10
173.2869249131943
 20
74.42646484374998
 30
0.0
 10
173.2869249131943
 20
74.42646484374998
 30
0.0
 10
170.898095703125
 20
74.42646484374998
 30
0.0
 10
170.898095703125
 20
74.42646484374998
 30
0.0
 10
170.8105902777776
 20
76.97928059895831
 30
0.0
 10
170.1401746961805
 20
79.38395724826387
 30
0.0
 10
169.0122504340276
 20
81.51440429687498
 30
0.0
 10
169.0122504340276
 20
81.51440429687498
 30
0.0
 10
171.0958441840277
 20
82.71674262152776
 30
0.0
 10
171.0958441840277
 20
82.71674262152776
 30
0.0
 10
172.4208279079861
 20
80.23110622829859
 30
0.0
 10
173.1987304687499
 20
77.41439615885416
 30
0.0
 10
173.2869249131943
 20
74.42646484374998
 30
0.0
  0
SPLINE
  5
179
330
A
100
AcDbEntity
  8
0
 62
     7
100
AcDbSpline
210
0.0
220
0.0
230
1.0
 70
    11
 71
     3
 72
    20
 73
    16
 74
     0
 42
0.0000000001
 43
0.0000000001
 40
0.0
 40
0.0
 40
0.0
 40
0.0
 40
1.0
 40
1.0
 40
1.0
 40
2.0
 40
2.0
 40
2.0
 40
3.0
 40
3.0
 40
3.0
 40
4.0
 40
4.0
 40
4.0
 40
5.0
 40
5.0
 40
5.0
 40
5.0
 10
168.3852430555554
 20
86.55182291666667
 30
0.0
 10
169.1700358072916
 20
85.68779296875
 30
0.0
 10
169.8811035156249
 20
84.75486111111109
 30
0.0
 10
170.4970865885416
 20
83.75716145833333
 30
0.0
 10
170.4970865885416
 20
83.75716145833333
 30
0.0
 10
168.4141818576388
 20
82.55413411458331
 30
0.0
 10
168.4141818576388
 20
82.55413411458331
 30
0.0
 10
168.3108289930555
 20
82.71949869791667
 30
0.0
 10
168.1992078993054
 20
82.87900661892358
 30
0.0
 10
168.0903428819443
 20
83.03989257812498
 30
0.0
 10
168.5182237413194
 20
83.58559570312499
 30
0.0
 10
168.7766059027777
 20
84.27116970486112
 30
0.0
 10
168.7766059027777
 20
85.01737738715275
 30
0.0
 10
168.7766059027777
 20
85.5727267795139
 30
0.0
 10
168.6346679687499
 20
86.09534776475696
 30
0.0
 10
168.3852430555554
 20
86.55182291666667
 30
0.0
  0
SPLINE
  5
178
330
A
100
AcDbEntity
  8
0
 62
     7
100
AcDbSpline
210
0.0
220
0.0
230
1.0
 70
    11
 71
     3
 72
    17
 73
    13
 74
     0
 42
0.0000000001
 43
0.0000000001
 40
0.0
 40
0.0
 40
0.0
 40
0.0
 40
1.0
 40
1.0
 40
1.0
 40
2.0
 40
2.0
 40
2.0
 40
3.0
 40
3.0
 40
3.0
 40
4.0
 40
4.0
 40
4.0
 40
4.0
 10
169.6978244357637
 20
74.42646484374998
 30
0.0
 10
169.6978244357637
 20
74.42646484374998
 30
0.0
 10
167.0209852430554
 20
74.42646484374998
 30
0.0
 10
167.0209852430554
 20
74.42646484374998
 30
0.0
 10
166.9376139322916
 20
76.2744140625
 30
0.0
 10
166.4539225260416
 20
78.01797688802081
 30
0.0
 10
165.6532823350694
 20
79.57481553819444
 30
0.0
 10
165.6532823350694
 20
79.57481553819444
 30
0.0
 10
167.9732096354165
 20
80.91426866319443
 30
0.0
 10
167.9732096354165
 20
80.91426866319443
 30
0.0
 10
168.9991590711804
 20
78.96124403211804
 30
0.0
 10
169.611697048611
 20
76.76086154513888
 30
0.0
 10
169.6978244357637
 20
74.42646484374998
 30
0.0
  0
SPLINE
  5
177
330
A
100
AcDbEntity
  8
0
 62
     7
100
AcDbSpline
210
0.0
220
0.0
230
1.0
 70
    11
 71
     3
 72
    20
 73
    16
 74
     0
 42
0.0000000001
 43
0.0000000001
 40
0.0
 40
0.0
 40
0.0
 40
0.0
 40
1.0
 40
1.0
 40
1.0
 40
2.0
 40
2.0
 40
2.0
 40
3.0
 40
3.0
 40
3.0
 40
4.0
 40
4.0
 40
4.0
 40
5.0
 40
5.0
 40
5.0
 40
5.0
 10
162.7855848524305
 20
61.11358235677082
 30
0.0
 10
162.7049696180554
 20
61.06087239583333
 30
0.0
 10
162.6271104600694
 20
61.0043728298611
 30
0.0
 10
162.5451171874999
 20
60.95338541666666
 30
0.0
 10
162.5451171874999
 20
60.95338541666666
 30
0.0
 10
161.2056640624999
 20
63.2740017361111
 30
0.0
 10
161.2056640624999
 20
63.2740017361111
 30
0.0
 10
161.8726345486109
 20
63.6984375
 30
0.0
 10
162.4941297743054
 20
64.18729654947916
 30
0.0
 10
163.0680826822915
 20
64.72645399305553
 30
0.0
 10
162.622976345486
 20
64.17523871527777
 30
0.0
 10
162.3549479166666
 20
63.47519531249999
 30
0.0
 10
162.3549479166666
 20
62.71314019097222
 30
0.0
 10
162.3549479166666
 20
62.13023003472223
 30
0.0
 10
162.5134223090276
 20
61.58521592881943
 30
0.0
 10
162.7855848524305
 20
61.11358235677082
 30
0.0
  0
SPLINE
  5
176
330
A
100
AcDbEntity
  8
0
 62
     7
100
AcDbSpline
210
0.0
220
0.0
230
1.0
 70
    11
 71
     3
 72
    23
 73
    19
 74
     0
 42
0.0000000001
 43
0.0000000001
 40
0.0
 40
0.0
 40
0.0
 40
0.0
 40
1.0
 40
1.0
 40
1.0
 40
2.0
 40
2.0
 40
2.0
 40
3.0
 40
3.0
 40
3.0
 40
4.0
 40
4.0
 40
4.0
 40
5.0
 40
5.0
 40
5.0
 40
6.0
 40
6.0
 40
6.0
 40
6.0
 10
160.6048394097221
 20
64.31373155381944
 30
0.0
 10
160.6048394097221
 20
64.31373155381944
 30
0.0
 10
158.4020453559026
 20
68.12917480468749
 30
0.0
 10
158.4020453559026
 20
68.12917480468749
 30
0.0
 10
158.4020453559026
 20
68.12917480468749
 30
0.0
 10
159.6112738715276
 20
68.12917480468749
 30
0.0
 10
159.6112738715276
 20
68.12917480468749
 30
0.0
 10
159.6112738715276
 20
68.12917480468749
 30
0.0
 10
159.6112738715276
 20
68.14950086805554
 30
0.0
 10
159.6112738715276
 20
68.14950086805554
 30
0.0
 10
160.4470540364583
 20
68.17017144097221
 30
0.0
 10
161.218755425347
 20
68.44784613715278
 30
0.0
 10
161.8533420138888
 20
68.90604383680553
 30
0.0
 10
161.8533420138888
 20
68.90604383680553
 30
0.0
 10
163.9899902343749
 20
67.67269965277778
 30
0.0
 10
163.9899902343749
 20
67.67269965277778
 30
0.0
 10
163.1108018663194
 20
66.32945692274303
 30
0.0
 10
161.9566948784722
 20
65.18189561631944
 30
0.0
 10
160.6048394097221
 20
64.31373155381944
 30
0.0
  0
SPLINE
  5
175
330
A
100
AcDbEntity
  8
0
 62
     7
100
AcDbSpline
210
0.0
220
0.0
230
1.0
 70
    11
 71
     3
 72
    20
 73
    16
 74
     0
 42
0.0000000001
 43
0.0000000001
 40
0.0
 40
0.0
 40
0.0
 40
0.0
 40
1.0
 40
1.0
 40
1.0
 40
2.0
 40
2.0
 40
2.0
 40
3.0
 40
3.0
 40
3.0
 40
4.0
 40
4.0
 40
4.0
 40
5.0
 40
5.0
 40
5.0
 40
5.0
 10
163.0660156249998
 20
83.0061306423611
 30
0.0
 10
162.5196234809026
 20
83.51944986979166
 30
0.0
 10
161.9298231336804
 20
83.98729383680555
 30
0.0
 10
161.2979926215277
 20
84.39657118055555
 30
0.0
 10
161.2979926215277
 20
84.39657118055555
 30
0.0
 10
162.6381347656248
 20
86.71718749999998
 30
0.0
 10
162.6381347656248
 20
86.71718749999998
 30
0.0
 10
162.6884331597221
 20
86.68514811197916
 30
0.0
 10
162.7359754774304
 20
86.6496636284722
 30
0.0
 10
162.7862738715277
 20
86.61727973090275
 30
0.0
 10
162.5134223090276
 20
86.14530164930554
 30
0.0
 10
162.3549479166666
 20
85.59994303385416
 30
0.0
 10
162.3549479166666
 20
85.01737738715275
 30
0.0
 10
162.3549479166666
 20
84.25601128472221
 30
0.0
 10
162.6222873263888
 20
83.55734592013886
 30
0.0
 10
163.0660156249998
 20
83.0061306423611
 30
0.0
  0
SPLINE
  5
174
330
A
100
AcDbEntity
  8
0
 62
     7
100
AcDbSpline
210
0.0
220
0.0
230
1.0
 70
    11
 71
     3
 72
    29
 73
    25
 74
     0
 42
0.0000000001
 43
0.0000000001
 40
0.0
 40
0.0
 40
0.0
 40
0.0
 40
1.0
 40
1.0
 40
1.0
 40
2.0
 40
2.0
 40
2.0
 40
3.0
 40
3.0
 40
3.0
 40
4.0
 40
4.0
 40
4.0
 40
5.0
 40
5.0
 40
5.0
 40
6.0
 40
6.0
 40
6.0
 40
7.0
 40
7.0
 40
7.0
 40
8.0
 40
8.0
 40
8.0
 40
8.0
 10
164.0175509982638
 20
80.01613226996528
 30
0.0
 10
164.0175509982638
 20
80.01613226996528
 30
0.0
 10
158.7431098090276
 20
76.97066786024307
 30
0.0
 10
158.7431098090276
 20
76.97066786024307
 30
0.0
 10
158.7431098090276
 20
76.97066786024307
 30
0.0
 10
158.4895507812499
 20
77.2390407986111
 30
0.0
 10
158.4895507812499
 20
77.2390407986111
 30
0.0
 10
158.4881727430554
 20
77.21699218749998
 30
0.0
 10
158.4874837239583
 20
77.19563259548611
 30
0.0
 10
158.4874837239583
 20
77.173583984375
 30
0.0
 10
158.4874837239583
 20
77.16738281249998
 30
0.0
 10
158.4895507812499
 20
77.16118164062497
 30
0.0
 10
158.4895507812499
 20
77.15498046874998
 30
0.0
 10
158.4895507812499
 20
77.15498046874998
 30
0.0
 10
158.4826605902777
 20
77.19184299045138
 30
0.0
 10
158.4826605902777
 20
77.19184299045138
 30
0.0
 10
158.5460503472222
 20
77.83848741319444
 30
0.0
 10
158.4516547309027
 20
78.47583007812499
 30
0.0
 10
158.2180772569444
 20
79.06218532986112
 30
0.0
 10
158.2180772569444
 20
79.06218532986112
 30
0.0
 10
160.6978569878472
 20
83.35684136284722
 30
0.0
 10
160.6978569878472
 20
83.35684136284722
 30
0.0
 10
162.0235297309026
 20
82.48729926215276
 30
0.0
 10
163.1548990885416
 20
81.34628363715277
 30
0.0
 10
164.0175509982638
 20
80.01613226996528
 30
0.0
  0
SPLINE
  5
173
330
A
100
AcDbEntity
  8
0
 62
     7
100
AcDbSpline
210
0.0
220
0.0
230
1.0
 70
    11
 71
     3
 72
    20
 73
    16
 74
     0
 42
0.0000000001
 43
0.0000000001
 40
0.0
 40
0.0
 40
0.0
 40
0.0
 40
1.0
 40
1.0
 40
1.0
 40
2.0
 40
2.0
 40
2.0
 40
3.0
 40
3.0
 40
3.0
 40
4.0
 40
4.0
 40
4.0
 40
5.0
 40
5.0
 40
5.0
 40
5.0
 10
162.7380425347221
 20
69.78109809027777
 30
0.0
 10
163.2300021701388
 20
70.44737955729165
 30
0.0
 10
163.5249023437499
 20
71.26765679253471
 30
0.0
 10
163.5249023437499
 20
72.15752495659723
 30
0.0
 10
163.5249023437499
 20
72.52821723090277
 30
0.0
 10
163.4711588541665
 20
72.8858181423611
 30
0.0
 10
163.3767632378472
 20
73.2268825954861
 30
0.0
 10
163.3767632378472
 20
73.2268825954861
 30
0.0
 10
165.8172688802083
 20
73.2268825954861
 30
0.0
 10
165.8172688802083
 20
73.2268825954861
 30
0.0
 10
165.7263183593749
 20
71.60768771701389
 30
0.0
 10
165.2929253472222
 20
70.08013237847221
 30
0.0
 10
164.5908148871527
 20
68.71105143229165
 30
0.0
 10
164.5908148871527
 20
68.71105143229165
 30
0.0
 10
162.7380425347221
 20
69.78109809027777
 30
0.0
 10
162.7380425347221
 20
69.78109809027777
 30
0.0
  0
SPLINE
  5
172
330
A
100
AcDbEntity
  8
0
 62
     7
100
AcDbSpline
210
0.0
220
0.0
230
1.0
 70
    11
 71
     3
 72
    17
 73
    13
 74
     0
 42
0.0000000001
 43
0.0000000001
 40
0.0
 40
0.0
 40
0.0
 40
0.0
 40
1.0
 40
1.0
 40
1.0
 40
2.0
 40
2.0
 40
2.0
 40
3.0
 40
3.0
 40
3.0
 40
4.0
 40
4.0
 40
4.0
 40
4.0
 10
162.8138346354166
 20
74.42646484374998
 30
0.0
 10
162.1282606336805
 20
75.41727430555553
 30
0.0
 10
161.0120496961805
 20
76.08768988715276
 30
0.0
 10
159.7352973090276
 20
76.15796983506943
 30
0.0
 10
159.7352973090276
 20
76.15796983506943
 30
0.0
 10
164.6142415364583
 20
78.97467990451388
 30
0.0
 10
164.6142415364583
 20
78.97467990451388
 30
0.0
 10
165.3135959201388
 20
77.5956081814236
 30
0.0
 10
165.7400987413194
 20
76.05633951822916
 30
0.0
 10
165.8207139756944
 20
74.42646484374998
 30
0.0
 10
165.8207139756944
 20
74.42646484374998
 30
0.0
 10
162.8138346354166
 20
74.42646484374998
 30
0.0
 10
162.8138346354166
 20
74.42646484374998
 30
0.0
  0
SPLINE
  5
171
330
A
100
AcDbEntity
  8
0
 62
     7
100
AcDbSpline
210
0.0
220
0.0
230
1.0
 70
    11
 71
     3
 72
    20
 73
    16
 74
     0
 42
0.0000000001
 43
0.0000000001
 40
0.0
 40
0.0
 40
0.0
 40
0.0
 40
1.0
 40
1.0
 40
1.0
 40
2.0
 40
2.0
 40
2.0
 40
3.0
 40
3.0
 40
3.0
 40
4.0
 40
4.0
 40
4.0
 40
5.0
 40
5.0
 40
5.0
 40
5.0
 10
167.3758300781248
 20
81.9550320095486
 30
0.0
 10
167.3758300781248
 20
81.9550320095486
 30
0.0
 10
165.0593478732638
 20
80.61730143229166
 30
0.0
 10
165.0593478732638
 20
80.61730143229166
 30
0.0
 10
164.6238878038194
 20
81.29529622395834
 30
0.0
 10
164.1222819010415
 20
81.92609320746527
 30
0.0
 10
163.5689995659722
 20
82.50728081597221
 30
0.0
 10
164.117458767361
 20
82.06975368923611
 30
0.0
 10
164.8113009982638
 20
81.80620388454862
 30
0.0
 10
165.5657769097221
 20
81.80620388454862
 30
0.0
 10
166.1548882378471
 20
81.80620388454862
 30
0.0
 10
166.7054144965276
 20
81.96846788194443
 30
0.0
 10
167.180837673611
 20
82.24648708767359
 30
0.0
 10
167.2449164496526
 20
82.14899088541667
 30
0.0
 10
167.3131293402777
 20
82.05390624999997
 30
0.0
 10
167.3758300781248
 20
81.9550320095486
 30
0.0
  0
SPLINE
  5
170
330
A
100
AcDbEntity
  8
0
 62
     7
100
AcDbSpline
210
0.0
220
0.0
230
1.0
 70
    11
 71
     3
 72
    17
 73
    13
 74
     0
 42
0.0000000001
 43
0.0000000001
 40
0.0
 40
0.0
 40
0.0
 40
0.0
 40
1.0
 40
1.0
 40
1.0
 40
2.0
 40
2.0
 40
2.0
 40
3.0
 40
3.0
 40
3.0
 40
4.0
 40
4.0
 40
4.0
 40
4.0
 10
164.561187065972
 20
85.01737738715275
 30
0.0
 10
164.561187065972
 20
85.57203776041665
 30
0.0
 10
165.0111165364583
 20
86.02196723090276
 30
0.0
 10
165.5657769097221
 20
86.02196723090276
 30
0.0
 10
166.1204372829859
 20
86.02196723090276
 30
0.0
 10
166.5703667534722
 20
85.57203776041665
 30
0.0
 10
166.5703667534722
 20
85.01737738715275
 30
0.0
 10
166.5703667534722
 20
84.46237250434027
 30
0.0
 10
166.1204372829859
 20
84.01278754340275
 30
0.0
 10
165.5657769097221
 20
84.01278754340275
 30
0.0
 10
165.0111165364583
 20
84.01278754340275
 30
0.0
 10
164.561187065972
 20
84.46237250434027
 30
0.0
 10
164.561187065972
 20
85.01737738715275
 30
0.0
  0
SPLINE
  5
16F
330
A
100
AcDbEntity
  8
0
 62
     7
100
AcDbSpline
210
0.0
220
0.0
230
1.0
 70
    11
 71
     3
 72
    20
 73
    16
 74
     0
 42
0.0000000001
 43
0.0000000001
 40
0.0
 40
0.0
 40
0.0
 40
0.0
 40
1.0
 40
1.0
 40
1.0
 40
2.0
 40
2.0
 40
2.0
 40
3.0
 40
3.0
 40
3.0
 40
4.0
 40
4.0
 40
4.0
 40
5.0
 40
5.0
 40
5.0
 40
5.0
 10
167.1133138020833
 20
87.82891981336803
 30
0.0
 10
166.653738064236
 20
88.08282335069444
 30
0.0
 10
166.126638454861
 20
88.22820638020832
 30
0.0
 10
165.5657769097221
 20
88.22820638020832
 30
0.0
 10
164.8133680555554
 20
88.22820638020832
 30
0.0
 10
164.1222819010415
 20
87.96603461371526
 30
0.0
 10
163.5738226996526
 20
87.53091905381944
 30
0.0
 10
163.4615125868054
 20
87.60602213541666
 30
0.0
 10
163.3526475694444
 20
87.68457031249999
 30
0.0
 10
163.2382703993054
 20
87.75691731770834
 30
0.0
 10
163.2382703993054
 20
87.75691731770834
 30
0.0
 10
164.4509440104165
 20
89.85773654513883
 30
0.0
 10
164.4509440104165
 20
89.85773654513883
 30
0.0
 10
165.3990342881944
 20
89.26035698784719
 30
0.0
 10
166.2885579427083
 20
88.57960611979166
 30
0.0
 10
167.1133138020833
 20
87.82891981336803
 30
0.0
  0
SPLINE
  5
16E
330
A
100
AcDbEntity
  8
0
 62
     7
100
AcDbSpline
210
0.0
220
0.0
230
1.0
 70
    11
 71
     3
 72
    17
 73
    13
 74
     0
 42
0.0000000001
 43
0.0000000001
 40
0.0
 40
0.0
 40
0.0
 40
0.0
 40
1.0
 40
1.0
 40
1.0
 40
2.0
 40
2.0
 40
2.0
 40
3.0
 40
3.0
 40
3.0
 40
4.0
 40
4.0
 40
4.0
 40
4.0
 10
155.069949001736
 20
92.73955891927082
 30
0.0
 10
158.0830295138888
 20
92.63586154513888
 30
0.0
 10
160.9210991753472
 20
91.82833116319445
 30
0.0
 10
163.4181043836805
 20
90.46855197482635
 30
0.0
 10
163.4181043836805
 20
90.46855197482635
 30
0.0
 10
162.2019856770833
 20
88.36222059461805
 30
0.0
 10
162.2019856770833
 20
88.36222059461805
 30
0.0
 10
160.0612033420138
 20
89.50564778645832
 30
0.0
 10
157.6399902343748
 20
90.18605414496528
 30
0.0
 10
155.069949001736
 20
90.27597113715277
 30
0.0
 10
155.069949001736
 20
90.27597113715277
 30
0.0
 10
155.069949001736
 20
92.73955891927082
 30
0.0
 10
155.069949001736
 20
92.73955891927082
 30
0.0
  0
SPLINE
  5
16D
330
A
100
AcDbEntity
  8
0
 62
     7
100
AcDbSpline
210
0.0
220
0.0
230
1.0
 70
    11
 71
     3
 72
    17
 73
    13
 74
     0
 42
0.0000000001
 43
0.0000000001
 40
0.0
 40
0.0
 40
0.0
 40
0.0
 40
1.0
 40
1.0
 40
1.0
 40
2.0
 40
2.0
 40
2.0
 40
3.0
 40
3.0
 40
3.0
 40
4.0
 40
4.0
 40
4.0
 40
4.0
 10
155.069949001736
 20
89.07604437934026
 30
0.0
 10
157.4215711805555
 20
88.98750542534719
 30
0.0
 10
159.6381456163194
 20
88.36394314236112
 30
0.0
 10
161.6018500434027
 20
87.32214626736109
 30
0.0
 10
161.6018500434027
 20
87.32214626736109
 30
0.0
 10
160.2617078993054
 20
85.00084092881944
 30
0.0
 10
160.2617078993054
 20
85.00084092881944
 30
0.0
 10
158.6941894531249
 20
85.81663953993055
 30
0.0
 10
156.9351236979166
 20
86.31273328993055
 30
0.0
 10
155.069949001736
 20
86.39782714843745
 30
0.0
 10
155.069949001736
 20
86.39782714843745
 30
0.0
 10
155.069949001736
 20
89.07604437934026
 30
0.0
 10
155.069949001736
 20
89.07604437934026
 30
0.0
  0
SPLINE
  5
16C
330
A
100
AcDbEntity
  8
0
 62
     7
100
AcDbSpline
210
0.0
220
0.0
230
1.0
 70
    11
 71
     3
 72
    17
 73
    13
 74
     0
 42
0.0000000001
 43
0.0000000001
 40
0.0
 40
0.0
 40
0.0
 40
0.0
 40
1.0
 40
1.0
 40
1.0
 40
2.0
 40
2.0
 40
2.0
 40
3.0
 40
3.0
 40
3.0
 40
4.0
 40
4.0
 40
4.0
 40
4.0
 10
155.069949001736
 20
85.19790039062497
 30
0.0
 10
156.7173936631943
 20
85.11452907986109
 30
0.0
 10
158.2711317274304
 20
84.67562391493054
 30
0.0
 10
159.6608832465276
 20
83.96111111111112
 30
0.0
 10
159.6608832465276
 20
83.96111111111112
 30
0.0
 10
157.5035644531249
 20
80.22387152777778
 30
0.0
 10
157.5035644531249
 20
80.22387152777778
 30
0.0
 10
156.8710449218748
 20
80.94630805121528
 30
0.0
 10
156.0173502604166
 20
81.408984375
 30
0.0
 10
155.069949001736
 20
81.54678819444443
 30
0.0
 10
155.069949001736
 20
81.54678819444443
 30
0.0
 10
155.069949001736
 20
85.19790039062497
 30
0.0
 10
155.069949001736
 20
85.19790039062497
 30
0.0
  0
SPLINE
  5
16B
330
A
100
AcDbEntity
  8
0
 62
     7
100
AcDbSpline
210
0.0
220
0.0
230
1.0
 70
    11
 71
     3
 72
    17
 73
    13
 74
     0
 42
0.0000000001
 43
0.0000000001
 40
0.0
 40
0.0
 40
0.0
 40
0.0
 40
1.0
 40
1.0
 40
1.0
 40
2.0
 40
2.0
 40
2.0
 40
3.0
 40
3.0
 40
3.0
 40
4.0
 40
4.0
 40
4.0
 40
4.0
 10
155.069949001736
 20
68.12917480468749
 30
0.0
 10
155.069949001736
 20
68.12917480468749
 30
0.0
 10
157.0164279513888
 20
68.12917480468749
 30
0.0
 10
157.0164279513888
 20
68.12917480468749
 30
0.0
 10
157.0164279513888
 20
68.12917480468749
 30
0.0
 10
159.5630425347222
 20
63.71910807291666
 30
0.0
 10
159.5630425347222
 20
63.71910807291666
 30
0.0
 10
158.1980957031248
 20
63.03387858072916
 30
0.0
 10
156.6781195746527
 20
62.61357693142361
 30
0.0
 10
155.069949001736
 20
62.53192816840278
 30
0.0
 10
155.069949001736
 20
62.53192816840278
 30
0.0
 10
155.069949001736
 20
68.12917480468749
 30
0.0
 10
155.069949001736
 20
68.12917480468749
 30
0.0
  0
SPLINE
  5
16A
330
A
100
AcDbEntity
  8
0
 62
     7
100
AcDbSpline
210
0.0
220
0.0
230
1.0
 70
    11
 71
     3
 72
    17
 73
    13
 74
     0
 42
0.0000000001
 43
0.0000000001
 40
0.0
 40
0.0
 40
0.0
 40
0.0
 40
1.0
 40
1.0
 40
1.0
 40
2.0
 40
2.0
 40
2.0
 40
3.0
 40
3.0
 40
3.0
 40
4.0
 40
4.0
 40
4.0
 40
4.0
 10
155.069949001736
 20
61.33234592013888
 30
0.0
 10
156.896538628472
 20
61.41571723090278
 30
0.0
 10
158.6204644097221
 20
61.89320746527777
 30
0.0
 10
160.1631781684026
 20
62.6786892361111
 30
0.0
 10
160.1631781684026
 20
62.6786892361111
 30
0.0
 10
161.5033203124999
 20
60.35772840711803
 30
0.0
 10
161.5033203124999
 20
60.35772840711803
 30
0.0
 10
159.5644205729166
 20
59.34659288194444
 30
0.0
 10
157.382986111111
 20
58.74163411458333
 30
0.0
 10
155.069949001736
 20
58.65412868923609
 30
0.0
 10
155.069949001736
 20
58.65412868923609
 30
0.0
 10
155.069949001736
 20
61.33234592013888
 30
0.0
 10
155.069949001736
 20
61.33234592013888
 30
0.0
  0
SPLINE
  5
169
330
A
100
AcDbEntity
  8
0
 62
     7
100
AcDbSpline
210
0.0
220
0.0
230
1.0
 70
    11
 71
     3
 72
    17
 73
    13
 74
     0
 42
0.0000000001
 43
0.0000000001
 40
0.0
 40
0.0
 40
0.0
 40
0.0
 40
1.0
 40
1.0
 40
1.0
 40
2.0
 40
2.0
 40
2.0
 40
3.0
 40
3.0
 40
3.0
 40
4.0
 40
4.0
 40
4.0
 40
4.0
 10
155.069949001736
 20
54.99061414930555
 30
0.0
 10
155.069949001736
 20
54.99061414930555
 30
0.0
 10
155.069949001736
 20
57.4542019314236
 30
0.0
 10
155.069949001736
 20
57.4542019314236
 30
0.0
 10
157.6014051649305
 20
57.54274088541666
 30
0.0
 10
159.987478298611
 20
58.20557725694444
 30
0.0
 10
162.1041449652777
 20
59.31765407986111
 30
0.0
 10
162.1041449652777
 20
59.31765407986111
 30
0.0
 10
163.3202636718749
 20
57.21097819010416
 30
0.0
 10
163.3202636718749
 20
57.21097819010416
 30
0.0
 10
160.846685112847
 20
55.88289388020832
 30
0.0
 10
158.0444444444443
 20
55.09293348524304
 30
0.0
 10
155.069949001736
 20
54.99061414930555
 30
0.0
  0
SPLINE
  5
168
330
A
100
AcDbEntity
  8
0
 62
     7
100
AcDbSpline
210
0.0
220
0.0
230
1.0
 70
    11
 71
     3
 72
    20
 73
    16
 74
     0
 42
0.0000000001
 43
0.0000000001
 40
0.0
 40
0.0
 40
0.0
 40
0.0
 40
1.0
 40
1.0
 40
1.0
 40
2.0
 40
2.0
 40
2.0
 40
3.0
 40
3.0
 40
3.0
 40
4.0
 40
4.0
 40
4.0
 40
5.0
 40
5.0
 40
5.0
 40
5.0
 10
164.3579264322916
 20
57.81318088107639
 30
0.0
 10
164.3579264322916
 20
57.81318088107639
 30
0.0
 10
163.1452528211804
 20
59.91365559895832
 30
0.0
 10
163.1452528211804
 20
59.91365559895832
 30
0.0
 10
163.2913248697915
 20
60.00460611979166
 30
0.0
 10
163.4318847656249
 20
60.10313585069443
 30
0.0
 10
163.5745117187498
 20
60.1982204861111
 30
0.0
 10
164.1229709201388
 20
59.7637939453125
 30
0.0
 10
164.8133680555554
 20
59.50196668836803
 30
0.0
 10
165.5657769097221
 20
59.50196668836803
 30
0.0
 10
166.1252604166666
 20
59.50196668836803
 30
0.0
 10
166.6509819878472
 20
59.64631618923609
 30
0.0
 10
167.109868706597
 20
59.89918619791666
 30
0.0
 10
166.2582411024304
 20
59.12472873263889
 30
0.0
 10
165.3397786458333
 20
58.42330729166666
 30
0.0
 10
164.3579264322916
 20
57.81318088107639
 30
0.0
  0
SPLINE
  5
167
330
A
100
AcDbEntity
  8
0
 62
     7
100
AcDbSpline
210
0.0
220
0.0
230
1.0
 70
    11
 71
     3
 72
    17
 73
    13
 74
     0
 42
0.0000000001
 43
0.0000000001
 40
0.0
 40
0.0
 40
0.0
 40
0.0
 40
1.0
 40
1.0
 40
1.0
 40
2.0
 40
2.0
 40
2.0
 40
3.0
 40
3.0
 40
3.0
 40
4.0
 40
4.0
 40
4.0
 40
4.0
 10
164.561187065972
 20
62.71314019097222
 30
0.0
 10
164.561187065972
 20
63.2678005642361
 30
0.0
 10
165.0111165364583
 20
63.71773003472222
 30
0.0
 10
165.5657769097221
 20
63.71773003472222
 30
0.0
 10
166.1204372829859
 20
63.71773003472222
 30
0.0
 10
166.5703667534722
 20
63.2678005642361
 30
0.0
 10
166.5703667534722
 20
62.71314019097222
 30
0.0
 10
166.5703667534722
 20
62.15813530815971
 30
0.0
 10
166.1204372829859
 20
61.70855034722221
 30
0.0
 10
165.5657769097221
 20
61.70855034722221
 30
0.0
 10
165.0111165364583
 20
61.70855034722221
 30
0.0
 10
164.561187065972
 20
62.15813530815971
 30
0.0
 10
164.561187065972
 20
62.71314019097222
 30
0.0
  0
SPLINE
  5
166
330
A
100
AcDbEntity
  8
0
 62
     7
100
AcDbSpline
210
0.0
220
0.0
230
1.0
 70
    11
 71
     3
 72
    20
 73
    16
 74
     0
 42
0.0000000001
 43
0.0000000001
 40
0.0
 40
0.0
 40
0.0
 40
0.0
 40
1.0
 40
1.0
 40
1.0
 40
2.0
 40
2.0
 40
2.0
 40
3.0
 40
3.0
 40
3.0
 40
4.0
 40
4.0
 40
4.0
 40
5.0
 40
5.0
 40
5.0
 40
5.0
 10
167.180837673611
 20
65.48334147135417
 30
0.0
 10
166.7054144965276
 20
65.76136067708333
 30
0.0
 10
166.1548882378471
 20
65.92396918402778
 30
0.0
 10
165.5657769097221
 20
65.92396918402778
 30
0.0
 10
164.8106119791665
 20
65.92396918402778
 30
0.0
 10
164.1167697482638
 20
65.66007486979166
 30
0.0
 10
163.5676215277777
 20
65.22185872395834
 30
0.0
 10
164.1105685763888
 20
65.7913330078125
 30
0.0
 10
164.6032172309026
 20
66.40800509982638
 30
0.0
 10
165.032476128472
 20
67.07084147135415
 30
0.0
 10
165.032476128472
 20
67.07084147135415
 30
0.0
 10
167.3496473524305
 20
65.73311089409722
 30
0.0
 10
167.3496473524305
 20
65.73311089409722
 30
0.0
 10
167.2952148437499
 20
65.64836154513888
 30
0.0
 10
167.2366482204859
 20
65.56705729166665
 30
0.0
 10
167.180837673611
 20
65.48334147135417
 30
0.0
  0
SPLINE
  5
165
330
A
100
AcDbEntity
  8
0
 62
     7
100
AcDbSpline
210
0.0
220
0.0
230
1.0
 70
    11
 71
     3
 72
    17
 73
    13
 74
     0
 42
0.0000000001
 43
0.0000000001
 40
0.0
 40
0.0
 40
0.0
 40
0.0
 40
1.0
 40
1.0
 40
1.0
 40
2.0
 40
2.0
 40
2.0
 40
3.0
 40
3.0
 40
3.0
 40
4.0
 40
4.0
 40
4.0
 40
4.0
 10
165.630544704861
 20
68.1109157986111
 30
0.0
 10
166.4332519531249
 20
69.65776367187498
 30
0.0
 10
166.9238335503471
 20
71.38961317274307
 30
0.0
 10
167.0168511284721
 20
73.2268825954861
 30
0.0
 10
167.0168511284721
 20
73.2268825954861
 30
0.0
 10
169.6943793402776
 20
73.2268825954861
 30
0.0
 10
169.6943793402776
 20
73.2268825954861
 30
0.0
 10
169.5979166666666
 20
70.90282118055554
 30
0.0
 10
168.9784884982638
 20
68.71449652777778
 30
0.0
 10
167.9497829861109
 20
66.77215169270834
 30
0.0
 10
167.9497829861109
 20
66.77215169270834
 30
0.0
 10
165.630544704861
 20
68.1109157986111
 30
0.0
 10
165.630544704861
 20
68.1109157986111
 30
0.0
  0
SPLINE
  5
164
330
A
100
AcDbEntity
  8
0
 62
     7
100
AcDbSpline
210
0.0
220
0.0
230
1.0
 70
    11
 71
     3
 72
    20
 73
    16
 74
     0
 42
0.0000000001
 43
0.0000000001
 40
0.0
 40
0.0
 40
0.0
 40
0.0
 40
1.0
 40
1.0
 40
1.0
 40
2.0
 40
2.0
 40
2.0
 40
3.0
 40
3.0
 40
3.0
 40
4.0
 40
4.0
 40
4.0
 40
5.0
 40
5.0
 40
5.0
 40
5.0
 10
168.3797309027776
 20
61.16973741319444
 30
0.0
 10
168.6319118923609
 20
61.62793511284722
 30
0.0
 10
168.7766059027777
 20
62.15365668402778
 30
0.0
 10
168.7766059027777
 20
62.71314019097222
 30
0.0
 10
168.7766059027777
 20
63.45865885416666
 30
0.0
 10
168.5182237413194
 20
64.14423285590277
 30
0.0
 10
168.0903428819443
 20
64.68993598090277
 30
0.0
 10
168.1902506510416
 20
64.83738606770832
 30
0.0
 10
168.2929144965276
 20
64.98276909722221
 30
0.0
 10
168.3879991319444
 20
65.13366427951388
 30
0.0
 10
168.3879991319444
 20
65.13366427951388
 30
0.0
 10
170.4715928819444
 20
63.93063693576389
 30
0.0
 10
170.4715928819444
 20
63.93063693576389
 30
0.0
 10
169.859743923611
 20
62.9453396267361
 30
0.0
 10
169.1569444444444
 20
62.02343207465277
 30
0.0
 10
168.3797309027776
 20
61.16973741319444
 30
0.0
  0
SPLINE
  5
163
330
A
100
AcDbEntity
  8
0
 62
     7
100
AcDbSpline
210
0.0
220
0.0
230
1.0
 70
    11
 71
     3
 72
    17
 73
    13
 74
     0
 42
0.0000000001
 43
0.0000000001
 40
0.0
 40
0.0
 40
0.0
 40
0.0
 40
1.0
 40
1.0
 40
1.0
 40
2.0
 40
2.0
 40
2.0
 40
3.0
 40
3.0
 40
3.0
 40
4.0
 40
4.0
 40
4.0
 40
4.0
 10
168.9895128038194
 20
66.17201605902778
 30
0.0
 10
170.1195041232638
 20
68.29178331163193
 30
0.0
 10
170.7961208767359
 20
70.68474663628473
 30
0.0
 10
170.8946506076388
 20
73.2268825954861
 30
0.0
 10
170.8946506076388
 20
73.2268825954861
 30
0.0
 10
173.2938151041666
 20
73.2268825954861
 30
0.0
 10
173.2938151041666
 20
73.2268825954861
 30
0.0
 10
173.1945963541666
 20
70.24894205729165
 30
0.0
 10
172.4008463541665
 20
67.44532335069442
 30
0.0
 10
171.072417534722
 20
64.96898871527777
 30
0.0
 10
171.072417534722
 20
64.96898871527777
 30
0.0
 10
168.9895128038194
 20
66.17201605902778
 30
0.0
 10
168.9895128038194
 20
66.17201605902778
 30
0.0
  0
MTEXT
  5
162
330
A
100
AcDbEntity
  8
0
 62
     7
100
AcDbMText
 10
84.870338
 20
254.845414
 30
0.0
 40
2.847891
 41
0.0
 71
     1
 72
     2
  1
\W0.90;\fMSGothic|b0|i0|c128;R-13
  7
STD
 11
0.9171722974507449
 21
-0.3984908741601525
 31
0.0
 73
     1
 44
1.0
  0
MTEXT
  5
161
330
A
100
AcDbEntity
  8
0
 62
     7
100
AcDbMText
 10
55.10794499999999
 20
251.7750579999999
 30
0.0
 40
2.847891
 41
0.0
 71
     1
 72
     2
  1
\W0.90;\fMSGothic|b0|i0|c128;R-13
  7
STD
 11
0.8920154765294977
 21
0.4520048557613661
 31
0.0
 73
     1
 44
1.0
  0
LINE
  5
160
330
A
100
AcDbEntity
  8
0
 62
     7
100
AcDbLine
 10
80.371494
 20
255.0023509999999
 30
0.0
 11
83.105522
 21
254.032212
 31
0.0
  0
LINE
  5
15F
330
A
100
AcDbEntity
  8
0
 62
     7
100
AcDbLine
 10
61.67427199999998
 20
253.4975329999999
 30
0.0
 11
64.408299
 21
254.831474
 31
0.0
  0
POLYLINE
  5
15A
330
A
100
AcDbEntity
  8
0
 62
     7
100
AcDb2dPolyline
 66
     1
 10
0.0
 20
0.0
 30
0.0
  0
VERTEX
  5
15B
330
15A
100
AcDbEntity
  8
0
 62
     7
100
AcDbVertex
100
AcDb2dVertex
 10
72.874966
 20
264.2627669999999
 30
0.0
  0
VERTEX
  5
15C
330
15A
100
AcDbEntity
  8
0
 62
     7
100
AcDbVertex
100
AcDb2dVertex
 10
74.19788299999997
 20
266.203045
 30
0.0
  0
VERTEX
  5
15D
330
15A
100
AcDbEntity
  8
0
 62
     7
100
AcDbVertex
100
AcDb2dVertex
 10
77.549272
 20
266.203045
 30
0.0
  0
SEQEND
  5
15E
330
15A
100
AcDbEntity
  8
0
 62
     7
  0
MTEXT
  5
159
330
A
100
AcDbEntity
  8
0
  6
AI9-LType5
 62
     7
100
AcDbMText
 10
77.813855
 20
267.6398249999999
 30
0.0
 40
2.847891
 41
0.0
 71
     1
 72
     2
  1
\W0.90;\fMSGothic|b0|i0|c128;R-13
  7
STD
 73
     1
 44
1.0
  0
LINE
  5
158
330
A
100
AcDbEntity
  8
0
  6
AI9-LType5
 62
     7
100
AcDbLine
 10
72.33219100000003
 20
109.6312069999999
 30
0.0
 11
72.33219100000003
 21
269.870349
 31
0.0
  0
POLYLINE
  5
152
330
A
100
AcDbEntity
  8
0
  6
AI9-LType8
 62
     7
100
AcDb2dPolyline
 66
     1
 10
0.0
 20
0.0
 30
0.0
 70
     1
  0
VERTEX
  5
153
330
152
100
AcDbEntity
  8
0
  6
AI9-LType8
 62
     7
100
AcDbVertex
100
AcDb2dVertex
 10
80.066775
 20
112.2963319999999
 30
0.0
  0
VERTEX
  5
154
330
152
100
AcDbEntity
  8
0
  6
AI9-LType8
 62
     7
100
AcDbVertex
100
AcDb2dVertex
 10
64.46669399999999
 20
112.2963319999999
 30
0.0
  0
VERTEX
  5
155
330
152
100
AcDbEntity
  8
0
  6
AI9-LType8
 62
     7
100
AcDbVertex
100
AcDb2dVertex
 10
64.46669399999999
 20
122.2299209999998
 30
0.0
  0
VERTEX
  5
156
330
152
100
AcDbEntity
  8
0
  6
AI9-LType8
 62
     7
100
AcDbVertex
100
AcDb2dVertex
 10
80.066775
 20
122.2299209999998
 30
0.0
  0
SEQEND
  5
157
330
152
100
AcDbEntity
  8
0
  6
AI9-LType8
 62
     7
  0
POLYLINE
  5
14B
330
A
100
AcDbEntity
  8
0
  6
AI9-LType7
 62
     7
100
AcDb2dPolyline
 66
     1
 10
0.0
 20
0.0
 30
0.0
 70
     1
  0
VERTEX
  5
14C
330
14B
100
AcDbEntity
  8
0
  6
AI9-LType7
 62
     7
100
AcDbVertex
100
AcDb2dVertex
 10
79.359669
 20
112.2963319999999
 30
0.0
  0
VERTEX
  5
14D
330
14B
100
AcDbEntity
  8
0
  6
AI9-LType7
 62
     7
100
AcDbVertex
100
AcDb2dVertex
 10
65.1738
 20
112.2963319999999
 30
0.0
  0
VERTEX
  5
14E
330
14B
100
AcDbEntity
  8
0
  6
AI9-LType7
 62
     7
100
AcDbVertex
100
AcDb2dVertex
 10
65.1738
 20
122.2299209999998
 30
0.0
  0
VERTEX
  5
14F
330
14B
100
AcDbEntity
  8
0
  6
AI9-LType7
 62
     7
100
AcDbVertex
100
AcDb2dVertex
 10
79.359669
 20
122.2299209999998
 30
0.0
  0
SEQEND
  5
150
330
14B
100
AcDbEntity
  8
0
  6
AI9-LType7
 62
     7
  0
LINE
  5
149
330
A
100
AcDbEntity
  8
0
 62
     7
100
AcDbLine
 10
51.939465
 20
111.6810379999999
 30
0.0
 11
97.46605800000001
 21
111.6810379999999
 31
0.0
  0
CIRCLE
  5
148
330
A
100
AcDbEntity
  8
0
 62
     7
100
AcDbCircle
 10
76.092341
 20
120.1370249999999
 30
0.0
 40
1.40646
  0
CIRCLE
  5
147
330
A
100
AcDbEntity
  8
0
 62
     7
100
AcDbCircle
 10
68.457751
 20
120.1370249999999
 30
0.0
 40
1.406545999999999
  0
CIRCLE
  5
146
330
A
100
AcDbEntity
  8
0
 62
     7
100
AcDbCircle
 10
68.457837
 20
120.1370249999999
 30
0.0
 40
1.203716
  0
CIRCLE
  5
145
330
A
100
AcDbEntity
  8
0
 62
     7
100
AcDbCircle
 10
76.092341
 20
120.1370249999999
 30
0.0
 40
1.203543999999999
  0
LINE
  5
144
330
A
100
AcDbEntity
  8
0
  6
AI9-LType2
 62
     7
100
AcDbLine
 10
76.092513
 20
117.122911
 30
0.0
 11
76.092513
 21
122.1465489999999
 31
0.0
  0
LINE
  5
143
330
A
100
AcDbEntity
  8
0
  6
AI9-LType2
 62
     7
100
AcDbLine
 10
68.457837
 20
117.122911
 30
0.0
 11
68.457837
 21
122.1465489999999
 31
0.0
  0
LINE
  5
142
330
A
100
AcDbEntity
  8
0
  6
AI9-LType2
 62
     7
100
AcDbLine
 10
80.010276
 20
120.1370249999999
 30
0.0
 11
64.540074
 21
120.1370249999999
 31
0.0
  0
LINE
  5
141
330
A
100
AcDbEntity
  8
0
 62
     7
100
AcDbLine
 10
91.860715
 20
111.6810379999999
 30
0.0
 11
52.62865699999998
 21
111.6810379999999
 31
0.0
  0
ELLIPSE
  5
140
330
A
100
AcDbEntity
  8
0
 62
     7
100
AcDbEllipse
 10
61.059494
 20
116.456285
 30
0.0
 11
2.292366536458331
 21
2.607937282986109
 31
0.0
210
0.0
220
0.0
230
1.0
 40
0.4884260000000002
 41
0.0
 42
6.283185307179584
  0
ELLIPSE
  5
13F
330
A
100
AcDbEntity
  8
0
 62
     7
100
AcDbEllipse
 10
83.60919499999999
 20
116.456285
 30
0.0
 11
-2.292366536458331
 21
2.607937282986109
 31
0.0
210
0.0
220
0.0
230
1.0
 40
0.4884260000000002
 41
0.0
 42
6.283185307179584
  0
POLYLINE
  5
137
330
A
100
AcDbEntity
  8
0
 62
     7
100
AcDb2dPolyline
 66
     1
 10
0.0
 20
0.0
 30
0.0
 70
     1
  0
VERTEX
  5
138
330
137
100
AcDbEntity
  8
0
 62
     7
100
AcDbVertex
100
AcDb2dVertex
 10
92.3103
 20
112.032094
 30
0.0
  0
VERTEX
  5
139
330
137
100
AcDbEntity
  8
0
 62
     7
100
AcDbVertex
100
AcDb2dVertex
 10
92.027285
 20
111.6600229999999
 30
0.0
  0
VERTEX
  5
13A
330
137
100
AcDbEntity
  8
0
 62
     7
100
AcDbVertex
100
AcDb2dVertex
 10
52.593344
 20
111.6600229999999
 30
0.0
  0
VERTEX
  5
13B
330
137
100
AcDbEntity
  8
0
 62
     7
100
AcDbVertex
100
AcDb2dVertex
 10
52.281908
 20
112.0603429999998
 30
0.0
  0
VERTEX
  5
13C
330
137
100
AcDbEntity
  8
0
 62
     7
100
AcDbVertex
100
AcDb2dVertex
 10
61.74024499999998
 20
122.2633379999999
 30
0.0
  0
VERTEX
  5
13D
330
137
100
AcDbEntity
  8
0
 62
     7
100
AcDbVertex
100
AcDb2dVertex
 10
82.78409399999999
 20
122.2633379999999
 30
0.0
  0
SEQEND
  5
13E
330
137
100
AcDbEntity
  8
0
 62
     7
  0
LINE
  5
136
330
A
100
AcDbEntity
  8
0
 62
     7
100
AcDbLine
 10
92.28273900000001
 20
112.112709
 30
0.0
 11
52.281908
 21
112.112709
 31
0.0
  0
POLYLINE
  5
130
330
A
100
AcDbEntity
  8
0
 62
   222
100
AcDb2dPolyline
 66
     1
 10
0.0
 20
0.0
 30
0.0
 70
     1
  0
VERTEX
  5
131
330
130
100
AcDbEntity
  8
0
 62
   222
100
AcDbVertex
100
AcDb2dVertex
 10
171.322187
 20
221.2283569999999
 30
0.0
  0
VERTEX
  5
132
330
130
100
AcDbEntity
  8
0
 62
   222
100
AcDbVertex
100
AcDb2dVertex
 10
155.722106
 20
221.2283569999999
 30
0.0
  0
VERTEX
  5
133
330
130
100
AcDbEntity
  8
0
 62
   222
100
AcDbVertex
100
AcDb2dVertex
 10
155.722106
 20
231.227747
 30
0.0
  0
VERTEX
  5
134
330
130
100
AcDbEntity
  8
0
 62
   222
100
AcDbVertex
100
AcDb2dVertex
 10
171.322187
 20
231.227747
 30
0.0
  0
SEQEND
  5
135
330
130
100
AcDbEntity
  8
0
 62
   222
  0
HATCH
  5
12F
330
A
100
AcDbEntity
  8
0
 62
   254
100
AcDbHatch
 10
0.0
 20
0.0
 30
0.0
210
0.0
220
0.0
230
1.0
  2
SOLID
 70
     1
 71
     0
 91
        1
 92
        3
 72
     0
 73
     1
 93
        4
 10
171.3221869574651
 20
221.2283569335935
 10
155.7221055772569
 20
221.2283569335935
 10
155.7221055772569
 20
231.2277465820312
 10
171.3221869574651
 20
231.2277465820312
 97
        0
 75
     0
 76
     1
 98
        1
 10
0.0
 20
0.0
  0
POLYLINE
  5
129
330
A
100
AcDbEntity
  8
0
 62
   222
100
AcDb2dPolyline
 66
     1
 10
0.0
 20
0.0
 30
0.0
 70
     1
  0
VERTEX
  5
12A
330
129
100
AcDbEntity
  8
0
 62
   222
100
AcDbVertex
100
AcDb2dVertex
 10
171.322187
 20
181.235277
 30
0.0
  0
VERTEX
  5
12B
330
129
100
AcDbEntity
  8
0
 62
   222
100
AcDbVertex
100
AcDb2dVertex
 10
155.722106
 20
181.235277
 30
0.0
  0
VERTEX
  5
12C
330
129
100
AcDbEntity
  8
0
 62
   222
100
AcDbVertex
100
AcDb2dVertex
 10
155.722106
 20
191.233805
 30
0.0
  0
VERTEX
  5
12D
330
129
100
AcDbEntity
  8
0
 62
   222
100
AcDbVertex
100
AcDb2dVertex
 10
171.322187
 20
191.233805
 30
0.0
  0
SEQEND
  5
12E
330
129
100
AcDbEntity
  8
0
 62
   222
  0
HATCH
  5
128
330
A
100
AcDbEntity
  8
0
 62
   254
100
AcDbHatch
 10
0.0
 20
0.0
 30
0.0
210
0.0
220
0.0
230
1.0
  2
SOLID
 70
     1
 71
     0
 91
        1
 92
        3
 72
     0
 73
     1
 93
        4
 10
171.3221869574651
 20
181.2352769639755
 10
155.7221055772569
 20
181.2352769639755
 10
155.7221055772569
 20
191.2338053385416
 10
171.3221869574651
 20
191.2338053385416
 97
        0
 75
     0
 76
     1
 98
        1
 10
0.0
 20
0.0
  0
POLYLINE
  5
122
330
A
100
AcDbEntity
  8
0
 62
   222
100
AcDb2dPolyline
 66
     1
 10
0.0
 20
0.0
 30
0.0
 70
     1
  0
VERTEX
  5
123
330
122
100
AcDbEntity
  8
0
 62
   222
100
AcDbVertex
100
AcDb2dVertex
 10
171.322187
 20
161.239254
 30
0.0
  0
VERTEX
  5
124
330
122
100
AcDbEntity
  8
0
 62
   222
100
AcDbVertex
100
AcDb2dVertex
 10
155.722106
 20
161.239254
 30
0.0
  0
VERTEX
  5
125
330
122
100
AcDbEntity
  8
0
 62
   222
100
AcDbVertex
100
AcDb2dVertex
 10
155.722106
 20
171.237782
 30
0.0
  0
VERTEX
  5
126
330
122
100
AcDbEntity
  8
0
 62
   222
100
AcDbVertex
100
AcDb2dVertex
 10
171.322187
 20
171.237782
 30
0.0
  0
SEQEND
  5
127
330
122
100
AcDbEntity
  8
0
 62
   222
  0
HATCH
  5
121
330
A
100
AcDbEntity
  8
0
 62
   254
100
AcDbHatch
 10
0.0
 20
0.0
 30
0.0
210
0.0
220
0.0
230
1.0
  2
SOLID
 70
     1
 71
     0
 91
        1
 92
        3
 72
     0
 73
     1
 93
        4
 10
171.3221869574651
 20
161.2392537434894
 10
155.7221055772569
 20
161.2392537434894
 10
155.7221055772569
 20
171.2377821180554
 10
171.3221869574651
 20
171.2377821180554
 97
        0
 75
     0
 76
     1
 98
        1
 10
0.0
 20
0.0
  0
POLYLINE
  5
11B
330
A
100
AcDbEntity
  8
0
 62
   222
100
AcDb2dPolyline
 66
     1
 10
0.0
 20
0.0
 30
0.0
 70
     1
  0
VERTEX
  5
11C
330
11B
100
AcDbEntity
  8
0
 62
   222
100
AcDbVertex
100
AcDb2dVertex
 10
171.322187
 20
201.2318169999999
 30
0.0
  0
VERTEX
  5
11D
330
11B
100
AcDbEntity
  8
0
 62
   222
100
AcDbVertex
100
AcDb2dVertex
 10
155.722106
 20
201.2318169999999
 30
0.0
  0
VERTEX
  5
11E
330
11B
100
AcDbEntity
  8
0
 62
   222
100
AcDbVertex
100
AcDb2dVertex
 10
155.722106
 20
211.230345
 30
0.0
  0
VERTEX
  5
11F
330
11B
100
AcDbEntity
  8
0
 62
   222
100
AcDbVertex
100
AcDb2dVertex
 10
171.322187
 20
211.230345
 30
0.0
  0
SEQEND
  5
120
330
11B
100
AcDbEntity
  8
0
 62
   222
  0
HATCH
  5
11A
330
A
100
AcDbEntity
  8
0
 62
   254
100
AcDbHatch
 10
0.0
 20
0.0
 30
0.0
210
0.0
220
0.0
230
1.0
  2
SOLID
 70
     1
 71
     0
 91
        1
 92
        3
 72
     0
 73
     1
 93
        4
 10
171.3221869574651
 20
201.2318169487846
 10
155.7221055772569
 20
201.2318169487846
 10
155.7221055772569
 20
211.2303453233506
 10
171.3221869574651
 20
211.2303453233506
 97
        0
 75
     0
 76
     1
 98
        1
 10
0.0
 20
0.0
  0
LINE
  5
119
330
A
100
AcDbEntity
  8
0
 62
     7
100
AcDbLine
 10
162.1919949999998
 20
144.2161759999999
 30
0.0
 11
162.1919949999998
 21
122.3511879999999
 31
0.0
  0
LINE
  5
118
330
A
100
AcDbEntity
  8
0
 62
     7
100
AcDbLine
 10
162.1919949999998
 20
242.22742
 30
0.0
 11
162.1919949999998
 21
147.905873
 31
0.0
  0
LINE
  5
117
330
A
100
AcDbEntity
  8
0
 62
     7
100
AcDbLine
 10
161.250106
 20
143.6453229999998
 30
0.0
 11
161.250106
 21
122.3511879999999
 31
0.0
  0
LINE
  5
116
330
A
100
AcDbEntity
  8
0
 62
     7
100
AcDbLine
 10
161.250106
 20
242.22742
 30
0.0
 11
161.250106
 21
147.375673
 31
0.0
  0
LINE
  5
115
330
A
100
AcDbEntity
  8
0
 62
     7
100
AcDbLine
 10
160.9810439999999
 20
143.5026959999999
 30
0.0
 11
160.9810439999999
 21
122.3511879999999
 31
0.0
  0
LINE
  5
114
330
A
100
AcDbEntity
  8
0
 62
     7
100
AcDbLine
 10
160.9810439999999
 20
242.22742
 30
0.0
 11
160.9810439999999
 21
147.2127199999999
 31
0.0
  0
LINE
  5
113
330
A
100
AcDbEntity
  8
0
 62
     7
100
AcDbLine
 10
160.577279
 20
143.258095
 30
0.0
 11
160.577279
 21
122.3511879999999
 31
0.0
  0
LINE
  5
112
330
A
100
AcDbEntity
  8
0
 62
     7
100
AcDbLine
 10
160.577279
 20
242.22742
 30
0.0
 11
160.577279
 21
146.968118
 31
0.0
  0
LINE
  5
111
330
A
100
AcDbEntity
  8
0
 62
     7
100
AcDbLine
 10
159.770093
 20
142.789562
 30
0.0
 11
159.770093
 21
122.3511879999999
 31
0.0
  0
LINE
  5
110
330
A
100
AcDbEntity
  8
0
 62
     7
100
AcDbLine
 10
159.770093
 20
242.22742
 30
0.0
 11
159.770093
 21
146.539893
 31
0.0
  0
LINE
  5
10F
330
A
100
AcDbEntity
  8
0
 62
     7
100
AcDbLine
 10
164.9511719999999
 20
149.0269069999999
 30
0.0
 11
164.9511719999999
 21
122.3511879999999
 31
0.0
  0
LINE
  5
10E
330
A
100
AcDbEntity
  8
0
 62
     7
100
AcDbLine
 10
164.9511719999999
 20
242.22742
 30
0.0
 11
164.9511719999999
 21
149.577433
 31
0.0
  0
LINE
  5
10D
330
A
100
AcDbEntity
  8
0
 62
     7
100
AcDbLine
 10
165.893061
 20
146.4175919999999
 30
0.0
 11
165.893061
 21
122.3511879999999
 31
0.0
  0
LINE
  5
10C
330
A
100
AcDbEntity
  8
0
 62
     7
100
AcDbLine
 10
165.893061
 20
242.22742
 30
0.0
 11
165.893061
 21
150.1891099999999
 31
0.0
  0
LINE
  5
10B
330
A
100
AcDbEntity
  8
0
 62
     7
100
AcDbLine
 10
166.162123
 20
146.5605629999999
 30
0.0
 11
166.162123
 21
122.3511879999999
 31
0.0
  0
LINE
  5
10A
330
A
100
AcDbEntity
  8
0
 62
     7
100
AcDbLine
 10
166.162123
 20
242.22742
 30
0.0
 11
166.162123
 21
150.291085
 31
0.0
  0
LINE
  5
109
330
A
100
AcDbEntity
  8
0
 62
     7
100
AcDbLine
 10
166.565888
 20
146.743842
 30
0.0
 11
166.565888
 21
122.3511879999999
 31
0.0
  0
LINE
  5
108
330
A
100
AcDbEntity
  8
0
 62
     7
100
AcDbLine
 10
166.565888
 20
242.22742
 30
0.0
 11
166.565888
 21
150.5353419999998
 31
0.0
  0
LINE
  5
107
330
A
100
AcDbEntity
  8
0
 62
     7
100
AcDbLine
 10
167.373074
 20
147.2127199999999
 30
0.0
 11
167.373074
 21
122.3511879999999
 31
0.0
  0
LINE
  5
106
330
A
100
AcDbEntity
  8
0
 62
     7
100
AcDbLine
 10
167.373074
 20
242.22742
 30
0.0
 11
167.373074
 21
150.9838939999999
 31
0.0
  0
LINE
  5
105
330
A
100
AcDbEntity
  8
0
 62
     7
100
AcDbLine
 10
155.84923
 20
241.450723
 30
0.0
 11
171.1929959999999
 21
241.450723
 31
0.0
  0
LINE
  5
104
330
A
100
AcDbEntity
  8
0
  6
AI9-LType5
 62
   222
100
AcDbLine
 10
163.627566
 20
268.7751529999999
 30
0.0
 11
163.627566
 21
246.142943
 31
0.0
  0
SPLINE
  5
103
330
A
100
AcDbEntity
  8
0
 62
     7
100
AcDbSpline
210
0.0
220
0.0
230
1.0
 70
    11
 71
     3
 72
    35
 73
    31
 74
     0
 42
0.0000000001
 43
0.0000000001
 40
0.0
 40
0.0
 40
0.0
 40
0.0
 40
1.0
 40
1.0
 40
1.0
 40
2.0
 40
2.0
 40
2.0
 40
3.0
 40
3.0
 40
3.0
 40
4.0
 40
4.0
 40
4.0
 40
5.0
 40
5.0
 40
5.0
 40
6.0
 40
6.0
 40
6.0
 40
7.0
 40
7.0
 40
7.0
 40
8.0
 40
8.0
 40
8.0
 40
9.0
 40
9.0
 40
9.0
 40
10.0
 40
10.0
 40
10.0
 40
10.0
 10
158.2297905815972
 20
257.4497463650171
 30
0.0
 10
161.1522650824651
 20
257.1638034396701
 30
0.0
 10
160.8363498263888
 20
254.4283976236977
 30
0.0
 10
160.8363498263888
 20
254.4283976236977
 30
0.0
 10
160.8363498263888
 20
252.8946411132811
 30
0.0
 10
162.0793402777777
 20
251.6513061523436
 30
0.0
 10
163.6130967881944
 20
251.6513061523436
 30
0.0
 10
165.146853298611
 20
251.6513061523436
 30
0.0
 10
166.3898437499998
 20
252.8946411132811
 30
0.0
 10
166.3898437499998
 20
254.4283976236977
 30
0.0
 10
166.3898437499998
 20
254.4283976236977
 30
0.0
 10
166.1059678819444
 20
257.2192694769964
 30
0.0
 10
168.9846896701387
 20
257.4497463650171
 30
0.0
 10
170.5136230468748
 20
257.5717027452256
 30
0.0
 10
171.761781141493
 20
258.6927368164061
 30
0.0
 10
171.761781141493
 20
260.2264933268228
 30
0.0
 10
171.761781141493
 20
261.7602498372396
 30
0.0
 10
170.5184461805554
 20
263.0032402886283
 30
0.0
 10
168.9846896701387
 20
263.0032402886283
 30
0.0
 10
168.9846896701387
 20
263.0032402886283
 30
0.0
 10
163.4470431857638
 20
263.1207180447048
 30
0.0
 10
163.4470431857638
 20
263.1207180447048
 30
0.0
 10
163.4470431857638
 20
263.1207180447048
 30
0.0
 10
158.2297905815972
 20
263.0032402886283
 30
0.0
 10
158.2297905815972
 20
263.0032402886283
 30
0.0
 10
156.6960340711804
 20
263.0032402886283
 30
0.0
 10
155.4530436197915
 20
261.7602498372396
 30
0.0
 10
155.4530436197915
 20
260.2264933268228
 30
0.0
 10
155.4530436197915
 20
258.6927368164061
 30
0.0
 10
156.7036132812499
 20
257.5985744900171
 30
0.0
 10
158.2297905815972
 20
257.4497463650171
 30
0.0
  0
SPLINE
  5
102
330
A
100
AcDbEntity
  8
0
  6
AI9-LType6
 62
     7
100
AcDbSpline
210
0.0
220
0.0
230
1.0
 70
    11
 71
     3
 72
    50
 73
    46
 74
     0
 42
0.0000000001
 43
0.0000000001
 40
0.0
 40
0.0
 40
0.0
 40
0.0
 40
1.0
 40
1.0
 40
1.0
 40
2.0
 40
2.0
 40
2.0
 40
3.0
 40
3.0
 40
3.0
 40
4.0
 40
4.0
 40
4.0
 40
5.0
 40
5.0
 40
5.0
 40
6.0
 40
6.0
 40
6.0
 40
7.0
 40
7.0
 40
7.0
 40
8.0
 40
8.0
 40
8.0
 40
9.0
 40
9.0
 40
9.0
 40
10.0
 40
10.0
 40
10.0
 40
11.0
 40
11.0
 40
11.0
 40
12.0
 40
12.0
 40
12.0
 40
13.0
 40
13.0
 40
13.0
 40
14.0
 40
14.0
 40
14.0
 40
15.0
 40
15.0
 40
15.0
 40
15.0
 10
165.7890190972221
 20
254.4204739040798
 30
0.0
 10
165.7862630208333
 20
254.4638821072048
 30
0.0
 10
165.7828179253471
 20
254.5258938259548
 30
0.0
 10
165.7828179253471
 20
254.624079047309
 30
0.0
 10
165.7828179253471
 20
255.0919230143228
 30
0.0
 10
165.8699788411458
 20
256.1071926540798
 30
0.0
 10
166.5496961805554
 20
256.9223022460937
 30
0.0
 10
167.1036675347222
 20
257.586516655816
 30
0.0
 10
167.9070638020833
 20
257.9654771592881
 30
0.0
 10
168.9371473524304
 20
258.0478149414061
 30
0.0
 10
170.2263020833333
 20
258.1508232964409
 30
0.0
 10
171.161990017361
 20
259.0668741861978
 30
0.0
 10
171.161990017361
 20
260.2264933268228
 30
0.0
 10
171.161990017361
 20
261.426764594184
 30
0.0
 10
170.1849609374999
 20
262.4034491644964
 30
0.0
 10
168.9846896701387
 20
262.4034491644964
 30
0.0
 10
168.9846896701387
 20
262.4034491644964
 30
0.0
 10
163.4470431857638
 20
262.5205824110242
 30
0.0
 10
163.4470431857638
 20
262.5205824110242
 30
0.0
 10
163.4470431857638
 20
262.5205824110242
 30
0.0
 10
158.2297905815972
 20
262.4034491644964
 30
0.0
 10
158.2297905815972
 20
262.4034491644964
 30
0.0
 10
157.0295193142359
 20
262.4034491644964
 30
0.0
 10
156.0531792534721
 20
261.426764594184
 30
0.0
 10
156.0531792534721
 20
260.2264933268228
 30
0.0
 10
156.0531792534721
 20
258.9387166341144
 30
0.0
 10
157.1773139105903
 20
258.1553019205728
 30
0.0
 10
158.2880126953124
 20
258.0467814127603
 30
0.0
 10
160.5600531684027
 20
257.8245727539061
 30
0.0
 10
161.1942952473958
 20
256.3104532877602
 30
0.0
 10
161.3703396267361
 20
255.4278198242186
 30
0.0
 10
161.4316623263888
 20
255.119139268663
 30
0.0
 10
161.4564670138888
 20
254.8745374891491
 30
0.0
 10
161.4564670138888
 20
254.6795450846353
 30
0.0
 10
161.4564670138888
 20
254.5720581054686
 30
0.0
 10
161.4419976128471
 20
254.4955769856769
 30
0.0
 10
161.4289062499999
 20
254.4163397894965
 30
0.0
 10
161.4295952690972
 20
254.4170288085936
 30
0.0
 10
161.4364854600694
 20
254.4283976236977
 30
0.0
 10
161.4364854600694
 20
254.4283976236977
 30
0.0
 10
161.4364854600694
 20
253.2277818467881
 30
0.0
 10
162.4128255208333
 20
252.2514417860241
 30
0.0
 10
163.6130967881944
 20
252.2514417860241
 30
0.0
 10
164.8106119791665
 20
252.2514417860241
 30
0.0
 10
165.7848849826388
 20
253.2236477322048
 30
0.0
 10
165.7890190972221
 20
254.4204739040798
 30
0.0
  0
CIRCLE
  5
100
330
A
100
AcDbEntity
  8
0
 62
     7
100
AcDbCircle
 10
163.5820909999999
 20
260.9303259999999
 30
0.0
 40
0.276297
  0
LINE
  5
FF
330
A
100
AcDbEntity
  8
0
 62
     7
100
AcDbLine
 10
155.4533879999999
 20
275.9790199999999
 30
0.0
 11
171.76626
 21
275.9790199999999
 31
0.0
  0
LINE
  5
FE
330
A
100
AcDbEntity
  8
0
 62
     7
100
AcDbLine
 10
155.4533879999999
 20
268.246848
 30
0.0
 11
155.4533879999999
 21
275.9790199999999
 31
0.0
  0
LINE
  5
FD
330
A
100
AcDbEntity
  8
0
 62
     7
100
AcDbLine
 10
171.762126
 20
268.246848
 30
0.0
 11
171.762126
 21
275.9790199999999
 31
0.0
  0
HATCH
  5
FC
330
A
100
AcDbEntity
  8
0
 62
     7
100
AcDbHatch
 10
0.0
 20
0.0
 30
0.0
210
0.0
220
0.0
230
1.0
  2
SOLID
 70
     1
 71
     0
 91
        1
 92
        1
 93
        1
 72
     4
 94
        3
 73
     0
 74
     0
 95
       17
 96
       13
 40
0.0
 40
0.0
 40
0.0
 40
0.0
 40
1.0
 40
1.0
 40
1.0
 40
2.0
 40
2.0
 40
2.0
 40
3.0
 40
3.0
 40
3.0
 40
4.0
 40
4.0
 40
4.0
 40
4.0
 10
155.6390787760415
 20
275.9852213541666
 10
155.6390787760415
 20
275.8804904513888
 10
155.5543294270833
 20
275.7957411024305
 10
155.4495985243054
 20
275.7957411024305
 10
155.3448676215277
 20
275.7957411024305
 10
155.2601182725694
 20
275.8804904513888
 10
155.2601182725694
 20
275.9852213541666
 10
155.2601182725694
 20
276.0899522569443
 10
155.3448676215277
 20
276.1747016059026
 10
155.4495985243054
 20
276.1747016059026
 10
155.5543294270833
 20
276.1747016059026
 10
155.6390787760415
 20
276.0899522569443
 10
155.6390787760415
 20
275.9852213541666
 97
        0
 75
     0
 76
     1
 98
        1
 10
0.0
 20
0.0
  0
HATCH
  5
FB
330
A
100
AcDbEntity
  8
0
 62
     7
100
AcDbHatch
 10
0.0
 20
0.0
 30
0.0
210
0.0
220
0.0
230
1.0
  2
SOLID
 70
     1
 71
     0
 91
        1
 92
        1
 93
        1
 72
     4
 94
        3
 73
     0
 74
     0
 95
       17
 96
       13
 40
0.0
 40
0.0
 40
0.0
 40
0.0
 40
1.0
 40
1.0
 40
1.0
 40
2.0
 40
2.0
 40
2.0
 40
3.0
 40
3.0
 40
3.0
 40
4.0
 40
4.0
 40
4.0
 40
4.0
 10
171.9612521701388
 20
275.9852213541666
 10
171.9612521701388
 20
275.8804904513888
 10
171.8765028211805
 20
275.7957411024305
 10
171.7717719184026
 20
275.7957411024305
 10
171.6670410156249
 20
275.7957411024305
 10
171.5822916666666
 20
275.8804904513888
 10
171.5822916666666
 20
275.9852213541666
 10
171.5822916666666
 20
276.0899522569443
 10
171.6670410156249
 20
276.1747016059026
 10
171.7717719184026
 20
276.1747016059026
 10
171.8765028211805
 20
276.1747016059026
 10
171.9612521701388
 20
276.0899522569443
 10
171.9612521701388
 20
275.9852213541666
 97
        0
 75
     0
 76
     1
 98
        1
 10
0.0
 20
0.0
  0
MTEXT
  5
FA
330
A
100
AcDbEntity
  8
0
 62
     7
100
AcDbMText
 10
159.284679
 20
279.8232459999999
 30
0.0
 40
2.624835
 41
0.0
 71
     1
 72
     2
  1
\W0.90;\fMSGothic|b0|i0|c128;76±2
  7
KANJISTD
 73
     1
 44
1.0
  0
SPLINE
  5
F9
330
A
100
AcDbEntity
  8
0
 62
     7
100
AcDbSpline
210
0.0
220
0.0
230
1.0
 70
     8
 71
     3
 72
    11
 73
     7
 74
     0
 42
0.0000000001
 43
0.0000000001
 40
0.0
 40
0.0
 40
0.0
 40
0.0
 40
1.0
 40
1.0
 40
1.0
 40
2.0
 40
2.0
 40
2.0
 40
2.0
 10
143.6208631727429
 20
112.1395806206596
 30
0.0
 10
143.647390407986
 20
111.8908447265624
 30
0.0
 10
143.8702880859374
 20
111.7103217230903
 30
0.0
 10
144.1193684895833
 20
111.7358154296874
 30
0.0
 10
144.1241916232638
 20
111.7365044487847
 30
0.0
 10
144.1283257378472
 20
111.7371934678819
 30
0.0
 10
144.1324598524304
 20
111.7378824869791
 30
0.0
  0
LINE
  5
F8
330
A
100
AcDbEntity
  8
0
  6
AI9-LType2
 62
     7
100
AcDbLine
 10
171.392811
 20
120.1938689999999
 30
0.0
 11
155.92261
 21
120.1938689999999
 31
0.0
  0
LINE
  5
F7
330
A
100
AcDbEntity
  8
0
  6
AI9-LType5
 62
     7
100
AcDbLine
 10
163.6344559999999
 20
151.1268649999998
 30
0.0
 11
163.6344559999999
 21
269.870349
 31
0.0
  0
LINE
  5
F6
330
A
100
AcDbEntity
  8
0
  6
AI9-LType5
 62
     7
100
AcDbLine
 10
163.6344559999999
 20
109.938509
 30
0.0
 11
163.6344559999999
 21
144.990633
 31
0.0
  0
POLYLINE
  5
EF
330
A
100
AcDbEntity
  8
0
  6
AI9-LType4
 62
     7
100
AcDb2dPolyline
 66
     1
 10
0.0
 20
0.0
 30
0.0
 70
     1
  0
VERTEX
  5
F0
330
EF
100
AcDbEntity
  8
0
  6
AI9-LType4
 62
     7
100
AcDbVertex
100
AcDb2dVertex
 10
171.3686959999999
 20
112.329405
 30
0.0
  0
VERTEX
  5
F1
330
EF
100
AcDbEntity
  8
0
  6
AI9-LType4
 62
     7
100
AcDbVertex
100
AcDb2dVertex
 10
155.7686139999999
 20
112.329405
 30
0.0
  0
VERTEX
  5
F2
330
EF
100
AcDbEntity
  8
0
  6
AI9-LType4
 62
     7
100
AcDbVertex
100
AcDb2dVertex
 10
155.7686139999999
 20
122.263683
 30
0.0
  0
VERTEX
  5
F3
330
EF
100
AcDbEntity
  8
0
  6
AI9-LType4
 62
     7
100
AcDbVertex
100
AcDb2dVertex
 10
171.3686959999999
 20
122.263683
 30
0.0
  0
SEQEND
  5
F4
330
EF
100
AcDbEntity
  8
0
  6
AI9-LType4
 62
     7
  0
POLYLINE
  5
E8
330
A
100
AcDbEntity
  8
0
  6
AI9-LType3
 62
     7
100
AcDb2dPolyline
 66
     1
 10
0.0
 20
0.0
 30
0.0
 70
     1
  0
VERTEX
  5
E9
330
E8
100
AcDbEntity
  8
0
  6
AI9-LType3
 62
     7
100
AcDbVertex
100
AcDb2dVertex
 10
170.661762
 20
112.329405
 30
0.0
  0
VERTEX
  5
EA
330
E8
100
AcDbEntity
  8
0
  6
AI9-LType3
 62
     7
100
AcDbVertex
100
AcDb2dVertex
 10
156.4758919999999
 20
112.329405
 30
0.0
  0
VERTEX
  5
EB
330
E8
100
AcDbEntity
  8
0
  6
AI9-LType3
 62
     7
100
AcDbVertex
100
AcDb2dVertex
 10
156.4758919999999
 20
122.263683
 30
0.0
  0
VERTEX
  5
EC
330
E8
100
AcDbEntity
  8
0
  6
AI9-LType3
 62
     7
100
AcDbVertex
100
AcDb2dVertex
 10
170.661762
 20
122.263683
 30
0.0
  0
SEQEND
  5
ED
330
E8
100
AcDbEntity
  8
0
  6
AI9-LType3
 62
     7
  0
LINE
  5
E6
330
A
100
AcDbEntity
  8
0
 62
     7
100
AcDbLine
 10
137.7145909999998
 20
111.6810379999999
 30
0.0
 11
188.184896
 21
111.6810379999999
 31
0.0
  0
LINE
  5
E5
330
A
100
AcDbEntity
  8
0
 62
     7
100
AcDbLine
 10
174.124772
 20
122.1465489999999
 30
0.0
 11
183.5918949999999
 21
112.102718
 31
0.0
  0
SPLINE
  5
E4
330
A
100
AcDbEntity
  8
0
 62
     7
100
AcDbSpline
210
0.0
220
0.0
230
1.0
 70
     8
 71
     3
 72
    11
 73
     7
 74
     0
 42
0.0000000001
 43
0.0000000001
 40
0.0
 40
0.0
 40
0.0
 40
0.0
 40
1.0
 40
1.0
 40
1.0
 40
2.0
 40
2.0
 40
2.0
 40
2.0
 10
183.1020019531249
 20
111.6810384114583
 30
0.0
 10
183.3500488281249
 20
111.6472764756944
 30
0.0
 10
183.5788031684028
 20
111.8215983072916
 30
0.0
 10
183.6125651041666
 20
112.0703342013888
 30
0.0
 10
183.6132541232638
 20
112.073779296875
 30
0.0
 10
183.6132541232638
 20
112.0786024305554
 30
0.0
 10
183.6139431423609
 20
112.0827365451388
 30
0.0
  0
CIRCLE
  5
E3
330
A
100
AcDbEntity
  8
0
 62
     7
100
AcDbCircle
 10
167.394434
 20
120.1370249999999
 30
0.0
 40
1.406287999999999
  0
CIRCLE
  5
E2
330
A
100
AcDbEntity
  8
0
 62
     7
100
AcDbCircle
 10
159.759757
 20
120.1370249999999
 30
0.0
 40
1.406631999999999
  0
CIRCLE
  5
E1
330
A
100
AcDbEntity
  8
0
 62
     7
100
AcDbCircle
 10
159.759757
 20
120.1370249999999
 30
0.0
 40
0.8037410000000001
  0
CIRCLE
  5
E0
330
A
100
AcDbEntity
  8
0
 62
     7
100
AcDbCircle
 10
167.394434
 20
120.1370249999999
 30
0.0
 40
0.803396
  0
LINE
  5
DF
330
A
100
AcDbEntity
  8
0
  6
AI9-LType2
 62
     7
100
AcDbLine
 10
167.394434
 20
117.122911
 30
0.0
 11
167.394434
 21
122.1465489999999
 31
0.0
  0
LINE
  5
DE
330
A
100
AcDbEntity
  8
0
  6
AI9-LType2
 62
     7
100
AcDbLine
 10
159.7601019999999
 20
117.122911
 30
0.0
 11
159.7601019999999
 21
122.1465489999999
 31
0.0
  0
LINE
  5
DD
330
A
100
AcDbEntity
  8
0
  6
AI9-LType2
 62
     7
100
AcDbLine
 10
171.312196
 20
120.1370249999999
 30
0.0
 11
155.8423389999999
 21
120.1370249999999
 31
0.0
  0
LINE
  5
DB
330
A
100
AcDbEntity
  8
0
 62
     7
100
AcDbLine
 10
183.162636
 20
111.6810379999999
 30
0.0
 11
143.9305769999999
 21
111.6810379999999
 31
0.0
  0
ELLIPSE
  5
DA
330
A
100
AcDbEntity
  8
0
 62
     7
100
AcDbEllipse
 10
152.361415
 20
116.456285
 30
0.0
 11
2.292366536458331
 21
2.607937282986109
 31
0.0
210
0.0
220
0.0
230
1.0
 40
0.488464
 41
0.0
 42
6.283185307179584
  0
ELLIPSE
  5
D9
330
A
100
AcDbEntity
  8
0
 62
     7
100
AcDbEllipse
 10
174.911287
 20
116.456285
 30
0.0
 11
-2.292366536458331
 21
2.607937282986109
 31
0.0
210
0.0
220
0.0
230
1.0
 40
0.488464
 41
0.0
 42
6.283185307179584
  0
POLYLINE
  5
D1
330
A
100
AcDbEntity
  8
0
 62
     7
100
AcDb2dPolyline
 66
     1
 10
0.0
 20
0.0
 30
0.0
 70
     1
  0
VERTEX
  5
D2
330
D1
100
AcDbEntity
  8
0
 62
     7
100
AcDbVertex
100
AcDb2dVertex
 10
183.6125649999999
 20
112.032094
 30
0.0
  0
VERTEX
  5
D3
330
D1
100
AcDbEntity
  8
0
 62
     7
100
AcDbVertex
100
AcDb2dVertex
 10
183.3293779999999
 20
111.6600229999999
 30
0.0
  0
VERTEX
  5
D4
330
D1
100
AcDbEntity
  8
0
 62
     7
100
AcDbVertex
100
AcDb2dVertex
 10
143.895437
 20
111.6600229999999
 30
0.0
  0
VERTEX
  5
D5
330
D1
100
AcDbEntity
  8
0
 62
     7
100
AcDbVertex
100
AcDb2dVertex
 10
143.5840009999999
 20
112.0603429999998
 30
0.0
  0
VERTEX
  5
D6
330
D1
100
AcDbEntity
  8
0
 62
     7
100
AcDbVertex
100
AcDb2dVertex
 10
153.0421659999998
 20
122.2633379999999
 30
0.0
  0
VERTEX
  5
D7
330
D1
100
AcDbEntity
  8
0
 62
     7
100
AcDbVertex
100
AcDb2dVertex
 10
174.086187
 20
122.2633379999999
 30
0.0
  0
SEQEND
  5
D8
330
D1
100
AcDbEntity
  8
0
 62
     7
  0
LINE
  5
D0
330
A
100
AcDbEntity
  8
0
 62
     7
100
AcDbLine
 10
183.585004
 20
112.112709
 30
0.0
 11
143.5840009999999
 21
112.112709
 31
0.0
  0
LINE
  5
CF
330
A
100
AcDbEntity
  8
0
  6
AI9-LType1
 62
     7
100
AcDbLine
 10
144.37086
 20
153.630416
 30
0.0
 11
97.60403400000001
 21
153.6111229999999
 31
0.0
  0
LINE
  5
CD
330
A
100
AcDbEntity
  8
0
 62
     7
100
AcDbLine
 10
117.8139969999999
 20
154.60021
 30
0.0
 11
99.970814
 21
154.60021
 31
0.0
  0
LINE
  5
CC
330
A
100
AcDbEntity
  8
0
 62
     7
100
AcDbLine
 10
117.8139969999999
 20
152.6213469999999
 30
0.0
 11
99.86470500000001
 21
152.6213469999999
 31
0.0
  0
LINE
  5
CB
330
A
100
AcDbEntity
  8
0
 62
     7
100
AcDbLine
 10
99.31142300000001
 20
154.1027379999999
 30
0.0
 11
99.31142300000001
 21
153.1050389999998
 31
0.0
  0
SPLINE
  5
CA
330
A
100
AcDbEntity
  8
0
 62
     7
100
AcDbSpline
210
0.0
220
0.0
230
1.0
 70
     8
 71
     3
 72
     8
 73
     4
 74
     0
 42
0.0000000001
 43
0.0000000001
 40
0.0
 40
0.0
 40
0.0
 40
0.0
 40
1.0
 40
1.0
 40
1.0
 40
1.0
 10
99.31142306857637
 20
153.1050387912325
 30
0.0
 10
99.38066948784721
 20
152.8466566297742
 30
0.0
 10
99.59874403211806
 20
152.6557983398437
 30
0.0
 10
99.86470540364585
 20
152.6213473849824
 30
0.0
  0
SPLINE
  5
C9
330
A
100
AcDbEntity
  8
0
 62
     7
100
AcDbSpline
210
0.0
220
0.0
230
1.0
 70
     8
 71
     3
 72
     8
 73
     4
 74
     0
 42
0.0000000001
 43
0.0000000001
 40
0.0
 40
0.0
 40
0.0
 40
0.0
 40
1.0
 40
1.0
 40
1.0
 40
1.0
 10
99.97081434461804
 20
154.6002102322048
 30
0.0
 10
99.66213378906248
 20
154.6036553276909
 30
0.0
 10
99.39066026475693
 20
154.3969495985242
 30
0.0
 10
99.31142306857637
 20
154.0982598198783
 30
0.0
  0
LINE
  5
C8
330
A
100
AcDbEntity
  8
0
 62
     7
100
AcDbLine
 10
131.0069909999999
 20
155.589986
 30
0.0
 11
132.6565019999998
 21
155.589986
 31
0.0
  0
POLYLINE
  5
C3
330
A
100
AcDbEntity
  8
0
 62
     7
100
AcDb2dPolyline
 66
     1
 10
0.0
 20
0.0
 30
0.0
  0
VERTEX
  5
C4
330
C3
100
AcDbEntity
  8
0
 62
     7
100
AcDbVertex
100
AcDb2dVertex
 10
131.0069909999999
 20
151.63226
 30
0.0
  0
VERTEX
  5
C5
330
C3
100
AcDbEntity
  8
0
 62
     7
100
AcDbVertex
100
AcDb2dVertex
 10
132.6565019999998
 20
151.63226
 30
0.0
  0
VERTEX
  5
C6
330
C3
100
AcDbEntity
  8
0
 62
     7
100
AcDbVertex
100
AcDb2dVertex
 10
132.6565019999998
 20
155.5858519999999
 30
0.0
  0
SEQEND
  5
C7
330
C3
100
AcDbEntity
  8
0
 62
     7
  0
LINE
  5
C2
330
A
100
AcDbEntity
  8
0
 62
     7
100
AcDbLine
 10
131.0069909999999
 20
151.63226
 30
0.0
 11
131.0069909999999
 21
155.589986
 31
0.0
  0
LINE
  5
C1
330
A
100
AcDbEntity
  8
0
 62
     7
100
AcDbLine
 10
117.8139969999999
 20
154.60021
 30
0.0
 11
131.0069909999999
 21
155.012933
 31
0.0
  0
LINE
  5
C0
330
A
100
AcDbEntity
  8
0
 62
     7
100
AcDbLine
 10
117.8139969999999
 20
152.6213469999999
 30
0.0
 11
131.0069909999999
 21
152.2093139999999
 31
0.0
  0
MTEXT
  5
BF
330
A
100
AcDbEntity
  8
0
 62
     7
100
AcDbMText
 10
42.03169899999998
 20
113.4111649999999
 30
0.0
 40
2.624835
 41
0.0
 71
     1
 72
     2
  1
\W0.90;\fMSGothic|b0|i0|c128;50±2
  7
KANJISTD
 11
0.0
 21
1.0
 31
0.0
 73
     1
 44
1.0
  0
MTEXT
  5
BE
330
A
100
AcDbEntity
  8
0
 62
     7
100
AcDbMText
 10
41.276362
 20
204.4285209999999
 30
0.0
 40
2.624835
 41
0.0
 71
     1
 72
     2
  1
\W0.90;\fMSGothic|b0|i0|c128;50
  7
STD
 11
0.0
 21
1.0
 31
0.0
 73
     1
 44
1.0
  0
MTEXT
  5
BD
330
A
100
AcDbEntity
  8
0
 62
     7
100
AcDbMText
 10
41.276362
 20
194.991715
 30
0.0
 40
2.624835
 41
0.0
 71
     1
 72
     2
  1
\W0.90;\fMSGothic|b0|i0|c128;50
  7
STD
 11
0.0
 21
1.0
 31
0.0
 73
     1
 44
1.0
  0
MTEXT
  5
BC
330
A
100
AcDbEntity
  8
0
 62
     7
100
AcDbMText
 10
41.276362
 20
185.466715
 30
0.0
 40
2.624835
 41
0.0
 71
     1
 72
     2
  1
\W0.90;\fMSGothic|b0|i0|c128;50
  7
STD
 11
0.0
 21
1.0
 31
0.0
 73
     1
 44
1.0
  0
MTEXT
  5
BB
330
A
100
AcDbEntity
  8
0
 62
     7
100
AcDbMText
 10
41.276362
 20
174.972955
 30
0.0
 40
2.624835
 41
0.0
 71
     1
 72
     2
  1
\W0.90;\fMSGothic|b0|i0|c128;50
  7
STD
 11
0.0
 21
1.0
 31
0.0
 73
     1
 44
1.0
  0
MTEXT
  5
BA
330
A
100
AcDbEntity
  8
0
 62
     7
100
AcDbMText
 10
41.276362
 20
164.2011749999998
 30
0.0
 40
2.624835
 41
0.0
 71
     1
 72
     2
  1
\W0.90;\fMSGothic|b0|i0|c128;50
  7
STD
 11
0.0
 21
1.0
 31
0.0
 73
     1
 44
1.0
  0
MTEXT
  5
B9
330
A
100
AcDbEntity
  8
0
 62
     7
100
AcDbMText
 10
41.276362
 20
214.071516
 30
0.0
 40
2.624835
 41
0.0
 71
     1
 72
     2
  1
\W0.90;\fMSGothic|b0|i0|c128;50
  7
STD
 11
0.0
 21
1.0
 31
0.0
 73
     1
 44
1.0
  0
MTEXT
  5
B8
330
A
100
AcDbEntity
  8
0
 62
     7
100
AcDbMText
 10
41.276362
 20
224.6328
 30
0.0
 40
2.624835
 41
0.0
 71
     1
 72
     2
  1
\W0.90;\fMSGothic|b0|i0|c128;50
  7
STD
 11
0.0
 21
1.0
 31
0.0
 73
     1
 44
1.0
  0
MTEXT
  5
B7
330
A
100
AcDbEntity
  8
0
 62
     7
100
AcDbMText
 10
41.276362
 20
233.663429
 30
0.0
 40
2.624835
 41
0.0
 71
     1
 72
     2
  1
\W0.90;\fMSGothic|b0|i0|c128;50
  7
STD
 11
0.0
 21
1.0
 31
0.0
 73
     1
 44
1.0
  0
LINE
  5
B6
330
A
100
AcDbEntity
  8
0
 62
     7
100
AcDbLine
 10
132.6565019999998
 20
157.9254159999998
 30
0.0
 11
132.6565019999998
 21
163.00521
 31
0.0
  0
LINE
  5
B5
330
A
100
AcDbEntity
  8
0
 62
     7
100
AcDbLine
 10
99.31142300000001
 20
157.9254159999998
 30
0.0
 11
99.31142300000001
 21
163.00521
 31
0.0
  0
LINE
  5
B4
330
A
100
AcDbEntity
  8
0
 62
     7
100
AcDbLine
 10
94.272626
 20
152.5896529999999
 30
0.0
 11
94.272626
 21
154.5826399999999
 31
0.0
  0
LINE
  5
B3
330
A
100
AcDbEntity
  8
0
 62
     7
100
AcDbLine
 10
98.28237300000001
 20
152.6213469999999
 30
0.0
 11
94.20234599999998
 21
152.6213469999999
 31
0.0
  0
LINE
  5
B2
330
A
100
AcDbEntity
  8
0
 62
     7
100
AcDbLine
 10
98.28237300000001
 20
154.60021
 30
0.0
 11
94.20234599999998
 21
154.60021
 31
0.0
  0
MTEXT
  5
B1
330
A
100
AcDbEntity
  8
0
 62
     7
100
AcDbMText
 10
131.1196449999999
 20
162.623165
 30
0.0
 40
2.624835
 41
0.0
 71
     1
 72
     2
  1
\W0.90;\fMSGothic|b0|i0|c128;5
  7
STD
 73
     1
 44
1.0
  0
MTEXT
  5
B0
330
A
100
AcDbEntity
  8
0
 62
     7
100
AcDbMText
 10
113.187923
 20
165.921155
 30
0.0
 40
2.624835
 41
0.0
 71
     1
 72
     2
  1
\W0.90;\fMSGothic|b0|i0|c128;100
  7
STD
 73
     1
 44
1.0
  0
MTEXT
  5
AF
330
A
100
AcDbEntity
  8
0
 62
     7
100
AcDbMText
 10
91.16685600000002
 20
152.7326239999998
 30
0.0
 40
2.624835
 41
0.0
 71
     1
 72
     2
  1
\W0.90;\fMSGothic|b0|i0|c128;6
  7
STD
 11
0.0
 21
1.0
 31
0.0
 73
     1
 44
1.0
  0
MTEXT
  5
AE
330
A
100
AcDbEntity
  8
0
 62
     7
100
AcDbMText
 10
84.522489
 20
210.8104049999999
 30
0.0
 40
2.624835
 41
0.0
 71
     1
 72
     2
  1
\W0.75;\fMSGothic|b0|i0|c128;高輝度反射シート（白）
  7
KANJISTD
 73
     1
 44
1.0
  0
POLYLINE
  5
A9
330
A
100
AcDbEntity
  8
0
 62
     7
100
AcDb2dPolyline
 66
     1
 10
0.0
 20
0.0
 30
0.0
  0
VERTEX
  5
AA
330
A9
100
AcDbEntity
  8
0
 62
     7
100
AcDbVertex
100
AcDb2dVertex
 10
78.181791
 20
205.3617969999999
 30
0.0
  0
VERTEX
  5
AB
330
A9
100
AcDbEntity
  8
0
 62
     7
100
AcDbVertex
100
AcDb2dVertex
 10
84.13198800000001
 20
207.708596
 30
0.0
  0
VERTEX
  5
AC
330
A9
100
AcDbEntity
  8
0
 62
     7
100
AcDbVertex
100
AcDb2dVertex
 10
111.8736189999999
 20
207.708596
 30
0.0
  0
SEQEND
  5
AD
330
A9
100
AcDbEntity
  8
0
 62
     7
  0
POLYLINE
  5
A4
330
A
100
AcDbEntity
  8
0
 62
     7
100
AcDb2dPolyline
 66
     1
 10
0.0
 20
0.0
 30
0.0
  0
VERTEX
  5
A5
330
A4
100
AcDbEntity
  8
0
 62
     7
100
AcDbVertex
100
AcDb2dVertex
 10
78.181791
 20
213.176135
 30
0.0
  0
VERTEX
  5
A6
330
A4
100
AcDbEntity
  8
0
 62
     7
100
AcDbVertex
100
AcDb2dVertex
 10
84.13198800000001
 20
215.5229339999999
 30
0.0
  0
VERTEX
  5
A7
330
A4
100
AcDbEntity
  8
0
 62
     7
100
AcDbVertex
100
AcDb2dVertex
 10
102.8882929999999
 20
215.5229339999999
 30
0.0
  0
SEQEND
  5
A8
330
A4
100
AcDbEntity
  8
0
 62
     7
  0
POLYLINE
  5
9F
330
A
100
AcDbEntity
  8
0
 62
     7
100
AcDb2dPolyline
 66
     1
 10
0.0
 20
0.0
 30
0.0
  0
VERTEX
  5
A0
330
9F
100
AcDbEntity
  8
0
 62
     7
100
AcDbVertex
100
AcDb2dVertex
 10
76.511092
 20
120.929053
 30
0.0
  0
VERTEX
  5
A1
330
9F
100
AcDbEntity
  8
0
 62
     7
100
AcDbVertex
100
AcDb2dVertex
 10
83.38956999999998
 20
125.503106
 30
0.0
  0
VERTEX
  5
A2
330
9F
100
AcDbEntity
  8
0
 62
     7
100
AcDbVertex
100
AcDb2dVertex
 10
104.7446829999999
 20
125.503106
 30
0.0
  0
SEQEND
  5
A3
330
9F
100
AcDbEntity
  8
0
 62
     7
  0
POLYLINE
  5
9A
330
A
100
AcDbEntity
  8
0
 62
     7
100
AcDb2dPolyline
 66
     1
 10
0.0
 20
0.0
 30
0.0
  0
VERTEX
  5
9B
330
9A
100
AcDbEntity
  8
0
 62
     7
100
AcDbVertex
100
AcDb2dVertex
 10
84.122169
 20
115.545402
 30
0.0
  0
VERTEX
  5
9C
330
9A
100
AcDbEntity
  8
0
 62
     7
100
AcDbVertex
100
AcDb2dVertex
 10
91.000647
 20
120.1197999999999
 30
0.0
  0
VERTEX
  5
9D
330
9A
100
AcDbEntity
  8
0
 62
     7
100
AcDbVertex
100
AcDb2dVertex
 10
112.3569659999999
 20
120.1197999999999
 30
0.0
  0
SEQEND
  5
9E
330
9A
100
AcDbEntity
  8
0
 62
     7
  0
MTEXT
  5
99
330
A
100
AcDbEntity
  8
0
 62
     7
100
AcDbMText
 10
86.181303
 20
218.86211
 30
0.0
 40
2.624835
 41
0.0
 71
     1
 72
     2
  1
\W0.75;\fMSGothic|b0|i0|c128;本体　PF-1000
  7
KANJISTD
 73
     1
 44
1.0
  0
MTEXT
  5
98
330
A
100
AcDbEntity
  8
0
 62
     7
100
AcDbMText
 10
83.21111399999997
 20
129.213835
 30
0.0
 40
2.624835
 41
0.0
 71
     1
 72
     2
  1
\W0.75;\fMSGothic|b0|i0|c128;セットピン（2本）
  7
KANJISTD
 73
     1
 44
1.0
  0
POLYLINE
  5
93
330
A
100
AcDbEntity
  8
0
 62
     7
100
AcDb2dPolyline
 66
     1
 10
0.0
 20
0.0
 30
0.0
  0
VERTEX
  5
94
330
93
100
AcDbEntity
  8
0
 62
     7
100
AcDbVertex
100
AcDb2dVertex
 10
71.875027
 20
86.36682099999999
 30
0.0
  0
VERTEX
  5
95
330
93
100
AcDbEntity
  8
0
 62
     7
100
AcDbVertex
100
AcDb2dVertex
 10
85.859014
 20
97.04145
 30
0.0
  0
VERTEX
  5
96
330
93
100
AcDbEntity
  8
0
 62
     7
100
AcDbVertex
100
AcDb2dVertex
 10
107.214128
 20
97.04145
 30
0.0
  0
SEQEND
  5
97
330
93
100
AcDbEntity
  8
0
 62
     7
  0
MTEXT
  5
92
330
A
100
AcDbEntity
  8
0
 62
     7
100
AcDbMText
 10
85.68055799999998
 20
100.751834
 30
0.0
 40
2.624835
 41
0.0
 71
     1
 72
     2
  1
\W0.75;\fMSGothic|b0|i0|c128;セットピンホール
  7
KANJISTD
 73
     1
 44
1.0
  0
MTEXT
  5
91
330
A
100
AcDbEntity
  8
0
 62
     7
100
AcDbMText
 10
91.75012700000001
 20
123.459147
 30
0.0
 40
2.624835
 41
0.0
 71
     1
 72
     2
  1
\W0.75;\fMSGothic|b0|i0|c128;アンカーホール
  7
KANJISTD
 73
     1
 44
1.0
  0
POLYLINE
  5
8C
330
A
100
AcDbEntity
  8
0
 62
     7
100
AcDb2dPolyline
 66
     1
 10
0.0
 20
0.0
 30
0.0
  0
VERTEX
  5
8D
330
8C
100
AcDbEntity
  8
0
 62
     7
100
AcDbVertex
100
AcDb2dVertex
 10
79.536058
 20
85.38117900000001
 30
0.0
  0
VERTEX
  5
8E
330
8C
100
AcDbEntity
  8
0
 62
     7
100
AcDbVertex
100
AcDb2dVertex
 10
86.414536
 20
89.955577
 30
0.0
  0
VERTEX
  5
8F
330
8C
100
AcDbEntity
  8
0
 62
     7
100
AcDbVertex
100
AcDb2dVertex
 10
107.770855
 20
89.955577
 30
0.0
  0
SEQEND
  5
90
330
8C
100
AcDbEntity
  8
0
 62
     7
  0
MTEXT
  5
8B
330
A
100
AcDbEntity
  8
0
 62
     7
100
AcDbMText
 10
87.16401600000002
 20
93.294925
 30
0.0
 40
2.624835
 41
0.0
 71
     1
 72
     2
  1
\W0.75;\fMSGothic|b0|i0|c128;アンカーホール
  7
KANJISTD
 73
     1
 44
1.0
  0
MTEXT
  5
8A
330
A
100
AcDbEntity
  8
0
 62
     7
100
AcDbMText
 10
115.5485029999999
 20
25.532997
 30
0.0
 40
2.624835
 41
0.0
 71
     1
 72
     2
  1
\W0.75;\fMSGothic|b0|i0|c128;ポスト：ポリウレタ ン
  7
KANJISTD
 73
     1
 44
1.0
  0
MTEXT
  5
89
330
A
100
AcDbEntity
  8
0
 62
     7
100
AcDbMText
 10
152.7514
 20
25.532997
 30
0.0
 40
2.624835
 41
0.0
 71
     1
 72
     2
  1
\W0.75;\fMSGothic|b0|i0|c128;ベース・セットピン：スチレニクス
  7
KANJISTD
 73
     1
 44
1.0
  0
MTEXT
  5
88
330
A
100
AcDbEntity
  8
0
 62
     7
100
AcDbMText
 10
100.0074879999999
 20
70.79912400000002
 30
0.0
 40
2.624835
 41
0.0
 71
     1
 72
     2
  1
\W0.90;\fMSGothic|b0|i0|c128;110±2
  7
KANJISTD
 11
0.0
 21
1.0
 31
0.0
 73
     1
 44
1.0
  0
LINE
  5
87
330
A
100
AcDbEntity
  8
0
 62
     7
100
AcDbLine
 10
177.974322
 20
84.94916399999999
 30
0.0
 11
185.7064939999999
 21
84.94916399999999
 31
0.0
  0
LINE
  5
86
330
A
100
AcDbEntity
  8
0
 62
     7
100
AcDbLine
 10
177.974322
 20
62.668354
 30
0.0
 11
185.7064939999999
 21
62.668354
 31
0.0
  0
LINE
  5
85
330
A
100
AcDbEntity
  8
0
 62
     7
100
AcDbLine
 10
185.7064939999999
 20
84.94916399999999
 30
0.0
 11
185.7064939999999
 21
62.66800899999999
 31
0.0
  0
HATCH
  5
84
330
A
100
AcDbEntity
  8
0
 62
     7
100
AcDbHatch
 10
0.0
 20
0.0
 30
0.0
210
0.0
220
0.0
230
1.0
  2
SOLID
 70
     1
 71
     0
 91
        1
 92
        1
 93
        1
 72
     4
 94
        3
 73
     0
 74
     0
 95
       17
 96
       13
 40
0.0
 40
0.0
 40
0.0
 40
0.0
 40
1.0
 40
1.0
 40
1.0
 40
2.0
 40
2.0
 40
2.0
 40
3.0
 40
3.0
 40
3.0
 40
4.0
 40
4.0
 40
4.0
 40
4.0
 10
185.7137288411458
 20
85.21133626302081
 10
185.8184597439234
 20
85.21133626302081
 10
185.9032090928818
 20
85.12658691406249
 10
185.9032090928818
 20
85.0218560112847
 10
185.9032090928818
 20
84.91712510850694
 10
185.8184597439234
 20
84.83237575954859
 10
185.7137288411458
 20
84.83237575954859
 10
185.6089979383679
 20
84.83237575954859
 10
185.5242485894096
 20
84.91712510850694
 10
185.5242485894096
 20
85.0218560112847
 10
185.5242485894096
 20
85.12658691406249
 10
185.6089979383679
 20
85.21133626302081
 10
185.7137288411458
 20
85.21133626302081
 97
        0
 75
     0
 76
     1
 98
        1
 10
0.0
 20
0.0
  0
HATCH
  5
83
330
A
100
AcDbEntity
  8
0
 62
     7
100
AcDbHatch
 10
0.0
 20
0.0
 30
0.0
210
0.0
220
0.0
230
1.0
  2
SOLID
 70
     1
 71
     0
 91
        1
 92
        1
 93
        1
 72
     4
 94
        3
 73
     0
 74
     0
 95
       17
 96
       13
 40
0.0
 40
0.0
 40
0.0
 40
0.0
 40
1.0
 40
1.0
 40
1.0
 40
2.0
 40
2.0
 40
2.0
 40
3.0
 40
3.0
 40
3.0
 40
4.0
 40
4.0
 40
4.0
 40
4.0
 10
185.7137288411458
 20
62.85990125868053
 10
185.8184597439234
 20
62.85990125868053
 10
185.9032090928818
 20
62.77515190972223
 10
185.9032090928818
 20
62.67042100694443
 10
185.9032090928818
 20
62.56569010416666
 10
185.8184597439234
 20
62.48094075520833
 10
185.7137288411458
 20
62.48094075520833
 10
185.6089979383679
 20
62.48094075520833
 10
185.5242485894096
 20
62.56569010416666
 10
185.5242485894096
 20
62.67042100694443
 10
185.5242485894096
 20
62.77515190972223
 10
185.6089979383679
 20
62.85990125868053
 10
185.7137288411458
 20
62.85990125868053
 97
        0
 75
     0
 76
     1
 98
        1
 10
0.0
 20
0.0
  0
MTEXT
  5
82
330
A
100
AcDbEntity
  8
0
 62
     7
100
AcDbMText
 10
186.4413169999999
 20
70.79912400000002
 30
0.0
 40
2.624835
 41
0.0
 71
     1
 72
     2
  1
\W0.90;\fMSGothic|b0|i0|c128;110±2
  7
KANJISTD
 11
0.0
 21
1.0
 31
0.0
 73
     1
 44
1.0
  0
POLYLINE
  5
7C
330
A
100
AcDbEntity
  8
0
 62
     7
100
AcDb2dPolyline
 66
     1
 10
0.0
 20
0.0
 30
0.0
  0
VERTEX
  5
7D
330
7C
100
AcDbEntity
  8
0
 62
     7
100
AcDbVertex
100
AcDb2dVertex
 10
64.431898
 20
144.173456
 30
0.0
  0
VERTEX
  5
7E
330
7C
100
AcDbEntity
  8
0
 62
     7
100
AcDbVertex
100
AcDb2dVertex
 10
64.431898
 20
242.2520519999999
 30
0.0
  0
VERTEX
  5
7F
330
7C
100
AcDbEntity
  8
0
 62
     7
100
AcDbVertex
100
AcDb2dVertex
 10
80.03198000000002
 20
242.2520519999999
 30
0.0
  0
VERTEX
  5
80
330
7C
100
AcDbEntity
  8
0
 62
     7
100
AcDbVertex
100
AcDb2dVertex
 10
80.03198000000002
 20
153.2468039999999
 30
0.0
  0
SEQEND
  5
81
330
7C
100
AcDbEntity
  8
0
 62
     7
  0
POLYLINE
  5
76
330
A
100
AcDbEntity
  8
0
 62
     7
100
AcDb2dPolyline
 66
     1
 10
0.0
 20
0.0
 30
0.0
  0
VERTEX
  5
77
330
76
100
AcDbEntity
  8
0
 62
     7
100
AcDbVertex
100
AcDb2dVertex
 10
80.03198000000002
 20
149.543327
 30
0.0
  0
VERTEX
  5
78
330
76
100
AcDbEntity
  8
0
 62
     7
100
AcDbVertex
100
AcDb2dVertex
 10
80.03198000000002
 20
122.2633379999999
 30
0.0
  0
VERTEX
  5
79
330
76
100
AcDbEntity
  8
0
 62
     7
100
AcDbVertex
100
AcDb2dVertex
 10
64.431898
 20
122.2633379999999
 30
0.0
  0
VERTEX
  5
7A
330
76
100
AcDbEntity
  8
0
 62
     7
100
AcDbVertex
100
AcDb2dVertex
 10
64.431898
 20
140.5437039999999
 30
0.0
  0
SEQEND
  5
7B
330
76
100
AcDbEntity
  8
0
 62
     7
  0
LINE
  5
75
330
A
100
AcDbEntity
  8
0
 62
   222
100
AcDbLine
 10
65.38601800000001
 20
141.0997419999999
 30
0.0
 11
65.38601800000001
 21
122.264027
 31
0.0
  0
LINE
  5
74
330
A
100
AcDbEntity
  8
0
 62
   222
100
AcDbLine
 10
65.38601800000001
 20
242.2520519999999
 30
0.0
 11
65.38601800000001
 21
144.7288059999999
 31
0.0
  0
LINE
  5
73
330
A
100
AcDbEntity
  8
0
 62
   222
100
AcDbLine
 10
64.660136
 20
140.691843
 30
0.0
 11
64.660136
 21
122.264027
 31
0.0
  0
LINE
  5
72
330
A
100
AcDbEntity
  8
0
 62
   222
100
AcDbLine
 10
64.660136
 20
242.2520519999999
 30
0.0
 11
64.660136
 21
144.321596
 31
0.0
  0
LINE
  5
71
330
A
100
AcDbEntity
  8
0
 62
   222
100
AcDbLine
 10
79.741903
 20
149.395188
 30
0.0
 11
79.741903
 21
122.264027
 31
0.0
  0
LINE
  5
70
330
A
100
AcDbEntity
  8
0
 62
   222
100
AcDbLine
 10
79.741903
 20
242.2520519999999
 30
0.0
 11
79.741903
 21
153.061458
 31
0.0
  0
LINE
  5
6F
330
A
100
AcDbEntity
  8
0
 62
   222
100
AcDbLine
 10
79.09680899999997
 20
149.0248399999998
 30
0.0
 11
79.09680899999997
 21
122.264027
 31
0.0
  0
LINE
  5
6E
330
A
100
AcDbEntity
  8
0
 62
   222
100
AcDbLine
 10
79.09680899999997
 20
242.2520519999999
 30
0.0
 11
79.09680899999997
 21
152.691111
 31
0.0
  0
POLYLINE
  5
64
330
A
100
AcDbEntity
  8
0
 62
     7
100
AcDb2dPolyline
 66
     1
 10
0.0
 20
0.0
 30
0.0
  0
VERTEX
  5
65
330
64
100
AcDbEntity
  8
0
 62
     7
100
AcDbVertex
100
AcDb2dVertex
 10
57.133636
 20
140.237779
 30
0.0
  0
VERTEX
  5
66
330
64
100
AcDbEntity
  8
0
 62
     7
100
AcDbVertex
100
AcDb2dVertex
 10
64.38539
 20
144.36087
 30
0.0
  0
VERTEX
  5
67
330
64
100
AcDbEntity
  8
0
 62
     7
100
AcDbVertex
100
AcDb2dVertex
 10
64.38849000000001
 20
144.362937
 30
0.0
  0
VERTEX
  5
68
330
64
100
AcDbEntity
  8
0
 62
     7
100
AcDbVertex
100
AcDb2dVertex
 10
71.89053
 20
148.628998
 30
0.0
  0
VERTEX
  5
69
330
64
100
AcDbEntity
  8
0
 62
     7
100
AcDbVertex
100
AcDb2dVertex
 10
72.469306
 20
152.4482309999999
 30
0.0
  0
VERTEX
  5
6A
330
64
100
AcDbEntity
  8
0
 62
     7
100
AcDbVertex
100
AcDb2dVertex
 10
72.87427700000002
 20
146.776915
 30
0.0
  0
VERTEX
  5
6B
330
64
100
AcDbEntity
  8
0
 62
     7
100
AcDbVertex
100
AcDb2dVertex
 10
73.163665
 20
149.43894
 30
0.0
  0
VERTEX
  5
6C
330
64
100
AcDbEntity
  8
0
 62
     7
100
AcDbVertex
100
AcDb2dVertex
 10
87.399833
 20
157.714404
 30
0.0
  0
SEQEND
  5
6D
330
64
100
AcDbEntity
  8
0
 62
     7
  0
POLYLINE
  5
5C
330
A
100
AcDbEntity
  8
0
 62
     7
100
AcDb2dPolyline
 66
     1
 10
0.0
 20
0.0
 30
0.0
  0
VERTEX
  5
5D
330
5C
100
AcDbEntity
  8
0
 62
     7
100
AcDbVertex
100
AcDb2dVertex
 10
58.24984699999999
 20
136.894659
 30
0.0
  0
VERTEX
  5
5E
330
5C
100
AcDbEntity
  8
0
 62
     7
100
AcDbVertex
100
AcDb2dVertex
 10
73.00674100000001
 20
145.286222
 30
0.0
  0
VERTEX
  5
5F
330
5C
100
AcDbEntity
  8
0
 62
     7
100
AcDbVertex
100
AcDb2dVertex
 10
73.58551700000003
 20
149.1057999999999
 30
0.0
  0
VERTEX
  5
60
330
5C
100
AcDbEntity
  8
0
 62
     7
100
AcDbVertex
100
AcDb2dVertex
 10
73.990488
 20
143.4341389999999
 30
0.0
  0
VERTEX
  5
61
330
5C
100
AcDbEntity
  8
0
 62
     7
100
AcDbVertex
100
AcDb2dVertex
 10
74.279876
 20
146.09582
 30
0.0
  0
VERTEX
  5
62
330
5C
100
AcDbEntity
  8
0
 62
     7
100
AcDbVertex
100
AcDb2dVertex
 10
89.904934
 20
155.066504
 30
0.0
  0
SEQEND
  5
63
330
5C
100
AcDbEntity
  8
0
 62
     7
  0
POLYLINE
  5
56
330
A
100
AcDbEntity
  8
0
 62
     7
100
AcDb2dPolyline
 66
     1
 10
0.0
 20
0.0
 30
0.0
  0
VERTEX
  5
57
330
56
100
AcDbEntity
  8
0
 62
     7
100
AcDbVertex
100
AcDb2dVertex
 10
155.726929
 20
144.173456
 30
0.0
  0
VERTEX
  5
58
330
56
100
AcDbEntity
  8
0
 62
     7
100
AcDbVertex
100
AcDb2dVertex
 10
155.726929
 20
242.2520519999999
 30
0.0
  0
VERTEX
  5
59
330
56
100
AcDbEntity
  8
0
 62
     7
100
AcDbVertex
100
AcDb2dVertex
 10
171.32701
 20
242.2520519999999
 30
0.0
  0
VERTEX
  5
5A
330
56
100
AcDbEntity
  8
0
 62
     7
100
AcDbVertex
100
AcDb2dVertex
 10
171.32701
 20
153.2468039999999
 30
0.0
  0
SEQEND
  5
5B
330
56
100
AcDbEntity
  8
0
 62
     7
  0
POLYLINE
  5
50
330
A
100
AcDbEntity
  8
0
 62
     7
100
AcDb2dPolyline
 66
     1
 10
0.0
 20
0.0
 30
0.0
  0
VERTEX
  5
51
330
50
100
AcDbEntity
  8
0
 62
     7
100
AcDbVertex
100
AcDb2dVertex
 10
171.32701
 20
149.543327
 30
0.0
  0
VERTEX
  5
52
330
50
100
AcDbEntity
  8
0
 62
     7
100
AcDbVertex
100
AcDb2dVertex
 10
171.32701
 20
122.2633379999999
 30
0.0
  0
VERTEX
  5
53
330
50
100
AcDbEntity
  8
0
 62
     7
100
AcDbVertex
100
AcDb2dVertex
 10
155.726929
 20
122.2633379999999
 30
0.0
  0
VERTEX
  5
54
330
50
100
AcDbEntity
  8
0
 62
     7
100
AcDbVertex
100
AcDb2dVertex
 10
155.726929
 20
140.5437039999999
 30
0.0
  0
SEQEND
  5
55
330
50
100
AcDbEntity
  8
0
 62
     7
  0
LINE
  5
4F
330
A
100
AcDbEntity
  8
0
 62
   222
100
AcDbLine
 10
156.68122
 20
141.0997419999999
 30
0.0
 11
156.68122
 21
122.264027
 31
0.0
  0
LINE
  5
4E
330
A
100
AcDbEntity
  8
0
 62
   222
100
AcDbLine
 10
156.68122
 20
242.2520519999999
 30
0.0
 11
156.68122
 21
144.7288059999999
 31
0.0
  0
LINE
  5
4D
330
A
100
AcDbEntity
  8
0
 62
   222
100
AcDbLine
 10
155.954994
 20
140.691843
 30
0.0
 11
155.954994
 21
122.264027
 31
0.0
  0
LINE
  5
4C
330
A
100
AcDbEntity
  8
0
 62
   222
100
AcDbLine
 10
155.954994
 20
242.2520519999999
 30
0.0
 11
155.954994
 21
144.321596
 31
0.0
  0
LINE
  5
4B
330
A
100
AcDbEntity
  8
0
 62
   222
100
AcDbLine
 10
171.0369329999998
 20
149.395188
 30
0.0
 11
171.0369329999998
 21
122.264027
 31
0.0
  0
LINE
  5
4A
330
A
100
AcDbEntity
  8
0
 62
   222
100
AcDbLine
 10
171.0369329999998
 20
242.2520519999999
 30
0.0
 11
171.0369329999998
 21
153.061458
 31
0.0
  0
LINE
  5
49
330
A
100
AcDbEntity
  8
0
 62
   222
100
AcDbLine
 10
170.392011
 20
149.0248399999998
 30
0.0
 11
170.392011
 21
122.264027
 31
0.0
  0
LINE
  5
48
330
A
100
AcDbEntity
  8
0
 62
   222
100
AcDbLine
 10
170.392011
 20
242.2520519999999
 30
0.0
 11
170.392011
 21
152.691111
 31
0.0
  0
POLYLINE
  5
37
330
A
100
AcDbEntity
  8
0
 62
     7
100
AcDb2dPolyline
 66
     1
 10
0.0
 20
0.0
 30
0.0
  0
VERTEX
  5
38
330
37
100
AcDbEntity
  8
0
 62
     7
100
AcDbVertex
100
AcDb2dVertex
 10
148.4288379999999
 20
140.237779
 30
0.0
  0
VERTEX
  5
39
330
37
100
AcDbEntity
  8
0
 62
     7
100
AcDbVertex
100
AcDb2dVertex
 10
155.68042
 20
144.36087
 30
0.0
  0
VERTEX
  5
3A
330
37
100
AcDbEntity
  8
0
 62
     7
100
AcDbVertex
100
AcDb2dVertex
 10
155.6835209999999
 20
144.362937
 30
0.0
  0
VERTEX
  5
3B
330
37
100
AcDbEntity
  8
0
 62
     7
100
AcDbVertex
100
AcDb2dVertex
 10
160.7715819999999
 20
147.2561279999998
 30
0.0
  0
VERTEX
  5
3C
330
37
100
AcDbEntity
  8
0
 62
     7
100
AcDbVertex
100
AcDb2dVertex
 10
160.8366939999999
 20
147.29299
 30
0.0
  0
VERTEX
  5
3D
330
37
100
AcDbEntity
  8
0
 62
     7
100
AcDbVertex
100
AcDb2dVertex
 10
163.18556
 20
148.628998
 30
0.0
  0
VERTEX
  5
3E
330
37
100
AcDbEntity
  8
0
 62
     7
100
AcDbVertex
100
AcDb2dVertex
 10
163.587259
 20
151.2789659999999
 30
0.0
  0
VERTEX
  5
3F
330
37
100
AcDbEntity
  8
0
 62
     7
100
AcDbVertex
100
AcDb2dVertex
 10
163.764336
 20
152.4482309999999
 30
0.0
  0
VERTEX
  5
40
330
37
100
AcDbEntity
  8
0
 62
     7
100
AcDbVertex
100
AcDb2dVertex
 10
164.1694799999999
 20
146.776915
 30
0.0
  0
VERTEX
  5
41
330
37
100
AcDbEntity
  8
0
 62
     7
100
AcDbVertex
100
AcDb2dVertex
 10
164.458868
 20
149.43894
 30
0.0
  0
VERTEX
  5
42
330
37
100
AcDbEntity
  8
0
 62
     7
100
AcDbVertex
100
AcDb2dVertex
 10
164.88606
 20
149.68716
 30
0.0
  0
VERTEX
  5
43
330
37
100
AcDbEntity
  8
0
 62
     7
100
AcDbVertex
100
AcDb2dVertex
 10
165.809001
 20
150.223561
 30
0.0
  0
VERTEX
  5
44
330
37
100
AcDbEntity
  8
0
 62
     7
100
AcDbVertex
100
AcDb2dVertex
 10
166.4353189999999
 20
150.5873629999999
 30
0.0
  0
VERTEX
  5
45
330
37
100
AcDbEntity
  8
0
 62
     7
100
AcDbVertex
100
AcDb2dVertex
 10
166.442209
 20
150.591497
 30
0.0
  0
VERTEX
  5
46
330
37
100
AcDbEntity
  8
0
 62
     7
100
AcDbVertex
100
AcDb2dVertex
 10
178.6946909999999
 20
157.714404
 30
0.0
  0
SEQEND
  5
47
330
37
100
AcDbEntity
  8
0
 62
     7
  0
POLYLINE
  5
2F
330
A
100
AcDbEntity
  8
0
 62
     7
100
AcDb2dPolyline
 66
     1
 10
0.0
 20
0.0
 30
0.0
  0
VERTEX
  5
30
330
2F
100
AcDbEntity
  8
0
 62
     7
100
AcDbVertex
100
AcDb2dVertex
 10
149.545049
 20
136.894659
 30
0.0
  0
VERTEX
  5
31
330
2F
100
AcDbEntity
  8
0
 62
     7
100
AcDbVertex
100
AcDb2dVertex
 10
164.301771
 20
145.286222
 30
0.0
  0
VERTEX
  5
32
330
2F
100
AcDbEntity
  8
0
 62
     7
100
AcDbVertex
100
AcDb2dVertex
 10
164.880547
 20
149.1057999999999
 30
0.0
  0
VERTEX
  5
33
330
2F
100
AcDbEntity
  8
0
 62
     7
100
AcDbVertex
100
AcDb2dVertex
 10
165.2856909999998
 20
143.4341389999999
 30
0.0
  0
VERTEX
  5
34
330
2F
100
AcDbEntity
  8
0
 62
     7
100
AcDbVertex
100
AcDb2dVertex
 10
165.575079
 20
146.09582
 30
0.0
  0
VERTEX
  5
35
330
2F
100
AcDbEntity
  8
0
 62
     7
100
AcDbVertex
100
AcDb2dVertex
 10
181.1999649999999
 20
155.066504
 30
0.0
  0
SEQEND
  5
36
330
2F
100
AcDbEntity
  8
0
 62
     7
  0
POLYLINE
  5
2A
330
A
100
AcDbEntity
  8
0
 62
     7
100
AcDb2dPolyline
 66
     1
 10
0.0
 20
0.0
 30
0.0
  0
VERTEX
  5
2B
330
2A
100
AcDbEntity
  8
0
 62
     7
100
AcDbVertex
100
AcDb2dVertex
 10
132.684752
 20
159.70188
 30
0.0
  0
VERTEX
  5
2C
330
2A
100
AcDbEntity
  8
0
 62
     7
100
AcDbVertex
100
AcDb2dVertex
 10
131.0631459999999
 20
159.70188
 30
0.0
  0
VERTEX
  5
2D
330
2A
100
AcDbEntity
  8
0
 62
     7
100
AcDbVertex
100
AcDb2dVertex
 10
131.0631459999999
 20
157.9471199999999
 30
0.0
  0
SEQEND
  5
2E
330
2A
100
AcDbEntity
  8
0
 62
     7
  0
MTEXT
  5
29
330
A
100
AcDbEntity
  8
0
 62
     7
100
AcDbMText
 10
99.24165999999999
 20
223.3319489999999
 30
0.0
 40
2.624835
 41
0.0
 71
     1
 72
     2
  1
\W0.90;\fMS Gothic|b0|i0|c128;
  7
STD
 73
     1
 44
1.0
  0
ENDSEC
  0
SECTION
  2
OBJECTS
  0
DICTIONARY
  5
19
330
0
100
AcDbDictionary
281
     1
  3
ACAD_GROUP
350
1A
  3
ACAD_MLINESTYLE
350
1B
  3
ACAD_LAYOUT
350
1E
  3
ACAD_PLOTSETTINGS
350
22
  3
ACAD_PLOTSTYLENAME
350
1F
  3
ACAD_WIPEOUT_VARS
350
23
  0
DICTIONARY
  5
1A
102
{ACAD_REACTORS
330
19
102
}
330
19
100
AcDbDictionary
281
     1
  0
DICTIONARY
  5
1B
102
{ACAD_REACTORS
330
19
102
}
330
19
100
AcDbDictionary
281
     1
  3
Standard
350
1C
  0
DICTIONARY
  5
1E
102
{ACAD_REACTORS
330
19
102
}
330
19
100
AcDbDictionary
281
     1
  3
Layout1
350
21
  3
Model
350
20
  0
DICTIONARY
  5
22
102
{ACAD_REACTORS
330
19
102
}
330
19
100
AcDbDictionary
281
     1
  0
ACDBDICTIONARYWDFLT
  5
1F
102
{ACAD_REACTORS
330
19
102
}
330
19
100
AcDbDictionary
281
     1
  3
Normal
350
1D
100
AcDbDictionaryWithDefault
340
1D
  0
WIPEOUTVARIABLES
  5
23
330
19
100
AcDbWipeoutVariables
 70
     1
  0
MLINESTYLE
  5
1C
102
{ACAD_REACTORS
330
1B
102
}
330
1B
100
AcDbMlineStyle
  2
STANDARD
 70
     0
  3

 62
     0
 51
90.0
 52
90.0
 71
     2
 49
0.5
 62
   256
  6
BYLAYER
 49
-0.5
 62
   256
  6
BYLAYER
  0
LAYOUT
  5
21
102
{ACAD_REACTORS
330
1E
102
}
330
1E
100
AcDbPlotSettings
  1

  2

  4

  6

 40
0.0
 41
0.0
 42
0.0
 43
0.0
 44
0.0
 45
0.0
 46
0.0
 47
0.0
 48
0.0
 49
0.0
140
0.0
141
0.0
142
1.0
143
1.0
 70
     0
 72
     0
 73
     0
 74
     0
  7

 75
     0
147
1.0
148
0.0
149
0.0
100
AcDbLayout
  1
Layout1
 70
     0
 71
     1
 10
0.0
 20
0.0
 11
12.0
 21
9.0
 12
0.0
 22
0.0
 32
0.0
 14
1.000000000000000E+20
 24
1.000000000000000E+20
 34
1.000000000000000E+20
 15
-1.000000000000000E+20
 25
-1.000000000000000E+20
 35
-1.000000000000000E+20
146
0.0
 13
0.0
 23
0.0
 33
0.0
 16
1.0
 26
0.0
 36
0.0
 17
0.0
 27
1.0
 37
0.0
 76
     0
330
B
  0
LAYOUT
  5
20
102
{ACAD_REACTORS
330
1E
102
}
330
1E
100
AcDbPlotSettings
  1

  2

  4

  6

 40
0.0
 41
0.0
 42
0.0
 43
0.0
 44
0.0
 45
0.0
 46
0.0
 47
0.0
 48
0.0
 49
0.0
140
0.0
141
0.0
142
1.0
143
1.0
 70
  1024
 72
     0
 73
     0
 74
     0
  7

 75
     0
147
1.0
148
0.0
149
0.0
100
AcDbLayout
  1
Model
 70
     0
 71
     0
 10
0.0
 20
0.0
 11
0.0
 21
0.0
 12
0.0
 22
0.0
 32
0.0
 14
0.0
 24
0.0
 34
0.0
 15
0.0
 25
0.0
 35
0.0
146
0.0
 13
0.0
 23
0.0
 33
0.0
 16
0.0
 26
0.0
 36
0.0
 17
0.0
 27
0.0
 37
0.0
 76
     0
330
A
  0
ACDBPLACEHOLDER
  5
1D
102
{ACAD_REACTORS
330
1F
102
}
330
1F
  0
ENDSEC
  0
EOF
