  0
SECTION
  2
HEADER
  9
$ACADVER
  1
AC1015
  9
$ACADMAINTVER
 70
     6
  9
$DWGCODEPAGE
  3
ANSI_932
  9
$INSBASE
 10
0.0
 20
0.0
 30
0.0
  9
$EXTMIN
 10
11.67542899999999
 20
13.957804
 30
-0.00000001
  9
$EXTMAX
 10
200.1462669999999
 20
286.6355619999998
 30
0.00000001
  9
$LIMMIN
 10
11.543137
 20
13.825513
  9
$LIMMAX
 10
200.278559
 20
286.767853
  9
$ORTHOMODE
 70
     0
  9
$REGENMODE
 70
     1
  9
$FILLMODE
 70
     1
  9
$QTEXTMODE
 70
     0
  9
$MIRRTEXT
 70
     1
  9
$LTSCALE
 40
1.0
  9
$ATTMODE
 70
     1
  9
$TEXTSIZE
 40
0.0
  9
$TRACEWID
 40
0.05
  9
$TEXTSTYLE
  7
Standard
  9
$CLAYER
  8
0
  9
$CELTYPE
  6
Continuous
  9
$CECOLOR
 62
   256
  9
$CELTSCALE
 40
1.0
  9
$DISPSILH
 70
     0
  9
$DIMSCALE
 40
1.0
  9
$DIMASZ
 40
0.18
  9
$DIMEXO
 40
0.0625
  9
$DIMDLI
 40
0.38
  9
$DIMRND
 40
0.0
  9
$DIMDLE
 40
0.0
  9
$DIMEXE
 40
0.18
  9
$DIMTP
 40
0.0
  9
$DIMTM
 40
0.0
  9
$DIMTXT
 40
0.18
  9
$DIMCEN
 40
0.09
  9
$DIMTSZ
 40
0.0
  9
$DIMTOL
 70
     0
  9
$DIMLIM
 70
     0
  9
$DIMTIH
 70
     1
  9
$DIMTOH
 70
     1
  9
$DIMSE1
 70
     0
  9
$DIMSE2
 70
     0
  9
$DIMTAD
 70
     0
  9
$DIMZIN
 70
     0
  9
$DIMBLK
  1

  9
$DIMASO
 70
     1
  9
$DIMSHO
 70
     1
  9
$DIMPOST
  1

  9
$DIMAPOST
  1

  9
$DIMALT
 70
     0
  9
$DIMALTD
 70
     2
  9
$DIMALTF
 40
25.4
  9
$DIMLFAC
 40
1.0
  9
$DIMTOFL
 70
     0
  9
$DIMTVP
 40
0.0
  9
$DIMTIX
 70
     0
  9
$DIMSOXD
 70
     0
  9
$DIMSAH
 70
     0
  9
$DIMBLK1
  1

  9
$DIMBLK2
  1

  9
$DIMSTYLE
  2
Standard
  9
$DIMCLRD
 70
     0
  9
$DIMCLRE
 70
     0
  9
$DIMCLRT
 70
     0
  9
$DIMTFAC
 40
1.0
  9
$DIMGAP
 40
0.09
  9
$DIMJUST
 70
     0
  9
$DIMSD1
 70
     0
  9
$DIMSD2
 70
     0
  9
$DIMTOLJ
 70
     1
  9
$DIMTZIN
 70
     0
  9
$DIMALTZ
 70
     0
  9
$DIMALTTZ
 70
     0
  9
$DIMUPT
 70
     0
  9
$DIMDEC
 70
     4
  9
$DIMTDEC
 70
     4
  9
$DIMALTU
 70
     2
  9
$DIMALTTD
 70
     2
  9
$DIMTXSTY
  7
Standard
  9
$DIMAUNIT
 70
     0
  9
$DIMADEC
 70
     0
  9
$DIMALTRND
 40
0.0
  9
$DIMAZIN
 70
     0
  9
$DIMDSEP
 70
     0
  9
$DIMATFIT
 70
     3
  9
$DIMFRAC
 70
     0
  9
$DIMLDRBLK
  1

  9
$DIMLUNIT
 70
     2
  9
$DIMLWD
 70
     0
  9
$DIMLWE
 70
     0
  9
$DIMTMOVE
 70
     0
  9
$LUNITS
 70
     2
  9
$LUPREC
 70
     4
  9
$SKETCHINC
 40
0.1
  9
$FILLETRAD
 40
0.0
  9
$AUNITS
 70
     0
  9
$AUPREC
 70
     0
  9
$MENU
  1
acad
  9
$ELEVATION
 40
0.0
  9
$PELEVATION
 40
0.0
  9
$THICKNESS
 40
0.0
  9
$LIMCHECK
 70
     0
  9
$CHAMFERA
 40
0.0
  9
$CHAMFERB
 40
0.0
  9
$CHAMFERC
 40
0.0
  9
$CHAMFERD
 40
0.0
  9
$SKPOLY
 70
     0
  9
$TDCREATE
 40
2454267.612292198
  9
$TDUCREATE
 40
2454267.237292198
  9
$TDUPDATE
 40
2454267.651123761
  9
$TDUUPDATE
 40
2454267.276123761
  9
$TDINDWG
 40
0.0077036343
  9
$TDUSRTIMER
 40
0.0077030903
  9
$USRTIMER
 70
     1
  9
$ANGBASE
 50
0.0
  9
$ANGDIR
 70
     0
  9
$PDMODE
 70
     0
  9
$PDSIZE
 40
0.0
  9
$PLINEWID
 40
0.0
  9
$SPLFRAME
 70
     0
  9
$SPLINETYPE
 70
     6
  9
$SPLINESEGS
 70
     8
  9
$HANDSEED
  5
1EC
  9
$SURFTAB1
 70
     6
  9
$SURFTAB2
 70
     6
  9
$SURFTYPE
 70
     6
  9
$SURFU
 70
     6
  9
$SURFV
 70
     6
  9
$UCSBASE
  2

  9
$UCSNAME
  2

  9
$UCSORG
 10
0.0
 20
0.0
 30
0.0
  9
$UCSXDIR
 10
1.0
 20
0.0
 30
0.0
  9
$UCSYDIR
 10
0.0
 20
1.0
 30
0.0
  9
$UCSORTHOREF
  2

  9
$UCSORTHOVIEW
 70
     0
  9
$UCSORGTOP
 10
0.0
 20
0.0
 30
0.0
  9
$UCSORGBOTTOM
 10
0.0
 20
0.0
 30
0.0
  9
$UCSORGLEFT
 10
0.0
 20
0.0
 30
0.0
  9
$UCSORGRIGHT
 10
0.0
 20
0.0
 30
0.0
  9
$UCSORGFRONT
 10
0.0
 20
0.0
 30
0.0
  9
$UCSORGBACK
 10
0.0
 20
0.0
 30
0.0
  9
$PUCSBASE
  2

  9
$PUCSNAME
  2

  9
$PUCSORG
 10
0.0
 20
0.0
 30
0.0
  9
$PUCSXDIR
 10
1.0
 20
0.0
 30
0.0
  9
$PUCSYDIR
 10
0.0
 20
1.0
 30
0.0
  9
$PUCSORTHOREF
  2

  9
$PUCSORTHOVIEW
 70
     0
  9
$PUCSORGTOP
 10
0.0
 20
0.0
 30
0.0
  9
$PUCSORGBOTTOM
 10
0.0
 20
0.0
 30
0.0
  9
$PUCSORGLEFT
 10
0.0
 20
0.0
 30
0.0
  9
$PUCSORGRIGHT
 10
0.0
 20
0.0
 30
0.0
  9
$PUCSORGFRONT
 10
0.0
 20
0.0
 30
0.0
  9
$PUCSORGBACK
 10
0.0
 20
0.0
 30
0.0
  9
$USERI1
 70
     0
  9
$USERI2
 70
     0
  9
$USERI3
 70
     0
  9
$USERI4
 70
     0
  9
$USERI5
 70
     0
  9
$USERR1
 40
0.0
  9
$USERR2
 40
0.0
  9
$USERR3
 40
0.0
  9
$USERR4
 40
0.0
  9
$USERR5
 40
0.0
  9
$WORLDVIEW
 70
     1
  9
$SHADEDGE
 70
     3
  9
$SHADEDIF
 70
    70
  9
$TILEMODE
 70
     1
  9
$MAXACTVP
 70
    16
  9
$PINSBASE
 10
0.0
 20
0.0
 30
0.0
  9
$PLIMCHECK
 70
     0
  9
$PEXTMIN
 10
1.12308328358207
 20
0.7804166500962629
 30
0.0
  9
$PEXTMAX
 10
10.10774955223864
 20
7.023749850866361
 30
0.0
  9
$PLIMMIN
 10
-0.2312499519408218
 20
-0.2312499894870548
  9
$PLIMMAX
 10
11.4620827502153
 20
8.035416452903447
  9
$UNITMODE
 70
     0
  9
$VISRETAIN
 70
     0
  9
$PLINEGEN
 70
     1
  9
$PSLTSCALE
 70
     0
  9
$TREEDEPTH
 70
  3020
  9
$CMLSTYLE
  2
Standard
  9
$CMLJUST
 70
     0
  9
$CMLSCALE
 40
1.0
  9
$PROXYGRAPHICS
 70
     0
  9
$MEASUREMENT
 70
     0
  9
$CELWEIGHT
370
     0
  9
$ENDCAPS
280
     0
  9
$JOINSTYLE
280
     0
  9
$LWDISPLAY
290
     0
  9
$INSUNITS
 70
     0
  9
$HYPERLINKBASE
  1

  9
$STYLESHEET
  1

  9
$XEDIT
290
     1
  9
$CEPSNTYPE
380
     0
  9
$PSTYLEMODE
290
     1
  9
$FINGERPRINTGUID
  2

  9
$VERSIONGUID
  2
{FC2204B4-7D47-49E0-8A69-48637D02EEB7}
  9
$EXTNAMES
290
     1
  9
$PSVPSCALE
 40
0.0
  9
$OLESTARTUP
290
     0
  0
ENDSEC
  0
SECTION
  2
CLASSES
  0
CLASS
  1
LWPOLYLINE
  2
AcDbPolyline
  3
AutoCAD 2000
 90
    32768
280
     0
281
     1
  0
CLASS
  1
IMAGE
  2
AcDbRasterImage
  3
ISM
 90
    32895
280
     0
281
     1
  0
CLASS
  1
OLE2FRAME
  2
AcDbOle2Frame
  3
AutoCAD 2000
 90
    32768
280
     0
281
     1
  0
CLASS
  1
HATCH
  2
AcDbHatch
  3
AutoCAD 2000
 90
    32768
280
     0
281
     1
  0
CLASS
  1
DICTIONARYVAR
  2
AcDbDictionaryVar
  3
AutoCAD 2000
 90
    32768
280
     0
281
     0
  0
CLASS
  1
RASTERVARIABLES
  2
AcDbRasterVariables
  3
ISM
 90
    32768
280
     0
281
     0
  0
CLASS
  1
IMAGEDEF
  2
AcDbRasterImageDef
  3
ISM
 90
    32768
280
     0
281
     0
  0
CLASS
  1
IMAGEDEF_REACTOR
  2
AcDbRasterImageDefReactor
  3
ISM
 90
    32769
280
     0
281
     0
  0
CLASS
  1
IDBUFFER
  2
AcDbIdBuffer
  3
AutoCAD 2000
 90
    32768
280
     0
281
     0
  0
CLASS
  1
SPATIAL_FILTER
  2
AcDbSpatialFilter
  3
AutoCAD 2000
 90
    32768
280
     0
281
     0
  0
CLASS
  1
XRECORD
  2
AcDbXrecord
  3
AutoCAD 2000
 90
    32768
280
     0
281
     0
  0
CLASS
  1
SORTENTSTABLE
  2
AcDbSortentsTable
  3
AutoCAD 2000
 90
    32768
280
     0
281
     0
  0
CLASS
  1
LAYER_INDEX
  2
AcDbLayerIndex
  3
AutoCAD 2000
 90
    32768
280
     0
281
     0
  0
CLASS
  1
SPATIAL_INDEX
  2
AcDbSpatialIndex
  3
AutoCAD 2000
 90
    32768
280
     0
281
     0
  0
CLASS
  1
OBJECT_PTR
  2
CAseDLPNTableRecord
  3
"ASE-LPNTableRecord"
 90
    32769
280
     0
281
     0
  0
CLASS
  1
LAYOUT
  2
AcDbLayout
  3
AutoCAD 2000
 90
        0
280
     0
281
     0
  0
CLASS
  1
PLOTSETTINGS
  2
AcDbPlotSettings
  3
AutoCAD 2000
 90
    32768
280
     0
281
     0
  0
CLASS
  1
ACDBDICTIONARYWDFLT
  2
AcDbDictionaryWithDefault
  3
AutoCAD 2000
 90
        0
280
     0
281
     0
  0
CLASS
  1
ACDBPLACEHOLDER
  2
AcDbPlaceHolder
  3
AutoCAD 2000
 90
        0
280
     0
281
     0
  0
CLASS
  1
VBA_PROJECT
  2
AcDbVbaProject
  3
"acadvba"
 90
    32769
280
     0
281
     0
  0
CLASS
  1
WIPEOUT
  2
AcDbWipeout
  3
WipeOut|AutoCAD Express Tool|expresstools@autodesk.com
 90
    32895
280
     0
281
     1
  0
CLASS
  1
WIPEOUTVARIABLES
  2
AcDbWipeoutVariables
  3
WipeOut|AutoCAD Express Tool|expresstools@autodesk.com
 90
        0
280
     0
281
     0
  0
CLASS
  1
RTEXT
  2
RText
  3
RText|AutoCAD Express Tool|expresstools@autodesk.com
 90
    32768
280
     0
281
     1
  0
CLASS
  1
ARCALIGNEDTEXT
  2
AcDbArcAlignedText
  3
ATEXT|AutoCAD Express Tool|expresstools@autodesk.com
 90
    32768
280
     0
281
     1
  0
ENDSEC
  0
SECTION
  2
TABLES
  0
TABLE
  2
VPORT
  5
7
330
0
100
AcDbSymbolTable
 70
     2
  0
VPORT
  5
1EB
330
7
100
AcDbSymbolTableRecord
100
AcDbViewportTableRecord
  2
*Active
 70
     0
 10
0.0
 20
0.0
 11
1.0
 21
1.0
 12
147.5336032639143
 22
114.0433584277382
 13
0.0
 23
0.0
 14
1.0
 24
1.0
 15
0.0
 25
0.0
 16
0.0
 26
0.0
 36
1.0
 17
0.0
 27
0.0
 37
0.0
 40
311.1186967616824
 41
1.551461245235069
 42
50.0
 43
0.0
 44
0.0
 50
0.0
 51
0.0
 71
     0
 72
   100
 73
     1
 74
     1
 75
     0
 76
     0
 77
     0
 78
     0
281
     0
 65
     0
110
0.0
120
0.0
130
0.0
111
1.0
121
0.0
131
0.0
112
0.0
122
1.0
132
0.0
 79
     0
146
0.0
  0
ENDTAB
  0
TABLE
  2
LTYPE
  5
4
330
0
100
AcDbSymbolTable
 70
    17
  0
LTYPE
  5
11
330
4
100
AcDbSymbolTableRecord
100
AcDbLinetypeTableRecord
  2
ByBlock
 70
     0
  3

 72
    65
 73
     0
 40
0.0
  0
LTYPE
  5
12
330
4
100
AcDbSymbolTableRecord
100
AcDbLinetypeTableRecord
  2
ByLayer
 70
     0
  3

 72
    65
 73
     0
 40
0.0
  0
LTYPE
  5
13
330
4
100
AcDbSymbolTableRecord
100
AcDbLinetypeTableRecord
  2
Continuous
 70
     0
  3
Solid line
 72
    65
 73
     0
 40
0.0
  0
LTYPE
  5
73
330
4
100
AcDbSymbolTableRecord
100
AcDbLinetypeTableRecord
  2
AI9-LType1
 70
     0
  3
Illustrator Dash Style No.1
 72
    65
 73
     4
 40
1.909256
 49
1.272854999999998
 74
     0
 49
-0.159099
 74
     0
 49
0.318203
 74
     0
 49
-0.159099
 74
     0
  0
LTYPE
  5
81
330
4
100
AcDbSymbolTableRecord
100
AcDbLinetypeTableRecord
  2
AI9-LType2
 70
     0
  3
Illustrator Dash Style No.2
 72
    65
 73
     4
 40
1.960168
 49
1.306795
 74
     0
 49
-0.163335
 74
     0
 49
0.326703
 74
     0
 49
-0.163335
 74
     0
  0
LTYPE
  5
8C
330
4
100
AcDbSymbolTableRecord
100
AcDbLinetypeTableRecord
  2
AI9-LType3
 70
     0
  3
Illustrator Dash Style No.3
 72
    65
 73
     4
 40
3.999927999999998
 49
0.9999819999999999
 74
     0
 49
-0.9999819999999999
 74
     0
 49
0.9999819999999999
 74
     0
 49
-0.9999819999999999
 74
     0
  0
LTYPE
  5
93
330
4
100
AcDbSymbolTableRecord
100
AcDbLinetypeTableRecord
  2
AI9-LType4
 70
     0
  3
Illustrator Dash Style No.4
 72
    65
 73
     4
 40
3.999927999999998
 49
0.9999819999999999
 74
     0
 49
-0.9999819999999999
 74
     0
 49
0.9999819999999999
 74
     0
 49
-0.9999819999999999
 74
     0
  0
LTYPE
  5
9A
330
4
100
AcDbSymbolTableRecord
100
AcDbLinetypeTableRecord
  2
AI9-LType5
 70
     0
  3
Illustrator Dash Style No.5
 72
    65
 73
     4
 40
9.801033
 49
6.534042999999998
 74
     0
 49
-0.816746
 74
     0
 49
1.633497
 74
     0
 49
-0.816746
 74
     0
  0
LTYPE
  5
A5
330
4
100
AcDbSymbolTableRecord
100
AcDbLinetypeTableRecord
  2
AI9-LType6
 70
     0
  3
Illustrator Dash Style No.6
 72
    65
 73
     4
 40
3.999927999999998
 49
0.9999819999999999
 74
     0
 49
-0.9999819999999999
 74
     0
 49
0.9999819999999999
 74
     0
 49
-0.9999819999999999
 74
     0
  0
LTYPE
  5
E2
330
4
100
AcDbSymbolTableRecord
100
AcDbLinetypeTableRecord
  2
AI9-LType7
 70
     0
  3
Illustrator Dash Style No.7
 72
    65
 73
     4
 40
3.999927999999998
 49
0.9999819999999999
 74
     0
 49
-0.9999819999999999
 74
     0
 49
0.9999819999999999
 74
     0
 49
-0.9999819999999999
 74
     0
  0
LTYPE
  5
E9
330
4
100
AcDbSymbolTableRecord
100
AcDbLinetypeTableRecord
  2
AI9-LType8
 70
     0
  3
Illustrator Dash Style No.8
 72
    65
 73
     4
 40
3.999927999999998
 49
0.9999819999999999
 74
     0
 49
-0.9999819999999999
 74
     0
 49
0.9999819999999999
 74
     0
 49
-0.9999819999999999
 74
     0
  0
LTYPE
  5
12A
330
4
100
AcDbSymbolTableRecord
100
AcDbLinetypeTableRecord
  2
AI9-LType9
 70
     0
  3
Illustrator Dash Style No.9
 72
    65
 73
     2
 40
24.502671
 49
19.60212999999998
 74
     0
 49
-4.900541
 74
     0
  0
LTYPE
  5
12C
330
4
100
AcDbSymbolTableRecord
100
AcDbLinetypeTableRecord
  2
AI9-LType10
 70
     0
  3
Illustrator Dash Style No.10
 72
    65
 73
     2
 40
24.502671
 49
19.60212999999998
 74
     0
 49
-4.900541
 74
     0
  0
LTYPE
  5
12E
330
4
100
AcDbSymbolTableRecord
100
AcDbLinetypeTableRecord
  2
AI9-LType11
 70
     0
  3
Illustrator Dash Style No.11
 72
    65
 73
     2
 40
24.502671
 49
19.60212999999998
 74
     0
 49
-4.900541
 74
     0
  0
LTYPE
  5
130
330
4
100
AcDbSymbolTableRecord
100
AcDbLinetypeTableRecord
  2
AI9-LType12
 70
     0
  3
Illustrator Dash Style No.12
 72
    65
 73
     2
 40
24.502671
 49
19.60212999999998
 74
     0
 49
-4.900541
 74
     0
  0
LTYPE
  5
132
330
4
100
AcDbSymbolTableRecord
100
AcDbLinetypeTableRecord
  2
AI9-LType13
 70
     0
  3
Illustrator Dash Style No.13
 72
    65
 73
     2
 40
24.502671
 49
19.60212999999998
 74
     0
 49
-4.900541
 74
     0
  0
LTYPE
  5
134
330
4
100
AcDbSymbolTableRecord
100
AcDbLinetypeTableRecord
  2
AI9-LType14
 70
     0
  3
Illustrator Dash Style No.14
 72
    65
 73
     2
 40
24.502671
 49
19.60212999999998
 74
     0
 49
-4.900541
 74
     0
  0
LTYPE
  5
138
330
4
100
AcDbSymbolTableRecord
100
AcDbLinetypeTableRecord
  2
AI9-LType15
 70
     0
  3
Illustrator Dash Style No.15
 72
    65
 73
     4
 40
5.880621999999998
 49
3.920416
 74
     0
 49
-0.490043
 74
     0
 49
0.980119
 74
     0
 49
-0.490043
 74
     0
  0
LTYPE
  5
193
330
4
100
AcDbSymbolTableRecord
100
AcDbLinetypeTableRecord
  2
AI9-LType16
 70
     0
  3
Illustrator Dash Style No.16
 72
    65
 73
     4
 40
3.999927999999998
 49
0.9999819999999999
 74
     0
 49
-0.9999819999999999
 74
     0
 49
0.9999819999999999
 74
     0
 49
-0.9999819999999999
 74
     0
  0
ENDTAB
  0
TABLE
  2
LAYER
  5
2
330
0
100
AcDbSymbolTable
 70
     1
  0
LAYER
  5
14
330
2
100
AcDbSymbolTableRecord
100
AcDbLayerTableRecord
  2
0
 70
     0
 62
     7
  6
Continuous
370
    -3
390
1D
  0
ENDTAB
  0
TABLE
  2
STYLE
  5
3
330
0
100
AcDbSymbolTable
 70
     5
  0
STYLE
  5
17
330
3
100
AcDbSymbolTableRecord
100
AcDbTextStyleTableRecord
  2
Standard
 70
     0
 40
0.0
 41
1.0
 50
0.0
 71
     0
 42
0.0
  3
txt
  4

  0
STYLE
  5
24
330
3
100
AcDbSymbolTableRecord
100
AcDbTextStyleTableRecord
  2
STD
 70
     0
 40
0.0
 41
1.0
 50
0.0
 71
     0
 42
0.0
  3
txt
  4

  0
STYLE
  5
25
330
3
100
AcDbSymbolTableRecord
100
AcDbTextStyleTableRecord
  2
TATESTD
 70
     4
 40
0.0
 41
1.0
 50
0.0
 71
     0
 42
0.0
  3
txt
  4

  0
STYLE
  5
26
330
3
100
AcDbSymbolTableRecord
100
AcDbTextStyleTableRecord
  2
KANJISTD
 70
     0
 40
0.0
 41
1.0
 50
0.0
 71
     0
 42
0.0
  3
txt
  4
extfont
  0
STYLE
  5
27
330
3
100
AcDbSymbolTableRecord
100
AcDbTextStyleTableRecord
  2
KANJITATE
 70
     4
 40
0.0
 41
1.0
 50
0.0
 71
     0
 42
0.0
  3
txt
  4
extfont
  0
ENDTAB
  0
TABLE
  2
VIEW
  5
5
330
0
100
AcDbSymbolTable
 70
     0
  0
ENDTAB
  0
TABLE
  2
UCS
  5
6
330
0
100
AcDbSymbolTable
 70
     0
  0
ENDTAB
  0
TABLE
  2
APPID
  5
8
330
0
100
AcDbSymbolTable
 70
     1
  0
APPID
  5
16
330
8
100
AcDbSymbolTableRecord
100
AcDbRegAppTableRecord
  2
ACAD
 70
     0
  0
ENDTAB
  0
TABLE
  2
DIMSTYLE
  5
9
330
0
100
AcDbSymbolTable
 70
     1
100
AcDbDimStyleTable
 71
     0
  0
DIMSTYLE
105
18
330
9
100
AcDbSymbolTableRecord
100
AcDbDimStyleTableRecord
  2
Standard
 70
     0
340
17
  0
ENDTAB
  0
TABLE
  2
BLOCK_RECORD
  5
1
330
0
100
AcDbSymbolTable
 70
     0
  0
BLOCK_RECORD
  5
A
330
1
100
AcDbSymbolTableRecord
100
AcDbBlockTableRecord
  2
*MODEL_SPACE
340
20
  0
BLOCK_RECORD
  5
B
330
1
100
AcDbSymbolTableRecord
100
AcDbBlockTableRecord
  2
*PAPER_SPACE
340
21
  0
ENDTAB
  0
ENDSEC
  0
SECTION
  2
BLOCKS
  0
BLOCK
  5
D
330
A
100
AcDbEntity
  8
0
100
AcDbBlockBegin
  2
*MODEL_SPACE
 70
     0
 10
0.0
 20
0.0
 30
0.0
  3
*MODEL_SPACE
  1

  0
ENDBLK
  5
E
330
A
100
AcDbEntity
  8
0
100
AcDbBlockEnd
  0
BLOCK
  5
F
330
B
100
AcDbEntity
 67
     1
  8
0
100
AcDbBlockBegin
  2
*PAPER_SPACE
 70
     0
 10
0.0
 20
0.0
 30
0.0
  3
*PAPER_SPACE
  1

  0
ENDBLK
  5
10
330
B
100
AcDbEntity
 67
     1
  8
0
100
AcDbBlockEnd
  0
ENDSEC
  0
SECTION
  2
ENTITIES
  0
CIRCLE
  5
1D2
330
A
100
AcDbEntity
  8
0
 62
     7
100
AcDbCircle
 10
175.3126409999999
 20
119.9430659999999
 30
0.0
 40
1.978863
  0
HATCH
  5
1D1
330
A
100
AcDbEntity
  8
0
 62
   255
100
AcDbHatch
 10
0.0
 20
0.0
 30
0.0
210
0.0
220
0.0
230
1.0
  2
SOLID
 70
     1
 71
     0
 91
        1
 92
        1
 93
        1
 72
     4
 94
        3
 73
     0
 74
     0
 95
       17
 96
       13
 40
0.0
 40
0.0
 40
0.0
 40
0.0
 40
1.0
 40
1.0
 40
1.0
 40
2.0
 40
2.0
 40
2.0
 40
3.0
 40
3.0
 40
3.0
 40
4.0
 40
4.0
 40
4.0
 40
4.0
 10
177.2915039062499
 20
119.9430664062498
 10
177.2915039062499
 20
121.036195203993
 10
176.4057698567708
 20
121.9219292534722
 10
175.3129855685763
 20
121.9219292534722
 10
174.2198567708333
 20
121.9219292534722
 10
173.3337782118055
 20
121.036195203993
 10
173.3337782118055
 20
119.9430664062498
 10
173.3337782118055
 20
118.8506266276041
 10
174.2198567708333
 20
117.9638590494791
 10
175.3129855685763
 20
117.9638590494791
 10
176.4057698567708
 20
117.9638590494791
 10
177.2915039062499
 20
118.8506266276041
 10
177.2915039062499
 20
119.9430664062498
 97
        0
 75
     0
 76
     1
 98
        1
 10
0.0
 20
0.0
  0
MTEXT
  5
1D0
330
A
100
AcDbEntity
  8
0
 62
     7
100
AcDbMText
 10
141.819423
 20
108.703086
 30
0.0
 40
2.817731999999999
 41
0.0
 71
     1
 72
     2
  1
\W0.75;\fMSGothic|b0|i0|c128; セットピン(2本)1：3
  7
KANJISTD
 73
     1
 44
1.0
  0
POLYLINE
  5
1CA
330
A
100
AcDbEntity
  8
0
 62
     7
100
AcDb2dPolyline
 66
     1
 10
0.0
 20
0.0
 30
0.0
 70
     1
  0
VERTEX
  5
1CB
330
1CA
100
AcDbEntity
  8
0
 62
     7
100
AcDbVertex
100
AcDb2dVertex
 10
141.514187
 20
110.3874049999999
 30
0.0
  0
VERTEX
  5
1CC
330
1CA
100
AcDbEntity
  8
0
 62
     7
100
AcDbVertex
100
AcDb2dVertex
 10
172.149354
 20
110.3874049999999
 30
0.0
  0
VERTEX
  5
1CD
330
1CA
100
AcDbEntity
  8
0
 62
     7
100
AcDbVertex
100
AcDb2dVertex
 10
172.149354
 20
104.0966609999999
 30
0.0
  0
VERTEX
  5
1CE
330
1CA
100
AcDbEntity
  8
0
 62
     7
100
AcDbVertex
100
AcDb2dVertex
 10
141.514187
 20
104.0146669999999
 30
0.0
  0
SEQEND
  5
1CF
330
1CA
100
AcDbEntity
  8
0
 62
     7
  0
LINE
  5
1C9
330
A
100
AcDbEntity
  8
0
  6
AI9-LType1
 62
     7
100
AcDbLine
 10
175.3136749999999
 20
125.491737
 30
0.0
 11
175.3136749999999
 21
115.818254
 31
0.0
  0
LINE
  5
1C8
330
A
100
AcDbEntity
  8
0
 62
     7
100
AcDbLine
 10
171.3752409999998
 20
117.9428439999999
 30
0.0
 11
180.051025
 21
117.9428439999999
 31
0.0
  0
LINE
  5
1C7
330
A
100
AcDbEntity
  8
0
 62
     7
100
AcDbLine
 10
171.3752409999998
 20
121.90057
 30
0.0
 11
180.051025
 21
121.90057
 31
0.0
  0
LINE
  5
1C6
330
A
100
AcDbEntity
  8
0
 62
     7
100
AcDbLine
 10
136.1115889999998
 20
129.3157929999999
 30
0.0
 11
169.410503
 21
129.3157929999999
 31
0.0
  0
LINE
  5
1C5
330
A
100
AcDbEntity
  8
0
 62
     7
100
AcDbLine
 10
179.9986599999999
 20
117.908049
 30
0.0
 11
179.9986599999999
 21
121.772757
 31
0.0
  0
MTEXT
  5
1C4
330
A
100
AcDbEntity
  8
0
 62
     7
100
AcDbMText
 10
181.4714219999999
 20
116.13348
 30
0.0
 40
2.624835
 41
0.0
 71
     1
 72
     2
  1
\W0.90;\fMSGothic|b0|i0|c128;Φ-12
  7
KANJISTD
 11
0.0
 21
1.0
 31
0.0
 73
     1
 44
1.0
  0
LINE
  5
1C3
330
A
100
AcDbEntity
  8
0
 62
     7
100
AcDbLine
 10
44.05260799999999
 20
221.1768529999999
 30
0.0
 11
44.05260799999999
 21
180.106147
 31
0.0
  0
MTEXT
  5
1C2
330
A
100
AcDbEntity
  8
0
 62
     7
100
AcDbMText
 10
96.074584
 20
33.868564
 30
0.0
 40
2.847891
 41
0.0
 71
     1
 72
     2
  1
\W0.90;\fMSGothic|b0|i0|c128; 品  名
  7
KANJISTD
 73
     1
 44
1.0
  0
MTEXT
  5
1C1
330
A
100
AcDbEntity
  8
0
 62
     7
100
AcDbMText
 10
96.074584
 20
26.269717
 30
0.0
 40
2.847891
 41
0.0
 71
     1
 72
     2
  1
\W0.90;\fMSGothic|b0|i0|c128; 材  質
  7
KANJISTD
 73
     1
 44
1.0
  0
MTEXT
  5
1C0
330
A
100
AcDbEntity
  8
0
 62
     7
100
AcDbMText
 10
112.710433
 20
33.413123
 30
0.0
 40
2.847891
 41
0.0
 71
     1
 72
     2
  1
\W0.90;\fMSGothic|b0|i0|c128; ポストフレックス　  品　番  ＰＦ-400
  7
KANJISTD
 73
     1
 44
1.0
  0
MTEXT
  5
1BF
330
A
100
AcDbEntity
  8
0
 62
     7
100
AcDbMText
 10
29.875007
 20
26.43382
 30
0.0
 40
4.442741999999999
 41
0.0
 71
     1
 72
     2
  1
\W0.90;\fMSGothic|b0|i0|c128;保安道路企画株式会社
  7
KANJISTD
 73
     1
 44
1.0
  0
LINE
  5
1BE
330
A
100
AcDbEntity
  8
0
 62
     7
100
AcDbLine
 10
110.6323509999999
 20
35.84863
 30
0.0
 11
110.6323509999999
 21
28.157799
 31
0.0
  0
LINE
  5
1BD
330
A
100
AcDbEntity
  8
0
 62
     7
100
AcDbLine
 10
110.6323509999999
 20
28.407913
 30
0.0
 11
110.6323509999999
 21
20.717082
 31
0.0
  0
LINE
  5
1BC
330
A
100
AcDbEntity
  8
0
 62
     7
100
AcDbLine
 10
146.1340599999998
 20
35.84863
 30
0.0
 11
146.1340599999998
 21
28.157799
 31
0.0
  0
LINE
  5
1BB
330
A
100
AcDbEntity
  8
0
 62
     7
100
AcDbLine
 10
161.0120499999998
 20
35.84863
 30
0.0
 11
161.0120499999998
 21
28.157799
 31
0.0
  0
POLYLINE
  5
1B5
330
A
100
AcDbEntity
  8
0
 62
   222
100
AcDb2dPolyline
 66
     1
 10
0.0
 20
0.0
 30
0.0
 70
     1
  0
VERTEX
  5
1B6
330
1B5
100
AcDbEntity
  8
0
 62
   222
100
AcDbVertex
100
AcDb2dVertex
 10
79.75895600000002
 20
200.07616
 30
0.0
  0
VERTEX
  5
1B7
330
1B5
100
AcDbEntity
  8
0
 62
   222
100
AcDbVertex
100
AcDb2dVertex
 10
64.158875
 20
200.07616
 30
0.0
  0
VERTEX
  5
1B8
330
1B5
100
AcDbEntity
  8
0
 62
   222
100
AcDbVertex
100
AcDb2dVertex
 10
64.158875
 20
210.075549
 30
0.0
  0
VERTEX
  5
1B9
330
1B5
100
AcDbEntity
  8
0
 62
   222
100
AcDbVertex
100
AcDb2dVertex
 10
79.75895600000002
 20
210.075549
 30
0.0
  0
SEQEND
  5
1BA
330
1B5
100
AcDbEntity
  8
0
 62
   222
  0
HATCH
  5
1B4
330
A
100
AcDbEntity
  8
0
 62
   254
100
AcDbHatch
 10
0.0
 20
0.0
 30
0.0
210
0.0
220
0.0
230
1.0
  2
SOLID
 70
     1
 71
     0
 91
        1
 92
        3
 72
     0
 73
     1
 93
        4
 10
79.75895589192706
 20
200.0761596679686
 10
64.15887451171875
 20
200.0761596679686
 10
64.15887451171875
 20
210.0755493164061
 10
79.75895589192706
 20
210.0755493164061
 97
        0
 75
     0
 76
     1
 98
        1
 10
0.0
 20
0.0
  0
POLYLINE
  5
1AE
330
A
100
AcDbEntity
  8
0
 62
   222
100
AcDb2dPolyline
 66
     1
 10
0.0
 20
0.0
 30
0.0
 70
     1
  0
VERTEX
  5
1AF
330
1AE
100
AcDbEntity
  8
0
 62
   222
100
AcDbVertex
100
AcDb2dVertex
 10
79.75895600000002
 20
180.07962
 30
0.0
  0
VERTEX
  5
1B0
330
1AE
100
AcDbEntity
  8
0
 62
   222
100
AcDbVertex
100
AcDb2dVertex
 10
64.158875
 20
180.07962
 30
0.0
  0
VERTEX
  5
1B1
330
1AE
100
AcDbEntity
  8
0
 62
   222
100
AcDbVertex
100
AcDb2dVertex
 10
64.158875
 20
190.078148
 30
0.0
  0
VERTEX
  5
1B2
330
1AE
100
AcDbEntity
  8
0
 62
   222
100
AcDbVertex
100
AcDb2dVertex
 10
79.75895600000002
 20
190.078148
 30
0.0
  0
SEQEND
  5
1B3
330
1AE
100
AcDbEntity
  8
0
 62
   222
  0
HATCH
  5
1AD
330
A
100
AcDbEntity
  8
0
 62
   254
100
AcDbHatch
 10
0.0
 20
0.0
 30
0.0
210
0.0
220
0.0
230
1.0
  2
SOLID
 70
     1
 71
     0
 91
        1
 92
        3
 72
     0
 73
     1
 93
        4
 10
79.75895589192706
 20
180.0796196831596
 10
64.15887451171875
 20
180.0796196831596
 10
64.15887451171875
 20
190.0781480577256
 10
79.75895589192706
 20
190.0781480577256
 97
        0
 75
     0
 76
     1
 98
        1
 10
0.0
 20
0.0
  0
LINE
  5
1AC
330
A
100
AcDbEntity
  8
0
  6
AI9-LType5
 62
     7
100
AcDbLine
 10
154.171468
 20
54.500377
 30
0.0
 11
154.171468
 21
98.811195
 31
0.0
  0
POLYLINE
  5
1A6
330
A
100
AcDbEntity
  8
0
 62
     7
100
AcDb2dPolyline
 66
     1
 10
0.0
 20
0.0
 30
0.0
 70
     1
  0
VERTEX
  5
1A7
330
1A6
100
AcDbEntity
  8
0
 62
     7
100
AcDbVertex
100
AcDb2dVertex
 10
79.75895600000002
 20
151.075361
 30
0.0
  0
VERTEX
  5
1A8
330
1A6
100
AcDbEntity
  8
0
 62
     7
100
AcDbVertex
100
AcDb2dVertex
 10
64.158875
 20
151.075361
 30
0.0
  0
VERTEX
  5
1A9
330
1A6
100
AcDbEntity
  8
0
 62
     7
100
AcDbVertex
100
AcDb2dVertex
 10
64.158875
 20
221.075395
 30
0.0
  0
VERTEX
  5
1AA
330
1A6
100
AcDbEntity
  8
0
 62
     7
100
AcDbVertex
100
AcDb2dVertex
 10
79.75895600000002
 20
221.075395
 30
0.0
  0
SEQEND
  5
1AB
330
1A6
100
AcDbEntity
  8
0
 62
     7
  0
LINE
  5
1A5
330
A
100
AcDbEntity
  8
0
 62
     7
100
AcDbLine
 10
65.112994
 20
221.075395
 30
0.0
 11
65.112994
 21
151.075705
 31
0.0
  0
LINE
  5
1A4
330
A
100
AcDbEntity
  8
0
 62
     7
100
AcDbLine
 10
64.387112
 20
221.075395
 30
0.0
 11
64.387112
 21
151.075705
 31
0.0
  0
LINE
  5
1A3
330
A
100
AcDbEntity
  8
0
 62
     7
100
AcDbLine
 10
79.468879
 20
221.075395
 30
0.0
 11
79.468879
 21
151.075361
 31
0.0
  0
LINE
  5
1A2
330
A
100
AcDbEntity
  8
0
 62
     7
100
AcDbLine
 10
78.823785
 20
221.075395
 30
0.0
 11
78.823785
 21
151.075361
 31
0.0
  0
LINE
  5
1A1
330
A
100
AcDbEntity
  8
0
 62
     7
100
AcDbLine
 10
64.285999
 20
220.2986979999999
 30
0.0
 11
79.629765
 21
220.2986979999999
 31
0.0
  0
POLYLINE
  5
19B
330
A
100
AcDbEntity
  8
0
 62
     7
100
AcDb2dPolyline
 66
     1
 10
0.0
 20
0.0
 30
0.0
 70
     1
  0
VERTEX
  5
19C
330
19B
100
AcDbEntity
  8
0
 62
     7
100
AcDbVertex
100
AcDb2dVertex
 10
200.1462669999999
 20
13.957804
 30
0.0
  0
VERTEX
  5
19D
330
19B
100
AcDbEntity
  8
0
 62
     7
100
AcDbVertex
100
AcDb2dVertex
 10
11.67542899999999
 20
13.957804
 30
0.0
  0
VERTEX
  5
19E
330
19B
100
AcDbEntity
  8
0
 62
     7
100
AcDbVertex
100
AcDb2dVertex
 10
11.67542899999999
 20
286.6355619999998
 30
0.0
  0
VERTEX
  5
19F
330
19B
100
AcDbEntity
  8
0
 62
     7
100
AcDbVertex
100
AcDb2dVertex
 10
200.1462669999999
 20
286.6355619999998
 30
0.0
  0
SEQEND
  5
1A0
330
19B
100
AcDbEntity
  8
0
 62
     7
  0
LINE
  5
19A
330
A
100
AcDbEntity
  8
0
 62
     7
100
AcDbLine
 10
92.73783599999999
 20
20.778404
 30
0.0
 11
199.994339
 21
20.778404
 31
0.0
  0
LINE
  5
199
330
A
100
AcDbEntity
  8
0
 62
     7
100
AcDbLine
 10
92.73783599999999
 20
28.157799
 30
0.0
 11
199.994339
 21
28.157799
 31
0.0
  0
LINE
  5
198
330
A
100
AcDbEntity
  8
0
 62
     7
100
AcDbLine
 10
92.73783599999999
 20
35.84863
 30
0.0
 11
92.73783599999999
 21
13.957804
 31
0.0
  0
LINE
  5
197
330
A
100
AcDbEntity
  8
0
 62
     7
100
AcDbLine
 10
11.67542899999999
 20
35.84863
 30
0.0
 11
200.138688
 21
35.84863
 31
0.0
  0
LINE
  5
196
330
A
100
AcDbEntity
  8
0
  6
AI9-LType5
 62
   222
100
AcDbLine
 10
72.024372
 20
231.9906629999999
 30
0.0
 11
72.024372
 21
254.622873
 31
0.0
  0
SPLINE
  5
195
330
A
100
AcDbEntity
  8
0
 62
     7
100
AcDbSpline
210
0.0
220
0.0
230
1.0
 70
    11
 71
     3
 72
    35
 73
    31
 74
     0
 42
0.0000000001
 43
0.0000000001
 40
0.0
 40
0.0
 40
0.0
 40
0.0
 40
1.0
 40
1.0
 40
1.0
 40
2.0
 40
2.0
 40
2.0
 40
3.0
 40
3.0
 40
3.0
 40
4.0
 40
4.0
 40
4.0
 40
5.0
 40
5.0
 40
5.0
 40
6.0
 40
6.0
 40
6.0
 40
7.0
 40
7.0
 40
7.0
 40
8.0
 40
8.0
 40
8.0
 40
9.0
 40
9.0
 40
9.0
 40
10.0
 40
10.0
 40
10.0
 40
10.0
 10
77.42214762369791
 20
243.3160698784721
 30
0.0
 10
74.49967312282986
 20
243.6020128038193
 30
0.0
 10
74.81558837890623
 20
246.3374186197916
 30
0.0
 10
74.81558837890623
 20
246.3374186197916
 30
0.0
 10
74.81558837890623
 20
247.8711751302083
 30
0.0
 10
73.57259792751735
 20
249.1145100911458
 30
0.0
 10
72.03884141710068
 20
249.1145100911458
 30
0.0
 10
70.50525716145833
 20
249.1145100911458
 30
0.0
 10
69.26209445529512
 20
247.8711751302083
 30
0.0
 10
69.26209445529512
 20
246.3374186197916
 30
0.0
 10
69.26209445529512
 20
246.3374186197916
 30
0.0
 10
69.546142578125
 20
243.546546766493
 30
0.0
 10
66.66707628038193
 20
243.3160698784721
 30
0.0
 10
65.13831515842013
 20
243.1941134982638
 30
0.0
 10
63.89015706380208
 20
242.0730794270832
 30
0.0
 10
63.89015706380208
 20
240.5393229166666
 30
0.0
 10
63.89015706380208
 20
239.00556640625
 30
0.0
 10
65.13331976996528
 20
237.7625759548611
 30
0.0
 10
66.66707628038193
 20
237.7625759548611
 30
0.0
 10
66.66707628038193
 20
237.7625759548611
 30
0.0
 10
72.20472276475693
 20
237.6452704535588
 30
0.0
 10
72.20472276475693
 20
237.6452704535588
 30
0.0
 10
72.20472276475693
 20
237.6452704535588
 30
0.0
 10
77.42214762369791
 20
237.7625759548611
 30
0.0
 10
77.42214762369791
 20
237.7625759548611
 30
0.0
 10
78.95590413411458
 20
237.7625759548611
 30
0.0
 10
80.19889458550345
 20
239.00556640625
 30
0.0
 10
80.19889458550345
 20
240.5393229166666
 30
0.0
 10
80.19889458550345
 20
242.0730794270832
 30
0.0
 10
78.94832492404515
 20
243.167241753472
 30
0.0
 10
77.42214762369791
 20
243.3160698784721
 30
0.0
  0
SPLINE
  5
194
330
A
100
AcDbEntity
  8
0
  6
AI9-LType16
 62
     7
100
AcDbSpline
210
0.0
220
0.0
230
1.0
 70
    11
 71
     3
 72
    50
 73
    46
 74
     0
 42
0.0000000001
 43
0.0000000001
 40
0.0
 40
0.0
 40
0.0
 40
0.0
 40
1.0
 40
1.0
 40
1.0
 40
2.0
 40
2.0
 40
2.0
 40
3.0
 40
3.0
 40
3.0
 40
4.0
 40
4.0
 40
4.0
 40
5.0
 40
5.0
 40
5.0
 40
6.0
 40
6.0
 40
6.0
 40
7.0
 40
7.0
 40
7.0
 40
8.0
 40
8.0
 40
8.0
 40
9.0
 40
9.0
 40
9.0
 40
10.0
 40
10.0
 40
10.0
 40
11.0
 40
11.0
 40
11.0
 40
12.0
 40
12.0
 40
12.0
 40
13.0
 40
13.0
 40
13.0
 40
14.0
 40
14.0
 40
14.0
 40
15.0
 40
15.0
 40
15.0
 40
15.0
 10
69.86291910807292
 20
246.3451700846353
 30
0.0
 10
69.86584743923609
 20
246.302106391059
 30
0.0
 10
69.86929253472222
 20
246.2399224175345
 30
0.0
 10
69.86929253472222
 20
246.1417371961804
 30
0.0
 10
69.86929253472222
 20
245.6738932291666
 30
0.0
 10
69.78195936414929
 20
244.658795844184
 30
0.0
 10
69.10224202473958
 20
243.8435139973958
 30
0.0
 10
68.5482706705729
 20
243.1791273328991
 30
0.0
 10
67.74504665798609
 20
242.8005113389755
 30
0.0
 10
66.71496310763888
 20
242.7180013020831
 30
0.0
 10
65.4258083767361
 20
242.6151652018229
 30
0.0
 10
64.49012044270833
 20
241.6989420572916
 30
0.0
 10
64.49012044270833
 20
240.5393229166666
 30
0.0
 10
64.49012044270833
 20
239.3390516493055
 30
0.0
 10
65.46680501302083
 20
238.3625393337673
 30
0.0
 10
66.66707628038193
 20
238.3625393337673
 30
0.0
 10
66.66707628038193
 20
238.3625393337673
 30
0.0
 10
72.20472276475693
 20
238.2452338324651
 30
0.0
 10
72.20472276475693
 20
238.2452338324651
 30
0.0
 10
72.20472276475693
 20
238.2452338324651
 30
0.0
 10
77.42214762369791
 20
238.3625393337673
 30
0.0
 10
77.42214762369791
 20
238.3625393337673
 30
0.0
 10
78.62241889105901
 20
238.3625393337673
 30
0.0
 10
79.59893120659723
 20
239.3390516493055
 30
0.0
 10
79.59893120659723
 20
240.5393229166666
 30
0.0
 10
79.59893120659723
 20
241.8270996093749
 30
0.0
 10
78.47462429470486
 20
242.6105143229166
 30
0.0
 10
77.36392550998262
 20
242.7188625759548
 30
0.0
 10
75.09205729166666
 20
242.9412434895831
 30
0.0
 10
74.45764295789929
 20
244.4551907009548
 30
0.0
 10
74.28159857855901
 20
245.3378241644964
 30
0.0
 10
74.22010362413193
 20
245.6465047200521
 30
0.0
 10
74.19547119140623
 20
245.8912787543401
 30
0.0
 10
74.19547119140623
 20
246.0860989040798
 30
0.0
 10
74.19547119140623
 20
246.1937581380208
 30
0.0
 10
74.2099405924479
 20
246.2702392578124
 30
0.0
 10
74.22285970052083
 20
246.3496487087673
 30
0.0
 10
74.2225151909722
 20
246.34895968967
 30
0.0
 10
74.215625
 20
246.3374186197916
 30
0.0
 10
74.215625
 20
246.3374186197916
 30
0.0
 10
74.215625
 20
247.537862141927
 30
0.0
 10
73.23911268446178
 20
248.5145467122396
 30
0.0
 10
72.03884141710068
 20
248.5145467122396
 30
0.0
 10
70.84132622612847
 20
248.5145467122396
 30
0.0
 10
69.86722547743053
 20
247.5419962565104
 30
0.0
 10
69.86291910807292
 20
246.3451700846353
 30
0.0
  0
CIRCLE
  5
192
330
A
100
AcDbEntity
  8
0
 62
     7
100
AcDbCircle
 10
72.06984699999998
 20
239.835318
 30
0.0
 40
0.276469
  0
LINE
  5
191
330
A
100
AcDbEntity
  8
0
  6
AI9-LType5
 62
     7
100
AcDbLine
 10
67.316305
 20
53.00348299999999
 30
0.0
 11
67.316305
 21
99.27008200000001
 31
0.0
  0
SPLINE
  5
190
330
A
100
AcDbEntity
  8
0
 62
     7
100
AcDbSpline
210
0.0
220
0.0
230
1.0
 70
    11
 71
     3
 72
    35
 73
    31
 74
     0
 42
0.0000000001
 43
0.0000000001
 40
0.0
 40
0.0
 40
0.0
 40
0.0
 40
1.0
 40
1.0
 40
1.0
 40
2.0
 40
2.0
 40
2.0
 40
3.0
 40
3.0
 40
3.0
 40
4.0
 40
4.0
 40
4.0
 40
5.0
 40
5.0
 40
5.0
 40
6.0
 40
6.0
 40
6.0
 40
7.0
 40
7.0
 40
7.0
 40
8.0
 40
8.0
 40
8.0
 40
9.0
 40
9.0
 40
9.0
 40
10.0
 40
10.0
 40
10.0
 40
10.0
 10
72.71408013237847
 20
77.7781982421875
 30
0.0
 10
69.7916056315104
 20
78.0641411675347
 30
0.0
 10
70.10752088758678
 20
80.79954698350695
 30
0.0
 10
70.10752088758678
 20
80.79954698350695
 30
0.0
 10
70.10752088758678
 20
82.33330349392362
 30
0.0
 10
68.86453043619791
 20
83.5766384548611
 30
0.0
 10
67.33077392578124
 20
83.5766384548611
 30
0.0
 10
65.79718967013888
 20
83.5766384548611
 30
0.0
 10
64.55402696397569
 20
82.33330349392362
 30
0.0
 10
64.55402696397569
 20
80.79954698350695
 30
0.0
 10
64.55402696397569
 20
80.79954698350695
 30
0.0
 10
64.83807508680553
 20
78.00867513020834
 30
0.0
 10
61.9590087890625
 20
77.7781982421875
 30
0.0
 10
60.43024766710068
 20
77.65624186197915
 30
0.0
 10
59.18208957248263
 20
76.53520779079861
 30
0.0
 10
59.18208957248263
 20
75.00145128038194
 30
0.0
 10
59.18208957248263
 20
73.46769476996526
 30
0.0
 10
60.42525227864583
 20
72.22470431857637
 30
0.0
 10
61.9590087890625
 20
72.22470431857637
 30
0.0
 10
61.9590087890625
 20
72.22470431857637
 30
0.0
 10
67.4966552734375
 20
72.1072265625
 30
0.0
 10
67.4966552734375
 20
72.1072265625
 30
0.0
 10
67.4966552734375
 20
72.1072265625
 30
0.0
 10
72.71408013237847
 20
72.22470431857637
 30
0.0
 10
72.71408013237847
 20
72.22470431857637
 30
0.0
 10
74.24766438802079
 20
72.22470431857637
 30
0.0
 10
75.4906548394097
 20
73.46769476996526
 30
0.0
 10
75.4906548394097
 20
75.00145128038194
 30
0.0
 10
75.4906548394097
 20
76.53520779079861
 30
0.0
 10
74.24008517795137
 20
77.62937011718747
 30
0.0
 10
72.71408013237847
 20
77.7781982421875
 30
0.0
  0
LINE
  5
18F
330
A
100
AcDbEntity
  8
0
 62
     7
100
AcDbLine
 10
35.826754
 20
221.1768529999999
 30
0.0
 11
51.758942
 21
221.1768529999999
 31
0.0
  0
LINE
  5
18E
330
A
100
AcDbEntity
  8
0
 62
     7
100
AcDbLine
 10
63.89015699999998
 20
260.826629
 30
0.0
 11
80.20285600000002
 21
260.826629
 31
0.0
  0
LINE
  5
18D
330
A
100
AcDbEntity
  8
0
 62
     7
100
AcDbLine
 10
63.89015699999998
 20
253.0944569999999
 30
0.0
 11
63.89015699999998
 21
260.826629
 31
0.0
  0
LINE
  5
18C
330
A
100
AcDbEntity
  8
0
 62
     7
100
AcDbLine
 10
80.19889499999997
 20
253.0944569999999
 30
0.0
 11
80.19889499999997
 21
260.826629
 31
0.0
  0
LINE
  5
18B
330
A
100
AcDbEntity
  8
0
 62
     7
100
AcDbLine
 10
35.826754
 20
140.587801
 30
0.0
 11
48.391534
 21
140.587801
 31
0.0
  0
LINE
  5
18A
330
A
100
AcDbEntity
  8
0
 62
     7
100
AcDbLine
 10
44.980028
 20
151.1125679999999
 30
0.0
 11
52.371308
 21
151.1125679999999
 31
0.0
  0
LINE
  5
189
330
A
100
AcDbEntity
  8
0
 62
     7
100
AcDbLine
 10
44.05260799999999
 20
200.07616
 30
0.0
 11
51.443888
 21
200.07616
 31
0.0
  0
LINE
  5
188
330
A
100
AcDbEntity
  8
0
 62
     7
100
AcDbLine
 10
44.05260799999999
 20
180.07962
 30
0.0
 11
51.443888
 21
180.07962
 31
0.0
  0
LINE
  5
187
330
A
100
AcDbEntity
  8
0
 62
     7
100
AcDbLine
 10
44.05260799999999
 20
190.078148
 30
0.0
 11
51.443888
 21
190.078148
 31
0.0
  0
LINE
  5
186
330
A
100
AcDbEntity
  8
0
 62
     7
100
AcDbLine
 10
44.07172899999999
 20
210.075549
 30
0.0
 11
51.46300899999999
 21
210.075549
 31
0.0
  0
LINE
  5
185
330
A
100
AcDbEntity
  8
0
 62
     7
100
AcDbLine
 10
45.09406099999998
 20
151.027818
 30
0.0
 11
45.09406099999998
 21
140.587801
 31
0.0
  0
LINE
  5
184
330
A
100
AcDbEntity
  8
0
 62
     7
100
AcDbLine
 10
35.826754
 20
140.421403
 30
0.0
 11
35.826754
 21
221.086764
 31
0.0
  0
HATCH
  5
183
330
A
100
AcDbEntity
  8
0
 62
     7
100
AcDbHatch
 10
0.0
 20
0.0
 30
0.0
210
0.0
220
0.0
230
1.0
  2
SOLID
 70
     1
 71
     0
 91
        1
 92
        1
 93
        1
 72
     4
 94
        3
 73
     0
 74
     0
 95
       17
 96
       13
 40
0.0
 40
0.0
 40
0.0
 40
0.0
 40
1.0
 40
1.0
 40
1.0
 40
2.0
 40
2.0
 40
2.0
 40
3.0
 40
3.0
 40
3.0
 40
4.0
 40
4.0
 40
4.0
 40
4.0
 10
36.05516357421874
 20
140.577810329861
 10
36.05516357421874
 20
140.4730794270832
 10
35.97041422526039
 20
140.3883300781249
 10
35.86568332248264
 20
140.3883300781249
 10
35.76095241970485
 20
140.3883300781249
 10
35.67620307074652
 20
140.4730794270832
 10
35.67620307074652
 20
140.577810329861
 10
35.67620307074652
 20
140.6825412326388
 10
35.76095241970485
 20
140.7672905815972
 10
35.86568332248264
 20
140.7672905815972
 10
35.97041422526039
 20
140.7672905815972
 10
36.05516357421874
 20
140.6825412326388
 10
36.05516357421874
 20
140.577810329861
 97
        0
 75
     0
 76
     1
 98
        1
 10
0.0
 20
0.0
  0
HATCH
  5
182
330
A
100
AcDbEntity
  8
0
 62
     7
100
AcDbHatch
 10
0.0
 20
0.0
 30
0.0
210
0.0
220
0.0
230
1.0
  2
SOLID
 70
     1
 71
     0
 91
        1
 92
        1
 93
        1
 72
     4
 94
        3
 73
     0
 74
     0
 95
       17
 96
       13
 40
0.0
 40
0.0
 40
0.0
 40
0.0
 40
1.0
 40
1.0
 40
1.0
 40
2.0
 40
2.0
 40
2.0
 40
3.0
 40
3.0
 40
3.0
 40
4.0
 40
4.0
 40
4.0
 40
4.0
 10
45.35761040581597
 20
140.577810329861
 10
45.35761040581597
 20
140.4730794270832
 10
45.27286105685764
 20
140.3883300781249
 10
45.16813015407985
 20
140.3883300781249
 10
45.06339925130208
 20
140.3883300781249
 10
44.97864990234375
 20
140.4730794270832
 10
44.97864990234375
 20
140.577810329861
 10
44.97864990234375
 20
140.6825412326388
 10
45.06339925130208
 20
140.7672905815972
 10
45.16813015407985
 20
140.7672905815972
 10
45.27286105685764
 20
140.7672905815972
 10
45.35761040581597
 20
140.6825412326388
 10
45.35761040581597
 20
140.577810329861
 97
        0
 75
     0
 76
     1
 98
        1
 10
0.0
 20
0.0
  0
HATCH
  5
181
330
A
100
AcDbEntity
  8
0
 62
     7
100
AcDbHatch
 10
0.0
 20
0.0
 30
0.0
210
0.0
220
0.0
230
1.0
  2
SOLID
 70
     1
 71
     0
 91
        1
 92
        1
 93
        1
 72
     4
 94
        3
 73
     0
 74
     0
 95
       17
 96
       13
 40
0.0
 40
0.0
 40
0.0
 40
0.0
 40
1.0
 40
1.0
 40
1.0
 40
2.0
 40
2.0
 40
2.0
 40
3.0
 40
3.0
 40
3.0
 40
4.0
 40
4.0
 40
4.0
 40
4.0
 10
45.35761040581597
 20
151.0500393337673
 10
45.35761040581597
 20
150.9453084309894
 10
45.27286105685764
 20
150.8605590820311
 10
45.16813015407985
 20
150.8605590820311
 10
45.06339925130208
 20
150.8605590820311
 10
44.97864990234375
 20
150.9453084309894
 10
44.97864990234375
 20
151.0500393337673
 10
44.97864990234375
 20
151.154770236545
 10
45.06339925130208
 20
151.2395195855034
 10
45.16813015407985
 20
151.2395195855034
 10
45.27286105685764
 20
151.2395195855034
 10
45.35761040581597
 20
151.154770236545
 10
45.35761040581597
 20
151.0500393337673
 97
        0
 75
     0
 76
     1
 98
        1
 10
0.0
 20
0.0
  0
HATCH
  5
180
330
A
100
AcDbEntity
  8
0
 62
     7
100
AcDbHatch
 10
0.0
 20
0.0
 30
0.0
210
0.0
220
0.0
230
1.0
  2
SOLID
 70
     1
 71
     0
 91
        1
 92
        1
 93
        1
 72
     4
 94
        3
 73
     0
 74
     0
 95
       17
 96
       13
 40
0.0
 40
0.0
 40
0.0
 40
0.0
 40
1.0
 40
1.0
 40
1.0
 40
2.0
 40
2.0
 40
2.0
 40
3.0
 40
3.0
 40
3.0
 40
4.0
 40
4.0
 40
4.0
 40
4.0
 10
36.05516357421874
 20
221.1498087565103
 10
36.05516357421874
 20
221.0450778537325
 10
35.97041422526039
 20
220.9603285047741
 10
35.86568332248264
 20
220.9603285047741
 10
35.76095241970485
 20
220.9603285047741
 10
35.67620307074652
 20
221.0450778537325
 10
35.67620307074652
 20
221.1498087565103
 10
35.67620307074652
 20
221.2545396592881
 10
35.76095241970485
 20
221.3392890082464
 10
35.86568332248264
 20
221.3392890082464
 10
35.97041422526039
 20
221.3392890082464
 10
36.05516357421874
 20
221.2545396592881
 10
36.05516357421874
 20
221.1498087565103
 97
        0
 75
     0
 76
     1
 98
        1
 10
0.0
 20
0.0
  0
HATCH
  5
17F
330
A
100
AcDbEntity
  8
0
 62
     7
100
AcDbHatch
 10
0.0
 20
0.0
 30
0.0
210
0.0
220
0.0
230
1.0
  2
SOLID
 70
     1
 71
     0
 91
        1
 92
        1
 93
        1
 72
     4
 94
        3
 73
     0
 74
     0
 95
       17
 96
       13
 40
0.0
 40
0.0
 40
0.0
 40
0.0
 40
1.0
 40
1.0
 40
1.0
 40
2.0
 40
2.0
 40
2.0
 40
3.0
 40
3.0
 40
3.0
 40
4.0
 40
4.0
 40
4.0
 40
4.0
 10
44.22348497178819
 20
221.1498087565103
 10
44.22348497178819
 20
221.0450778537325
 10
44.13873562282985
 20
220.9603285047741
 10
44.03400472005208
 20
220.9603285047741
 10
43.92927381727428
 20
220.9603285047741
 10
43.84452446831597
 20
221.0450778537325
 10
43.84452446831597
 20
221.1498087565103
 10
43.84452446831597
 20
221.2545396592881
 10
43.92927381727428
 20
221.3392890082464
 10
44.03400472005208
 20
221.3392890082464
 10
44.13873562282985
 20
221.3392890082464
 10
44.22348497178819
 20
221.2545396592881
 10
44.22348497178819
 20
221.1498087565103
 97
        0
 75
     0
 76
     1
 98
        1
 10
0.0
 20
0.0
  0
HATCH
  5
17E
330
A
100
AcDbEntity
  8
0
 62
     7
100
AcDbHatch
 10
0.0
 20
0.0
 30
0.0
210
0.0
220
0.0
230
1.0
  2
SOLID
 70
     1
 71
     0
 91
        1
 92
        1
 93
        1
 72
     4
 94
        3
 73
     0
 74
     0
 95
       17
 96
       13
 40
0.0
 40
0.0
 40
0.0
 40
0.0
 40
1.0
 40
1.0
 40
1.0
 40
2.0
 40
2.0
 40
2.0
 40
3.0
 40
3.0
 40
3.0
 40
4.0
 40
4.0
 40
4.0
 40
4.0
 10
44.22348497178819
 20
210.0237006293401
 10
44.22348497178819
 20
209.9189697265624
 10
44.13873562282985
 20
209.8342203776041
 10
44.03400472005208
 20
209.8342203776041
 10
43.92927381727428
 20
209.8342203776041
 10
43.84452446831597
 20
209.9189697265624
 10
43.84452446831597
 20
210.0237006293401
 10
43.84452446831597
 20
210.1284315321179
 10
43.92927381727428
 20
210.2131808810764
 10
44.03400472005208
 20
210.2131808810764
 10
44.13873562282985
 20
210.2131808810764
 10
44.22348497178819
 20
210.1284315321179
 10
44.22348497178819
 20
210.0237006293401
 97
        0
 75
     0
 76
     1
 98
        1
 10
0.0
 20
0.0
  0
HATCH
  5
17D
330
A
100
AcDbEntity
  8
0
 62
     7
100
AcDbHatch
 10
0.0
 20
0.0
 30
0.0
210
0.0
220
0.0
230
1.0
  2
SOLID
 70
     1
 71
     0
 91
        1
 92
        1
 93
        1
 72
     4
 94
        3
 73
     0
 74
     0
 95
       17
 96
       13
 40
0.0
 40
0.0
 40
0.0
 40
0.0
 40
1.0
 40
1.0
 40
1.0
 40
2.0
 40
2.0
 40
2.0
 40
3.0
 40
3.0
 40
3.0
 40
4.0
 40
4.0
 40
4.0
 40
4.0
 10
44.22348497178819
 20
200.118706597222
 10
44.22348497178819
 20
200.0139756944443
 10
44.13873562282985
 20
199.9292263454861
 10
44.03400472005208
 20
199.9292263454861
 10
43.92927381727428
 20
199.9292263454861
 10
43.84452446831597
 20
200.0139756944443
 10
43.84452446831597
 20
200.118706597222
 10
43.84452446831597
 20
200.2234375
 10
43.92927381727428
 20
200.3081868489583
 10
44.03400472005208
 20
200.3081868489583
 10
44.13873562282985
 20
200.3081868489583
 10
44.22348497178819
 20
200.2234375
 10
44.22348497178819
 20
200.118706597222
 97
        0
 75
     0
 76
     1
 98
        1
 10
0.0
 20
0.0
  0
HATCH
  5
17C
330
A
100
AcDbEntity
  8
0
 62
     7
100
AcDbHatch
 10
0.0
 20
0.0
 30
0.0
210
0.0
220
0.0
230
1.0
  2
SOLID
 70
     1
 71
     0
 91
        1
 92
        1
 93
        1
 72
     4
 94
        3
 73
     0
 74
     0
 95
       17
 96
       13
 40
0.0
 40
0.0
 40
0.0
 40
0.0
 40
1.0
 40
1.0
 40
1.0
 40
2.0
 40
2.0
 40
2.0
 40
3.0
 40
3.0
 40
3.0
 40
4.0
 40
4.0
 40
4.0
 40
4.0
 10
44.22348497178819
 20
190.1322360568576
 10
44.22348497178819
 20
190.0275051540798
 10
44.13873562282985
 20
189.9427558051215
 10
44.03400472005208
 20
189.9427558051215
 10
43.92927381727428
 20
189.9427558051215
 10
43.84452446831597
 20
190.0275051540798
 10
43.84452446831597
 20
190.1322360568576
 10
43.84452446831597
 20
190.2369669596353
 10
43.92927381727428
 20
190.3217163085935
 10
44.03400472005208
 20
190.3217163085935
 10
44.13873562282985
 20
190.3217163085935
 10
44.22348497178819
 20
190.2369669596353
 10
44.22348497178819
 20
190.1322360568576
 97
        0
 75
     0
 76
     1
 98
        1
 10
0.0
 20
0.0
  0
HATCH
  5
17B
330
A
100
AcDbEntity
  8
0
 62
     7
100
AcDbHatch
 10
0.0
 20
0.0
 30
0.0
210
0.0
220
0.0
230
1.0
  2
SOLID
 70
     1
 71
     0
 91
        1
 92
        1
 93
        1
 72
     4
 94
        3
 73
     0
 74
     0
 95
       17
 96
       13
 40
0.0
 40
0.0
 40
0.0
 40
0.0
 40
1.0
 40
1.0
 40
1.0
 40
2.0
 40
2.0
 40
2.0
 40
3.0
 40
3.0
 40
3.0
 40
4.0
 40
4.0
 40
4.0
 40
4.0
 10
44.22348497178819
 20
180.1185492621526
 10
44.22348497178819
 20
180.013818359375
 10
44.13873562282985
 20
179.9290690104166
 10
44.03400472005208
 20
179.9290690104166
 10
43.92927381727428
 20
179.9290690104166
 10
43.84452446831597
 20
180.013818359375
 10
43.84452446831597
 20
180.1185492621526
 10
43.84452446831597
 20
180.2232801649305
 10
43.92927381727428
 20
180.3080295138888
 10
44.03400472005208
 20
180.3080295138888
 10
44.13873562282985
 20
180.3080295138888
 10
44.22348497178819
 20
180.2232801649305
 10
44.22348497178819
 20
180.1185492621526
 97
        0
 75
     0
 76
     1
 98
        1
 10
0.0
 20
0.0
  0
HATCH
  5
17A
330
A
100
AcDbEntity
  8
0
 62
     7
100
AcDbHatch
 10
0.0
 20
0.0
 30
0.0
210
0.0
220
0.0
230
1.0
  2
SOLID
 70
     1
 71
     0
 91
        1
 92
        1
 93
        1
 72
     4
 94
        3
 73
     0
 74
     0
 95
       17
 96
       13
 40
0.0
 40
0.0
 40
0.0
 40
0.0
 40
1.0
 40
1.0
 40
1.0
 40
2.0
 40
2.0
 40
2.0
 40
3.0
 40
3.0
 40
3.0
 40
4.0
 40
4.0
 40
4.0
 40
4.0
 10
179.9790228949651
 20
118.0723795572915
 10
180.083753797743
 20
118.0723795572915
 10
180.1685031467014
 20
117.9876302083332
 10
180.1685031467014
 20
117.8828993055555
 10
180.1685031467014
 20
117.7781684027777
 10
180.083753797743
 20
117.6934190538194
 10
179.9790228949651
 20
117.6934190538194
 10
179.8742919921874
 20
117.6934190538194
 10
179.7895426432291
 20
117.7781684027777
 10
179.7895426432291
 20
117.8828993055555
 10
179.7895426432291
 20
117.9876302083332
 10
179.8742919921874
 20
118.0723795572915
 10
179.9790228949651
 20
118.0723795572915
 97
        0
 75
     0
 76
     1
 98
        1
 10
0.0
 20
0.0
  0
HATCH
  5
179
330
A
100
AcDbEntity
  8
0
 62
     7
100
AcDbHatch
 10
0.0
 20
0.0
 30
0.0
210
0.0
220
0.0
230
1.0
  2
SOLID
 70
     1
 71
     0
 91
        1
 92
        1
 93
        1
 72
     4
 94
        3
 73
     0
 74
     0
 95
       17
 96
       13
 40
0.0
 40
0.0
 40
0.0
 40
0.0
 40
1.0
 40
1.0
 40
1.0
 40
2.0
 40
2.0
 40
2.0
 40
3.0
 40
3.0
 40
3.0
 40
4.0
 40
4.0
 40
4.0
 40
4.0
 10
180.0586046006944
 20
122.031827799479
 10
180.163335503472
 20
122.031827799479
 10
180.2480848524305
 20
121.9470784505208
 10
180.2480848524305
 20
121.842347547743
 10
180.2480848524305
 20
121.7376166449652
 10
180.163335503472
 20
121.6528672960069
 10
180.0586046006944
 20
121.6528672960069
 10
179.9538736979165
 20
121.6528672960069
 10
179.8691243489583
 20
121.7376166449652
 10
179.8691243489583
 20
121.842347547743
 10
179.8691243489583
 20
121.9470784505208
 10
179.9538736979165
 20
122.031827799479
 10
180.0586046006944
 20
122.031827799479
 97
        0
 75
     0
 76
     1
 98
        1
 10
0.0
 20
0.0
  0
HATCH
  5
178
330
A
100
AcDbEntity
  8
0
 62
     7
100
AcDbHatch
 10
0.0
 20
0.0
 30
0.0
210
0.0
220
0.0
230
1.0
  2
SOLID
 70
     1
 71
     0
 91
        1
 92
        1
 93
        1
 72
     4
 94
        3
 73
     0
 74
     0
 95
       17
 96
       13
 40
0.0
 40
0.0
 40
0.0
 40
0.0
 40
1.0
 40
1.0
 40
1.0
 40
2.0
 40
2.0
 40
2.0
 40
3.0
 40
3.0
 40
3.0
 40
4.0
 40
4.0
 40
4.0
 40
4.0
 10
169.4012017144096
 20
129.4828803168402
 10
169.5059326171874
 20
129.4828803168402
 10
169.5906819661458
 20
129.3981309678819
 10
169.5906819661458
 20
129.2934000651041
 10
169.5906819661458
 20
129.1886691623263
 10
169.5059326171874
 20
129.103919813368
 10
169.4012017144096
 20
129.103919813368
 10
169.2964708116319
 20
129.103919813368
 10
169.2117214626734
 20
129.1886691623263
 10
169.2117214626734
 20
129.2934000651041
 10
169.2117214626734
 20
129.3981309678819
 10
169.2964708116319
 20
129.4828803168402
 10
169.4012017144096
 20
129.4828803168402
 97
        0
 75
     0
 76
     1
 98
        1
 10
0.0
 20
0.0
  0
HATCH
  5
177
330
A
100
AcDbEntity
  8
0
 62
     7
100
AcDbHatch
 10
0.0
 20
0.0
 30
0.0
210
0.0
220
0.0
230
1.0
  2
SOLID
 70
     1
 71
     0
 91
        1
 92
        1
 93
        1
 72
     4
 94
        3
 73
     0
 74
     0
 95
       17
 96
       13
 40
0.0
 40
0.0
 40
0.0
 40
0.0
 40
1.0
 40
1.0
 40
1.0
 40
2.0
 40
2.0
 40
2.0
 40
3.0
 40
3.0
 40
3.0
 40
4.0
 40
4.0
 40
4.0
 40
4.0
 10
136.0371744791665
 20
129.4828803168402
 10
136.1419053819444
 20
129.4828803168402
 10
136.2266547309027
 20
129.3981309678819
 10
136.2266547309027
 20
129.2934000651041
 10
136.2266547309027
 20
129.1886691623263
 10
136.1419053819444
 20
129.103919813368
 10
136.0371744791665
 20
129.103919813368
 10
135.9324435763888
 20
129.103919813368
 10
135.8476942274305
 20
129.1886691623263
 10
135.8476942274305
 20
129.2934000651041
 10
135.8476942274305
 20
129.3981309678819
 10
135.9324435763888
 20
129.4828803168402
 10
136.0371744791665
 20
129.4828803168402
 97
        0
 75
     0
 76
     1
 98
        1
 10
0.0
 20
0.0
  0
HATCH
  5
176
330
A
100
AcDbEntity
  8
0
 62
     7
100
AcDbHatch
 10
0.0
 20
0.0
 30
0.0
210
0.0
220
0.0
230
1.0
  2
SOLID
 70
     1
 71
     0
 91
        1
 92
        1
 93
        1
 72
     4
 94
        3
 73
     0
 74
     0
 95
       17
 96
       13
 40
0.0
 40
0.0
 40
0.0
 40
0.0
 40
1.0
 40
1.0
 40
1.0
 40
2.0
 40
2.0
 40
2.0
 40
3.0
 40
3.0
 40
3.0
 40
4.0
 40
4.0
 40
4.0
 40
4.0
 10
130.9560031467013
 20
119.0759358723957
 10
131.060734049479
 20
119.0759358723957
 10
131.1454833984373
 20
118.9911865234374
 10
131.1454833984373
 20
118.8864556206596
 10
131.1454833984373
 20
118.7817247178819
 10
131.060734049479
 20
118.6969753689234
 10
130.9560031467013
 20
118.6969753689234
 10
130.8512722439234
 20
118.6969753689234
 10
130.7665228949652
 20
118.7817247178819
 10
130.7665228949652
 20
118.8864556206596
 10
130.7665228949652
 20
118.9911865234374
 10
130.8512722439234
 20
119.0759358723957
 10
130.9560031467013
 20
119.0759358723957
 97
        0
 75
     0
 76
     1
 98
        1
 10
0.0
 20
0.0
  0
HATCH
  5
175
330
A
100
AcDbEntity
  8
0
 62
     7
100
AcDbHatch
 10
0.0
 20
0.0
 30
0.0
210
0.0
220
0.0
230
1.0
  2
SOLID
 70
     1
 71
     0
 91
        1
 92
        1
 93
        1
 72
     4
 94
        3
 73
     0
 74
     0
 95
       17
 96
       13
 40
0.0
 40
0.0
 40
0.0
 40
0.0
 40
1.0
 40
1.0
 40
1.0
 40
2.0
 40
2.0
 40
2.0
 40
3.0
 40
3.0
 40
3.0
 40
4.0
 40
4.0
 40
4.0
 40
4.0
 10
130.9560031467013
 20
121.077880859375
 10
131.060734049479
 20
121.077880859375
 10
131.1454833984373
 20
120.9931315104165
 10
131.1454833984373
 20
120.8884006076388
 10
131.1454833984373
 20
120.783669704861
 10
131.060734049479
 20
120.6989203559027
 10
130.9560031467013
 20
120.6989203559027
 10
130.8512722439234
 20
120.6989203559027
 10
130.7665228949652
 20
120.783669704861
 10
130.7665228949652
 20
120.8884006076388
 10
130.7665228949652
 20
120.9931315104165
 10
130.8512722439234
 20
121.077880859375
 10
130.9560031467013
 20
121.077880859375
 97
        0
 75
     0
 76
     1
 98
        1
 10
0.0
 20
0.0
  0
HATCH
  5
174
330
A
100
AcDbEntity
  8
0
 62
     7
100
AcDbHatch
 10
0.0
 20
0.0
 30
0.0
210
0.0
220
0.0
230
1.0
  2
SOLID
 70
     1
 71
     0
 91
        1
 92
        1
 93
        1
 72
     4
 94
        3
 73
     0
 74
     0
 95
       17
 96
       13
 40
0.0
 40
0.0
 40
0.0
 40
0.0
 40
1.0
 40
1.0
 40
1.0
 40
2.0
 40
2.0
 40
2.0
 40
3.0
 40
3.0
 40
3.0
 40
4.0
 40
4.0
 40
4.0
 40
4.0
 10
167.7758056640624
 20
126.212451171875
 10
167.8805365668401
 20
126.212451171875
 10
167.9652859157984
 20
126.1277018229166
 10
167.9652859157984
 20
126.0229709201388
 10
167.9652859157984
 20
125.9182400173609
 10
167.8805365668401
 20
125.8334906684027
 10
167.7758056640624
 20
125.8334906684027
 10
167.6710747612847
 20
125.8334906684027
 10
167.5863254123263
 20
125.9182400173609
 10
167.5863254123263
 20
126.0229709201388
 10
167.5863254123263
 20
126.1277018229166
 10
167.6710747612847
 20
126.212451171875
 10
167.7758056640624
 20
126.212451171875
 97
        0
 75
     0
 76
     1
 98
        1
 10
0.0
 20
0.0
  0
HATCH
  5
173
330
A
100
AcDbEntity
  8
0
 62
     7
100
AcDbHatch
 10
0.0
 20
0.0
 30
0.0
210
0.0
220
0.0
230
1.0
  2
SOLID
 70
     1
 71
     0
 91
        1
 92
        1
 93
        1
 72
     4
 94
        3
 73
     0
 74
     0
 95
       17
 96
       13
 40
0.0
 40
0.0
 40
0.0
 40
0.0
 40
1.0
 40
1.0
 40
1.0
 40
2.0
 40
2.0
 40
2.0
 40
3.0
 40
3.0
 40
3.0
 40
4.0
 40
4.0
 40
4.0
 40
4.0
 10
169.3670952690972
 20
126.212451171875
 10
169.4718261718749
 20
126.212451171875
 10
169.5565755208333
 20
126.1277018229166
 10
169.5565755208333
 20
126.0229709201388
 10
169.5565755208333
 20
125.9182400173609
 10
169.4718261718749
 20
125.8334906684027
 10
169.3670952690972
 20
125.8334906684027
 10
169.2623643663194
 20
125.8334906684027
 10
169.1776150173611
 20
125.9182400173609
 10
169.1776150173611
 20
126.0229709201388
 10
169.1776150173611
 20
126.1277018229166
 10
169.2623643663194
 20
126.212451171875
 10
169.3670952690972
 20
126.212451171875
 97
        0
 75
     0
 76
     1
 98
        1
 10
0.0
 20
0.0
  0
HATCH
  5
172
330
A
100
AcDbEntity
  8
0
 62
     7
100
AcDbHatch
 10
0.0
 20
0.0
 30
0.0
210
0.0
220
0.0
230
1.0
  2
SOLID
 70
     1
 71
     0
 91
        1
 92
        1
 93
        1
 72
     4
 94
        3
 73
     0
 74
     0
 95
       17
 96
       13
 40
0.0
 40
0.0
 40
0.0
 40
0.0
 40
1.0
 40
1.0
 40
1.0
 40
2.0
 40
2.0
 40
2.0
 40
3.0
 40
3.0
 40
3.0
 40
4.0
 40
4.0
 40
4.0
 40
4.0
 10
64.07584771050347
 20
260.8328301323783
 10
64.07584771050347
 20
260.7280992296006
 10
63.99109836154514
 20
260.6433498806422
 10
63.88636745876734
 20
260.6433498806422
 10
63.78163655598958
 20
260.6433498806422
 10
63.69688720703125
 20
260.7280992296006
 10
63.69688720703125
 20
260.8328301323783
 10
63.69688720703125
 20
260.9375610351562
 10
63.78163655598958
 20
261.0223103841145
 10
63.88636745876734
 20
261.0223103841145
 10
63.99109836154514
 20
261.0223103841145
 10
64.07584771050347
 20
260.9375610351562
 10
64.07584771050347
 20
260.8328301323783
 97
        0
 75
     0
 76
     1
 98
        1
 10
0.0
 20
0.0
  0
HATCH
  5
171
330
A
100
AcDbEntity
  8
0
 62
     7
100
AcDbHatch
 10
0.0
 20
0.0
 30
0.0
210
0.0
220
0.0
230
1.0
  2
SOLID
 70
     1
 71
     0
 91
        1
 92
        1
 93
        1
 72
     4
 94
        3
 73
     0
 74
     0
 95
       17
 96
       13
 40
0.0
 40
0.0
 40
0.0
 40
0.0
 40
1.0
 40
1.0
 40
1.0
 40
2.0
 40
2.0
 40
2.0
 40
3.0
 40
3.0
 40
3.0
 40
4.0
 40
4.0
 40
4.0
 40
4.0
 10
80.3978488498264
 20
260.8328301323783
 10
80.3978488498264
 20
260.7280992296006
 10
80.31309950086805
 20
260.6433498806422
 10
80.20836859809026
 20
260.6433498806422
 10
80.10363769531249
 20
260.6433498806422
 10
80.01888834635416
 20
260.7280992296006
 10
80.01888834635416
 20
260.8328301323783
 10
80.01888834635416
 20
260.9375610351562
 10
80.10363769531249
 20
261.0223103841145
 10
80.20836859809026
 20
261.0223103841145
 10
80.31309950086805
 20
261.0223103841145
 10
80.3978488498264
 20
260.9375610351562
 10
80.3978488498264
 20
260.8328301323783
 97
        0
 75
     0
 76
     1
 98
        1
 10
0.0
 20
0.0
  0
MTEXT
  5
170
330
A
100
AcDbEntity
  8
0
 62
     7
100
AcDbMText
 10
32.360971
 20
178.4666259999999
 30
0.0
 40
2.624835
 41
0.0
 71
     1
 72
     2
  1
\W0.90;\fMSGothic|b0|i0|c128;400±10
  7
KANJISTD
 11
0.0
 21
1.0
 31
0.0
 73
     1
 44
1.0
  0
MTEXT
  5
16F
330
A
100
AcDbEntity
  8
0
 62
     7
100
AcDbMText
 10
67.72162
 20
264.6708549999999
 30
0.0
 40
2.624835
 41
0.0
 71
     1
 72
     2
  1
\W0.90;\fMSGothic|b0|i0|c128;76±2
  7
KANJISTD
 73
     1
 44
1.0
  0
LINE
  5
16E
330
A
100
AcDbEntity
  8
0
 62
     7
100
AcDbLine
 10
91.27935499999999
 20
87.79619100000003
 30
0.0
 11
99.011528
 21
87.79619100000003
 31
0.0
  0
LINE
  5
16D
330
A
100
AcDbEntity
  8
0
 62
     7
100
AcDbLine
 10
91.27935499999999
 20
65.51538100000001
 30
0.0
 11
99.011528
 21
65.51538100000001
 31
0.0
  0
LINE
  5
16C
330
A
100
AcDbEntity
  8
0
 62
     7
100
AcDbLine
 10
99.011528
 20
87.79619100000003
 30
0.0
 11
99.011528
 21
65.515036
 31
0.0
  0
LINE
  5
16B
330
A
100
AcDbEntity
  8
0
 62
     7
100
AcDbLine
 10
35.865683
 20
56.621178
 30
0.0
 11
35.865683
 21
96.80304900000001
 31
0.0
  0
LINE
  5
16A
330
A
100
AcDbEntity
  8
0
 62
     7
100
AcDbLine
 10
43.597856
 20
56.62083299999999
 30
0.0
 11
35.865683
 21
56.62083299999999
 31
0.0
  0
LINE
  5
169
330
A
100
AcDbEntity
  8
0
 62
     7
100
AcDbLine
 10
43.597856
 20
96.80304900000001
 30
0.0
 11
35.865683
 21
96.80304900000001
 31
0.0
  0
HATCH
  5
168
330
A
100
AcDbEntity
  8
0
 62
     7
100
AcDbHatch
 10
0.0
 20
0.0
 30
0.0
210
0.0
220
0.0
230
1.0
  2
SOLID
 70
     1
 71
     0
 91
        1
 92
        1
 93
        1
 72
     4
 94
        3
 73
     0
 74
     0
 95
       17
 96
       13
 40
0.0
 40
0.0
 40
0.0
 40
0.0
 40
1.0
 40
1.0
 40
1.0
 40
2.0
 40
2.0
 40
2.0
 40
3.0
 40
3.0
 40
3.0
 40
4.0
 40
4.0
 40
4.0
 40
4.0
 10
35.85948215060763
 20
56.8120361328125
 10
35.9642130533854
 20
56.8120361328125
 10
36.04896240234374
 20
56.72728678385416
 10
36.04896240234374
 20
56.62255588107639
 10
36.04896240234374
 20
56.51782497829859
 10
35.9642130533854
 20
56.43307562934028
 10
35.85948215060763
 20
56.43307562934028
 10
35.75475124782985
 20
56.43307562934028
 10
35.67000189887153
 20
56.51782497829859
 10
35.67000189887153
 20
56.62255588107639
 10
35.67000189887153
 20
56.72728678385416
 10
35.75475124782985
 20
56.8120361328125
 10
35.85948215060763
 20
56.8120361328125
 97
        0
 75
     0
 76
     1
 98
        1
 10
0.0
 20
0.0
  0
HATCH
  5
167
330
A
100
AcDbEntity
  8
0
 62
     7
100
AcDbHatch
 10
0.0
 20
0.0
 30
0.0
210
0.0
220
0.0
230
1.0
  2
SOLID
 70
     1
 71
     0
 91
        1
 92
        1
 93
        1
 72
     4
 94
        3
 73
     0
 74
     0
 95
       17
 96
       13
 40
0.0
 40
0.0
 40
0.0
 40
0.0
 40
1.0
 40
1.0
 40
1.0
 40
2.0
 40
2.0
 40
2.0
 40
3.0
 40
3.0
 40
3.0
 40
4.0
 40
4.0
 40
4.0
 40
4.0
 10
35.85948215060763
 20
97.00596516927085
 10
35.9642130533854
 20
97.00596516927085
 10
36.04896240234374
 20
96.92121582031248
 10
36.04896240234374
 20
96.8164849175347
 10
36.04896240234374
 20
96.71175401475693
 10
35.9642130533854
 20
96.6270046657986
 10
35.85948215060763
 20
96.6270046657986
 10
35.75475124782985
 20
96.6270046657986
 10
35.67000189887153
 20
96.71175401475693
 10
35.67000189887153
 20
96.8164849175347
 10
35.67000189887153
 20
96.92121582031248
 10
35.75475124782985
 20
97.00596516927085
 10
35.85948215060763
 20
97.00596516927085
 97
        0
 75
     0
 76
     1
 98
        1
 10
0.0
 20
0.0
  0
HATCH
  5
166
330
A
100
AcDbEntity
  8
0
 62
     7
100
AcDbHatch
 10
0.0
 20
0.0
 30
0.0
210
0.0
220
0.0
230
1.0
  2
SOLID
 70
     1
 71
     0
 91
        1
 92
        1
 93
        1
 72
     4
 94
        3
 73
     0
 74
     0
 95
       17
 96
       13
 40
0.0
 40
0.0
 40
0.0
 40
0.0
 40
1.0
 40
1.0
 40
1.0
 40
2.0
 40
2.0
 40
2.0
 40
3.0
 40
3.0
 40
3.0
 40
4.0
 40
4.0
 40
4.0
 40
4.0
 10
99.01876220703123
 20
88.05836317274305
 10
99.123493109809
 20
88.05836317274305
 10
99.20824245876737
 20
87.97361382378468
 10
99.20824245876737
 20
87.86888292100694
 10
99.20824245876737
 20
87.76415201822915
 10
99.123493109809
 20
87.67940266927082
 10
99.01876220703123
 20
87.67940266927082
 10
98.91403130425349
 20
87.67940266927082
 10
98.82928195529515
 20
87.76415201822915
 10
98.82928195529515
 20
87.86888292100694
 10
98.82928195529515
 20
87.97361382378468
 10
98.91403130425349
 20
88.05836317274305
 10
99.01876220703123
 20
88.05836317274305
 97
        0
 75
     0
 76
     1
 98
        1
 10
0.0
 20
0.0
  0
HATCH
  5
165
330
A
100
AcDbEntity
  8
0
 62
     7
100
AcDbHatch
 10
0.0
 20
0.0
 30
0.0
210
0.0
220
0.0
230
1.0
  2
SOLID
 70
     1
 71
     0
 91
        1
 92
        1
 93
        1
 72
     4
 94
        3
 73
     0
 74
     0
 95
       17
 96
       13
 40
0.0
 40
0.0
 40
0.0
 40
0.0
 40
1.0
 40
1.0
 40
1.0
 40
2.0
 40
2.0
 40
2.0
 40
3.0
 40
3.0
 40
3.0
 40
4.0
 40
4.0
 40
4.0
 40
4.0
 10
99.01876220703123
 20
65.70692816840278
 10
99.123493109809
 20
65.70692816840278
 10
99.20824245876737
 20
65.62217881944444
 10
99.20824245876737
 20
65.51744791666665
 10
99.20824245876737
 20
65.41271701388888
 10
99.123493109809
 20
65.32796766493056
 10
99.01876220703123
 20
65.32796766493056
 10
98.91403130425349
 20
65.32796766493056
 10
98.82928195529515
 20
65.41271701388888
 10
98.82928195529515
 20
65.51744791666665
 10
98.82928195529515
 20
65.62217881944444
 10
98.91403130425349
 20
65.70692816840278
 10
99.01876220703123
 20
65.70692816840278
 97
        0
 75
     0
 76
     1
 98
        1
 10
0.0
 20
0.0
  0
MTEXT
  5
164
330
A
100
AcDbEntity
  8
0
 62
     7
100
AcDbMText
 10
32.584558
 20
69.89478599999999
 30
0.0
 40
2.624835
 41
0.0
 71
     1
 72
     2
  1
\W0.90;\fMSGothic|b0|i0|c128;Φ-200±5
  7
KANJISTD
 11
0.0
 21
1.0
 31
0.0
 73
     1
 44
1.0
  0
MTEXT
  5
163
330
A
100
AcDbEntity
  8
0
 62
     7
100
AcDbMText
 10
119.8383189999999
 20
69.89478599999999
 30
0.0
 40
2.624835
 41
0.0
 71
     1
 72
     2
  1
\W0.90;\fMSGothic|b0|i0|c128;Φ-200±5
  7
KANJISTD
 11
0.0
 21
1.0
 31
0.0
 73
     1
 44
1.0
  0
LINE
  5
162
330
A
100
AcDbEntity
  8
0
 62
     7
100
AcDbLine
 10
123.7071779999999
 20
56.621178
 30
0.0
 11
123.7071779999999
 21
96.80304900000001
 31
0.0
  0
LINE
  5
161
330
A
100
AcDbEntity
  8
0
 62
     7
100
AcDbLine
 10
131.4393499999999
 20
56.62083299999999
 30
0.0
 11
123.7071779999999
 21
56.62083299999999
 31
0.0
  0
LINE
  5
160
330
A
100
AcDbEntity
  8
0
 62
     7
100
AcDbLine
 10
131.4393499999999
 20
96.80304900000001
 30
0.0
 11
123.7071779999999
 21
96.80304900000001
 31
0.0
  0
HATCH
  5
15F
330
A
100
AcDbEntity
  8
0
 62
     7
100
AcDbHatch
 10
0.0
 20
0.0
 30
0.0
210
0.0
220
0.0
230
1.0
  2
SOLID
 70
     1
 71
     0
 91
        1
 92
        1
 93
        1
 72
     4
 94
        3
 73
     0
 74
     0
 95
       17
 96
       13
 40
0.0
 40
0.0
 40
0.0
 40
0.0
 40
1.0
 40
1.0
 40
1.0
 40
2.0
 40
2.0
 40
2.0
 40
3.0
 40
3.0
 40
3.0
 40
4.0
 40
4.0
 40
4.0
 40
4.0
 10
123.7009765625
 20
56.8120361328125
 10
123.8057074652777
 20
56.8120361328125
 10
123.8904568142359
 20
56.72728678385416
 10
123.8904568142359
 20
56.62255588107639
 10
123.8904568142359
 20
56.51782497829859
 10
123.8057074652777
 20
56.43307562934028
 10
123.7009765625
 20
56.43307562934028
 10
123.5962456597222
 20
56.43307562934028
 10
123.5114963107638
 20
56.51782497829859
 10
123.5114963107638
 20
56.62255588107639
 10
123.5114963107638
 20
56.72728678385416
 10
123.5962456597222
 20
56.8120361328125
 10
123.7009765625
 20
56.8120361328125
 97
        0
 75
     0
 76
     1
 98
        1
 10
0.0
 20
0.0
  0
HATCH
  5
15E
330
A
100
AcDbEntity
  8
0
 62
     7
100
AcDbHatch
 10
0.0
 20
0.0
 30
0.0
210
0.0
220
0.0
230
1.0
  2
SOLID
 70
     1
 71
     0
 91
        1
 92
        1
 93
        1
 72
     4
 94
        3
 73
     0
 74
     0
 95
       17
 96
       13
 40
0.0
 40
0.0
 40
0.0
 40
0.0
 40
1.0
 40
1.0
 40
1.0
 40
2.0
 40
2.0
 40
2.0
 40
3.0
 40
3.0
 40
3.0
 40
4.0
 40
4.0
 40
4.0
 40
4.0
 10
123.7009765625
 20
97.00596516927085
 10
123.8057074652777
 20
97.00596516927085
 10
123.8904568142359
 20
96.92121582031248
 10
123.8904568142359
 20
96.8164849175347
 10
123.8904568142359
 20
96.71175401475693
 10
123.8057074652777
 20
96.6270046657986
 10
123.7009765625
 20
96.6270046657986
 10
123.5962456597222
 20
96.6270046657986
 10
123.5114963107638
 20
96.71175401475693
 10
123.5114963107638
 20
96.8164849175347
 10
123.5114963107638
 20
96.92121582031248
 10
123.5962456597222
 20
97.00596516927085
 10
123.7009765625
 20
97.00596516927085
 97
        0
 75
     0
 76
     1
 98
        1
 10
0.0
 20
0.0
  0
MTEXT
  5
15D
330
A
100
AcDbEntity
  8
0
 62
     7
100
AcDbMText
 10
56.442377
 20
48.58585399999999
 30
0.0
 40
2.624835
 41
0.0
 71
     1
 72
     2
  1
\W0.75;\fMSGothic|b0|i0|c128; ベース平面　1:5
  7
KANJISTD
 73
     1
 44
1.0
  0
MTEXT
  5
15C
330
A
100
AcDbEntity
  8
0
 62
     7
100
AcDbMText
 10
144.300581
 20
48.94655499999998
 30
0.0
 40
2.624835
 41
0.0
 71
     1
 72
     2
  1
\W0.75;\fMSGothic|b0|i0|c128;  ベース底面　1:5
  7
KANJISTD
 73
     1
 44
1.0
  0
MTEXT
  5
15B
330
A
100
AcDbEntity
  8
0
 62
     7
100
AcDbMText
 10
56.54418
 20
48.58585399999999
 30
0.0
 40
2.624835
 41
0.0
 71
     1
 72
     2
  1
\W0.75;\fMS Gothic|b0|i0|c128;
  7
STD
 73
     1
 44
1.0
  0
POLYLINE
  5
155
330
A
100
AcDbEntity
  8
0
 62
     7
100
AcDb2dPolyline
 66
     1
 10
0.0
 20
0.0
 30
0.0
 70
     1
  0
VERTEX
  5
156
330
155
100
AcDbEntity
  8
0
 62
     7
100
AcDbVertex
100
AcDb2dVertex
 10
84.590013
 20
44.501676
 30
0.0
  0
VERTEX
  5
157
330
155
100
AcDbEntity
  8
0
 62
     7
100
AcDbVertex
100
AcDb2dVertex
 10
50.017791
 20
44.501676
 30
0.0
  0
VERTEX
  5
158
330
155
100
AcDbEntity
  8
0
 62
     7
100
AcDbVertex
100
AcDb2dVertex
 10
50.017791
 20
49.969732
 30
0.0
  0
VERTEX
  5
159
330
155
100
AcDbEntity
  8
0
 62
     7
100
AcDbVertex
100
AcDb2dVertex
 10
84.590013
 20
49.969732
 30
0.0
  0
SEQEND
  5
15A
330
155
100
AcDbEntity
  8
0
 62
     7
  0
POLYLINE
  5
14F
330
A
100
AcDbEntity
  8
0
 62
     7
100
AcDb2dPolyline
 66
     1
 10
0.0
 20
0.0
 30
0.0
 70
     1
  0
VERTEX
  5
150
330
14F
100
AcDbEntity
  8
0
 62
     7
100
AcDbVertex
100
AcDb2dVertex
 10
172.4039469999999
 20
44.68185499999999
 30
0.0
  0
VERTEX
  5
151
330
14F
100
AcDbEntity
  8
0
 62
     7
100
AcDbVertex
100
AcDb2dVertex
 10
137.831725
 20
44.68185499999999
 30
0.0
  0
VERTEX
  5
152
330
14F
100
AcDbEntity
  8
0
 62
     7
100
AcDbVertex
100
AcDb2dVertex
 10
137.831725
 20
50.14991
 30
0.0
  0
VERTEX
  5
153
330
14F
100
AcDbEntity
  8
0
 62
     7
100
AcDbVertex
100
AcDb2dVertex
 10
172.4039469999999
 20
50.14991
 30
0.0
  0
SEQEND
  5
154
330
14F
100
AcDbEntity
  8
0
 62
     7
  0
SPLINE
  5
14E
330
A
100
AcDbEntity
  8
0
 62
     7
100
AcDbSpline
210
0.0
220
0.0
230
1.0
 70
     8
 71
     3
 72
    11
 73
     7
 74
     0
 42
0.0000000001
 43
0.0000000001
 40
0.0
 40
0.0
 40
0.0
 40
0.0
 40
1.0
 40
1.0
 40
1.0
 40
2.0
 40
2.0
 40
2.0
 40
2.0
 10
52.05763210720484
 20
140.9894992404513
 30
0.0
 10
52.08398708767361
 20
140.7407633463541
 30
0.0
 10
52.30705702039928
 20
140.5602403428819
 30
0.0
 10
52.55630967881944
 20
140.585734049479
 30
0.0
 10
52.56078830295138
 20
140.5864230685762
 30
0.0
 10
52.56509467230903
 20
140.5871120876734
 30
0.0
 10
52.56922878689234
 20
140.5878011067708
 30
0.0
  0
LINE
  5
14D
330
A
100
AcDbEntity
  8
0
  6
AI9-LType2
 62
     7
100
AcDbLine
 10
79.82958
 20
149.0436159999999
 30
0.0
 11
64.359379
 21
149.0436159999999
 31
0.0
  0
ELLIPSE
  5
14C
330
A
100
AcDbEntity
  8
0
 62
     7
100
AcDbEllipse
 10
71.032529
 20
88.82317399999998
 30
0.0
 11
-0.5556939019097223
 21
1.598524305555554
 31
0.0
210
0.0
220
0.0
230
0.9999999999999998
 40
0.799426
 41
0.0
 42
6.283185307179584
  0
ELLIPSE
  5
14B
330
A
100
AcDbEntity
  8
0
 62
     7
100
AcDbEllipse
 10
63.51068000000001
 20
88.82317399999998
 30
0.0
 11
0.5556939019097223
 21
1.598524305555554
 31
0.0
210
0.0
220
0.0
230
0.9999999999999998
 40
0.799426
 41
0.0
 42
6.283185307179584
  0
ELLIPSE
  5
14A
330
A
100
AcDbEntity
  8
0
 62
     7
100
AcDbEllipse
 10
63.51068000000001
 20
64.60088
 30
0.0
 11
0.5556939019097224
 21
-1.59869656032986
 31
0.0
210
0.0
220
0.0
230
1.0
 40
0.799382
 41
0.0
 42
6.283185307179584
  0
ELLIPSE
  5
149
330
A
100
AcDbEntity
  8
0
 62
     7
100
AcDbEllipse
 10
71.032529
 20
64.60088
 30
0.0
 11
-0.5556939019097224
 21
-1.59869656032986
 31
0.0
210
0.0
220
0.0
230
1.0
 40
0.799382
 41
0.0
 42
6.283185307179584
  0
LINE
  5
148
330
A
100
AcDbEntity
  8
0
  6
AI9-LType15
 62
     7
100
AcDbLine
 10
58.144944
 20
89.99485099999999
 30
0.0
 11
53.882671
 21
85.73292399999997
 31
0.0
  0
LINE
  5
147
330
A
100
AcDbEntity
  8
0
  6
AI9-LType15
 62
     7
100
AcDbLine
 10
76.187253
 20
89.99485099999999
 30
0.0
 11
80.44918100000002
 21
85.73292399999997
 31
0.0
  0
LINE
  5
146
330
A
100
AcDbEntity
  8
0
  6
AI9-LType15
 62
     7
100
AcDbLine
 10
80.44918100000002
 20
67.690614
 30
0.0
 11
76.187253
 21
63.428687
 31
0.0
  0
LINE
  5
145
330
A
100
AcDbEntity
  8
0
  6
AI9-LType15
 62
     7
100
AcDbLine
 10
53.882671
 20
67.690614
 30
0.0
 11
58.144944
 21
63.428687
 31
0.0
  0
LINE
  5
144
330
A
100
AcDbEntity
  8
0
  6
AI9-LType15
 62
     7
100
AcDbLine
 10
76.187253
 20
67.690614
 30
0.0
 11
80.44918100000002
 21
63.428687
 31
0.0
  0
LINE
  5
143
330
A
100
AcDbEntity
  8
0
  6
AI9-LType15
 62
     7
100
AcDbLine
 10
58.144944
 20
67.690614
 30
0.0
 11
53.882671
 21
63.428687
 31
0.0
  0
CIRCLE
  5
142
330
A
100
AcDbEntity
  8
0
 62
     7
100
AcDbCircle
 10
56.01398
 20
65.559823
 30
0.0
 40
2.410877999999998
  0
CIRCLE
  5
141
330
A
100
AcDbEntity
  8
0
 62
     7
100
AcDbCircle
 10
78.318045
 20
65.559823
 30
0.0
 40
2.410706
  0
CIRCLE
  5
140
330
A
100
AcDbEntity
  8
0
 62
     7
100
AcDbCircle
 10
78.318045
 20
87.86405999999997
 30
0.0
 40
2.410706
  0
CIRCLE
  5
13F
330
A
100
AcDbEntity
  8
0
 62
     7
100
AcDbCircle
 10
56.01398
 20
87.86405999999997
 30
0.0
 40
2.410877999999998
  0
CIRCLE
  5
13E
330
A
100
AcDbEntity
  8
0
 62
     7
100
AcDbCircle
 10
56.013808
 20
65.559823
 30
0.0
 40
1.004589999999998
  0
CIRCLE
  5
13D
330
A
100
AcDbEntity
  8
0
 62
     7
100
AcDbCircle
 10
78.318045
 20
65.559823
 30
0.0
 40
1.004589999999998
  0
CIRCLE
  5
13C
330
A
100
AcDbEntity
  8
0
 62
     7
100
AcDbCircle
 10
78.318045
 20
87.86405999999997
 30
0.0
 40
1.004589999999998
  0
CIRCLE
  5
13B
330
A
100
AcDbEntity
  8
0
 62
     7
100
AcDbCircle
 10
56.013808
 20
87.86405999999997
 30
0.0
 40
1.004589999999998
  0
LINE
  5
13A
330
A
100
AcDbEntity
  8
0
  6
AI9-LType15
 62
     7
100
AcDbLine
 10
80.44918100000002
 20
89.99485099999999
 30
0.0
 11
76.187253
 21
85.73292399999997
 31
0.0
  0
LINE
  5
139
330
A
100
AcDbEntity
  8
0
  6
AI9-LType15
 62
     7
100
AcDbLine
 10
53.882671
 20
89.99485099999999
 30
0.0
 11
58.144944
 21
85.73292399999997
 31
0.0
  0
CIRCLE
  5
137
330
A
100
AcDbEntity
  8
0
 62
     7
100
AcDbCircle
 10
67.242407
 20
76.71194100000002
 30
0.0
 40
10.547849
  0
CIRCLE
  5
136
330
A
100
AcDbEntity
  8
0
 62
     7
100
AcDbCircle
 10
67.165926
 20
76.71194100000002
 30
0.0
 40
20.09093599999999
  0
LINE
  5
135
330
A
100
AcDbEntity
  8
0
  6
AI9-LType14
 62
     7
100
AcDbLine
 10
159.251606
 20
74.59596399999998
 30
0.0
 11
149.206052
 21
74.59596399999998
 31
0.0
  0
SPLINE
  5
133
330
A
100
AcDbEntity
  8
0
  6
AI9-LType13
 62
   249
100
AcDbSpline
210
0.0
220
0.0
230
1.0
 70
     8
 71
     3
 72
    11
 73
     7
 74
     0
 42
0.0000000001
 43
0.0000000001
 40
0.0
 40
0.0
 40
0.0
 40
0.0
 40
1.0
 40
1.0
 40
1.0
 40
2.0
 40
2.0
 40
2.0
 40
2.0
 10
149.2060519748263
 20
74.59596354166666
 30
0.0
 10
148.9810872395833
 20
74.59596354166666
 30
0.0
 10
148.7978081597221
 20
74.77924262152777
 30
0.0
 10
148.7978081597221
 20
75.00455186631942
 30
0.0
 10
148.7978081597221
 20
75.22986111111109
 30
0.0
 10
148.9810872395833
 20
75.41279568142361
 30
0.0
 10
149.2060519748263
 20
75.41279568142361
 30
0.0
  0
SPLINE
  5
131
330
A
100
AcDbEntity
  8
0
  6
AI9-LType12
 62
     7
100
AcDbSpline
210
0.0
220
0.0
230
1.0
 70
     8
 71
     3
 72
    11
 73
     7
 74
     0
 42
0.0000000001
 43
0.0000000001
 40
0.0
 40
0.0
 40
0.0
 40
0.0
 40
1.0
 40
1.0
 40
1.0
 40
2.0
 40
2.0
 40
2.0
 40
2.0
 10
159.2516059027776
 20
75.41279568142361
 30
0.0
 10
159.4769151475694
 20
75.41279568142361
 30
0.0
 10
159.6595052083333
 20
75.22986111111109
 30
0.0
 10
159.6595052083333
 20
75.00455186631942
 30
0.0
 10
159.6595052083333
 20
74.77924262152777
 30
0.0
 10
159.4769151475694
 20
74.59596354166666
 30
0.0
 10
159.2516059027776
 20
74.59596354166666
 30
0.0
  0
SPLINE
  5
12F
330
A
100
AcDbEntity
  8
0
  6
AI9-LType11
 62
     7
100
AcDbSpline
210
0.0
220
0.0
230
1.0
 70
     8
 71
     3
 72
    11
 73
     7
 74
     0
 42
0.0000000001
 43
0.0000000001
 40
0.0
 40
0.0
 40
0.0
 40
0.0
 40
1.0
 40
1.0
 40
1.0
 40
2.0
 40
2.0
 40
2.0
 40
2.0
 10
154.6324218749998
 20
80.31447753906247
 30
0.0
 10
154.47119140625
 20
77.77509765624998
 30
0.0
 10
156.4066460503472
 20
75.57816026475693
 30
0.0
 10
158.945681423611
 20
75.41692979600694
 30
0.0
 10
158.9429253472222
 20
75.41727430555553
 30
0.0
 10
159.2626302083333
 20
75.40762803819443
 30
0.0
 10
159.2626302083333
 20
75.40762803819443
 30
0.0
  0
SPLINE
  5
12D
330
A
100
AcDbEntity
  8
0
  6
AI9-LType10
 62
     7
100
AcDbSpline
210
0.0
220
0.0
230
1.0
 70
     8
 71
     3
 72
    14
 73
    10
 74
     0
 42
0.0000000001
 43
0.0000000001
 40
0.0
 40
0.0
 40
0.0
 40
0.0
 40
1.0
 40
1.0
 40
1.0
 40
2.0
 40
2.0
 40
2.0
 40
3.0
 40
3.0
 40
3.0
 40
3.0
 10
149.1912380642359
 20
75.39798177083331
 30
0.0
 10
150.4238932291666
 20
75.38971354166666
 30
0.0
 10
151.5855794270833
 20
75.86169162326388
 30
0.0
 10
152.4630452473958
 20
76.7277886284722
 30
0.0
 10
153.3405110677083
 20
77.59319661458331
 30
0.0
 10
153.8283365885416
 20
78.7493706597222
 30
0.0
 10
153.8362603081596
 20
79.98202582465276
 30
0.0
 10
153.8362603081596
 20
79.98202582465276
 30
0.0
 10
153.8224799262151
 20
80.3706325954861
 30
0.0
 10
153.8224799262151
 20
80.3706325954861
 30
0.0
  0
SPLINE
  5
12B
330
A
100
AcDbEntity
  8
0
  6
AI9-LType9
 62
   249
100
AcDbSpline
210
0.0
220
0.0
230
1.0
 70
     8
 71
     3
 72
    14
 73
    10
 74
     0
 42
0.0000000001
 43
0.0000000001
 40
0.0
 40
0.0
 40
0.0
 40
0.0
 40
1.0
 40
1.0
 40
1.0
 40
2.0
 40
2.0
 40
2.0
 40
3.0
 40
3.0
 40
3.0
 40
3.0
 10
153.8221354166666
 20
80.39199218749997
 30
0.0
 10
153.8221354166666
 20
80.39199218749997
 30
0.0
 10
153.8224799262151
 20
80.46916232638887
 30
0.0
 10
153.8224799262151
 20
80.46916232638887
 30
0.0
 10
153.8441840277776
 20
80.69240451388891
 30
0.0
 10
154.0443440755208
 20
80.85708007812497
 30
0.0
 10
154.2682752821179
 20
80.83503146701387
 30
0.0
 10
154.4925509982638
 20
80.81332736545137
 30
0.0
 10
154.6572265625
 20
80.61316731770835
 30
0.0
 10
154.6351779513888
 20
80.3892361111111
 30
0.0
  0
SPLINE
  5
129
330
A
100
AcDbEntity
  8
0
 62
     7
100
AcDbSpline
210
0.0
220
0.0
230
1.0
 70
    11
 71
     3
 72
    17
 73
    13
 74
     0
 42
0.0000000001
 43
0.0000000001
 40
0.0
 40
0.0
 40
0.0
 40
0.0
 40
1.0
 40
1.0
 40
1.0
 40
2.0
 40
2.0
 40
2.0
 40
3.0
 40
3.0
 40
3.0
 40
4.0
 40
4.0
 40
4.0
 40
4.0
 10
154.1525200737847
 20
96.80304904513889
 30
0.0
 10
143.056556532118
 20
96.80304904513889
 30
0.0
 10
134.0614122178819
 20
87.80859374999998
 30
0.0
 10
134.0614122178819
 20
76.71228569878469
 30
0.0
 10
134.0614122178819
 20
65.61632215711805
 30
0.0
 10
143.056556532118
 20
56.62117784288192
 30
0.0
 10
154.1525200737847
 20
56.62117784288192
 30
0.0
 10
165.2488281249999
 20
56.62117784288192
 30
0.0
 10
174.2432834201388
 20
65.61632215711805
 30
0.0
 10
174.2432834201388
 20
76.71228569878469
 30
0.0
 10
174.2432834201388
 20
87.80859374999998
 30
0.0
 10
165.2488281249999
 20
96.80304904513889
 30
0.0
 10
154.1525200737847
 20
96.80304904513889
 30
0.0
  0
SPLINE
  5
128
330
A
100
AcDbEntity
  8
0
 62
     7
100
AcDbSpline
210
0.0
220
0.0
230
1.0
 70
    11
 71
     3
 72
    20
 73
    16
 74
     0
 42
0.0000000001
 43
0.0000000001
 40
0.0
 40
0.0
 40
0.0
 40
0.0
 40
1.0
 40
1.0
 40
1.0
 40
2.0
 40
2.0
 40
2.0
 40
3.0
 40
3.0
 40
3.0
 40
4.0
 40
4.0
 40
4.0
 40
5.0
 40
5.0
 40
5.0
 40
5.0
 10
144.1965386284721
 20
92.75368381076388
 30
0.0
 10
144.1965386284721
 20
92.75368381076388
 30
0.0
 10
145.4491753472221
 20
90.58327365451388
 30
0.0
 10
145.4491753472221
 20
90.58327365451388
 30
0.0
 10
145.3179172092013
 20
90.49955783420136
 30
0.0
 10
145.1914822048609
 20
90.40895182291666
 30
0.0
 10
145.0626356336804
 20
90.32213541666664
 30
0.0
 10
144.5041856553819
 20
90.79135742187501
 30
0.0
 10
143.7851942274305
 20
91.07523328993055
 30
0.0
 10
143.0004014756944
 20
91.07523328993055
 30
0.0
 10
142.4457411024305
 20
91.07523328993055
 30
0.0
 10
141.9241536458333
 20
90.93363986545135
 30
0.0
 10
141.4683675130208
 20
90.68524848090277
 30
0.0
 10
142.3127604166666
 20
91.45212673611107
 30
0.0
 10
143.2236436631943
 20
92.14734700520832
 30
0.0
 10
144.1965386284721
 20
92.75368381076388
 30
0.0
  0
SPLINE
  5
127
330
A
100
AcDbEntity
  8
0
 62
     7
100
AcDbSpline
210
0.0
220
0.0
230
1.0
 70
    11
 71
     3
 72
    17
 73
    13
 74
     0
 42
0.0000000001
 43
0.0000000001
 40
0.0
 40
0.0
 40
0.0
 40
0.0
 40
1.0
 40
1.0
 40
1.0
 40
2.0
 40
2.0
 40
2.0
 40
3.0
 40
3.0
 40
3.0
 40
4.0
 40
4.0
 40
4.0
 40
4.0
 10
144.0049913194443
 20
87.86440429687498
 30
0.0
 10
144.0049913194443
 20
87.3093994140625
 30
0.0
 10
143.5550618489583
 20
86.85981445312497
 30
0.0
 10
143.0004014756944
 20
86.85981445312497
 30
0.0
 10
142.4453965928819
 20
86.85981445312497
 30
0.0
 10
141.9958116319444
 20
87.3093994140625
 30
0.0
 10
141.9958116319444
 20
87.86440429687498
 30
0.0
 10
141.9958116319444
 20
88.41906467013888
 30
0.0
 10
142.4453965928819
 20
88.86899414062495
 30
0.0
 10
143.0004014756944
 20
88.86899414062495
 30
0.0
 10
143.5550618489583
 20
88.86899414062495
 30
0.0
 10
144.0049913194443
 20
88.41906467013888
 30
0.0
 10
144.0049913194443
 20
87.86440429687498
 30
0.0
  0
SPLINE
  5
126
330
A
100
AcDbEntity
  8
0
 62
     7
100
AcDbSpline
210
0.0
220
0.0
230
1.0
 70
    11
 71
     3
 72
    29
 73
    25
 74
     0
 42
0.0000000001
 43
0.0000000001
 40
0.0
 40
0.0
 40
0.0
 40
0.0
 40
1.0
 40
1.0
 40
1.0
 40
2.0
 40
2.0
 40
2.0
 40
3.0
 40
3.0
 40
3.0
 40
4.0
 40
4.0
 40
4.0
 40
5.0
 40
5.0
 40
5.0
 40
6.0
 40
6.0
 40
6.0
 40
7.0
 40
7.0
 40
7.0
 40
8.0
 40
8.0
 40
8.0
 40
8.0
 10
141.4928276909722
 20
85.03081325954862
 30
0.0
 10
141.9427571614583
 20
84.79069010416665
 30
0.0
 10
142.4553873697916
 20
84.65323079427081
 30
0.0
 10
143.0004014756944
 20
84.65323079427081
 30
0.0
 10
144.7708360460069
 20
84.65323079427081
 30
0.0
 10
146.2112304687499
 20
86.09362521701388
 30
0.0
 10
146.2112304687499
 20
87.86440429687498
 30
0.0
 10
146.2112304687499
 20
88.41665310329856
 30
0.0
 10
146.0706705729166
 20
88.93686252170137
 30
0.0
 10
145.824001736111
 20
89.39127061631944
 30
0.0
 10
145.8997938368054
 20
89.44156901041665
 30
0.0
 10
145.972829861111
 20
89.49531249999997
 30
0.0
 10
146.0493109809027
 20
89.54423285590275
 30
0.0
 10
146.0493109809027
 20
89.54423285590275
 30
0.0
 10
147.3877305772569
 20
87.22568359374998
 30
0.0
 10
147.3877305772569
 20
87.22568359374998
 30
0.0
 10
145.9039279513888
 20
86.25692274305555
 30
0.0
 10
144.6368218315971
 20
84.98189290364583
 30
0.0
 10
143.676673719618
 20
83.49188910590276
 30
0.0
 10
143.676673719618
 20
83.49188910590276
 30
0.0
 10
141.3581244574651
 20
84.83065321180554
 30
0.0
 10
141.3581244574651
 20
84.83065321180554
 30
0.0
 10
141.4011881510415
 20
84.89852159288194
 30
0.0
 10
141.4487304687499
 20
84.96363389756941
 30
0.0
 10
141.4928276909722
 20
85.03081325954862
 30
0.0
  0
SPLINE
  5
125
330
A
100
AcDbEntity
  8
0
 62
     7
100
AcDbSpline
210
0.0
220
0.0
230
1.0
 70
    11
 71
     3
 72
    29
 73
    25
 74
     0
 42
0.0000000001
 43
0.0000000001
 40
0.0
 40
0.0
 40
0.0
 40
0.0
 40
1.0
 40
1.0
 40
1.0
 40
2.0
 40
2.0
 40
2.0
 40
3.0
 40
3.0
 40
3.0
 40
4.0
 40
4.0
 40
4.0
 40
5.0
 40
5.0
 40
5.0
 40
6.0
 40
6.0
 40
6.0
 40
7.0
 40
7.0
 40
7.0
 40
8.0
 40
8.0
 40
8.0
 40
8.0
 10
150.233034939236
 20
80.00579698350694
 30
0.0
 10
150.233034939236
 20
80.00683051215276
 30
0.0
 10
150.2295898437498
 20
80.09157986111111
 30
0.0
 10
150.2295898437498
 20
80.09157986111111
 30
0.0
 10
150.2295898437498
 20
80.09157986111111
 30
0.0
 10
149.9977349175345
 20
79.84215494791666
 30
0.0
 10
149.9977349175345
 20
79.84215494791666
 30
0.0
 10
149.9977349175345
 20
79.84215494791666
 30
0.0
 10
144.7160590277777
 20
82.89175347222222
 30
0.0
 10
144.7160590277777
 20
82.89175347222222
 30
0.0
 10
145.5690646701388
 20
84.20088975694444
 30
0.0
 10
146.685964626736
 20
85.32261284722221
 30
0.0
 10
147.9888997395833
 20
86.18423122829858
 30
0.0
 10
147.9888997395833
 20
86.18423122829858
 30
0.0
 10
150.485560438368
 20
81.86029188368054
 30
0.0
 10
150.485560438368
 20
81.86029188368054
 30
0.0
 10
150.3598144531248
 20
81.53197428385414
 30
0.0
 10
150.2716200086804
 20
81.18367513020833
 30
0.0
 10
150.2357910156248
 20
80.81711697048609
 30
0.0
 10
150.2357910156248
 20
80.81711697048609
 30
0.0
 10
150.2323459201388
 20
80.07469889322916
 30
0.0
 10
150.2323459201388
 20
80.07469889322916
 30
0.0
 10
150.2323459201388
 20
80.07469889322916
 30
0.0
 10
150.233034939236
 20
80.00579698350694
 30
0.0
 10
150.233034939236
 20
80.00579698350694
 30
0.0
  0
SPLINE
  5
124
330
A
100
AcDbEntity
  8
0
 62
     7
100
AcDbSpline
210
0.0
220
0.0
230
1.0
 70
    11
 71
     3
 72
    20
 73
    16
 74
     0
 42
0.0000000001
 43
0.0000000001
 40
0.0
 40
0.0
 40
0.0
 40
0.0
 40
1.0
 40
1.0
 40
1.0
 40
2.0
 40
2.0
 40
2.0
 40
3.0
 40
3.0
 40
3.0
 40
4.0
 40
4.0
 40
4.0
 40
5.0
 40
5.0
 40
5.0
 40
5.0
 10
145.3423773871526
 20
76.0739095052083
 30
0.0
 10
145.2479817708333
 20
75.73284505208331
 30
0.0
 10
145.1942382812499
 20
75.375244140625
 30
0.0
 10
145.1942382812499
 20
75.00455186631942
 30
0.0
 10
145.1942382812499
 20
74.19150933159722
 30
0.0
 10
145.4388400607638
 20
73.43496636284722
 30
0.0
 10
145.8563856336805
 20
72.80210232204861
 30
0.0
 10
145.8563856336805
 20
72.80210232204861
 30
0.0
 10
144.0277289496527
 20
71.74618055555554
 30
0.0
 10
144.0277289496527
 20
71.74618055555554
 30
0.0
 10
143.3824625651041
 20
73.06634114583331
 30
0.0
 10
142.9859320746526
 20
74.5291286892361
 30
0.0
 10
142.8998046874999
 20
76.0739095052083
 30
0.0
 10
142.8998046874999
 20
76.0739095052083
 30
0.0
 10
145.3423773871526
 20
76.0739095052083
 30
0.0
 10
145.3423773871526
 20
76.0739095052083
 30
0.0
  0
SPLINE
  5
123
330
A
100
AcDbEntity
  8
0
 62
     7
100
AcDbSpline
210
0.0
220
0.0
230
1.0
 70
    11
 71
     3
 72
    17
 73
    13
 74
     0
 42
0.0000000001
 43
0.0000000001
 40
0.0
 40
0.0
 40
0.0
 40
0.0
 40
1.0
 40
1.0
 40
1.0
 40
2.0
 40
2.0
 40
2.0
 40
3.0
 40
3.0
 40
3.0
 40
4.0
 40
4.0
 40
4.0
 40
4.0
 10
142.895326063368
 20
77.2734917534722
 30
0.0
 10
142.9755967881944
 20
78.91542426215278
 30
0.0
 10
143.4083007812498
 20
80.46502821180554
 30
0.0
 10
144.1166124131944
 20
81.8523681640625
 30
0.0
 10
144.1166124131944
 20
81.8523681640625
 30
0.0
 10
149.0430989583333
 20
79.00809733072915
 30
0.0
 10
149.0430989583333
 20
79.00809733072915
 30
0.0
 10
147.7415418836804
 20
78.95538736979166
 30
0.0
 10
146.6001817491319
 20
78.27980414496528
 30
0.0
 10
145.9046169704859
 20
77.2734917534722
 30
0.0
 10
145.9046169704859
 20
77.2734917534722
 30
0.0
 10
142.895326063368
 20
77.2734917534722
 30
0.0
 10
142.895326063368
 20
77.2734917534722
 30
0.0
  0
SPLINE
  5
122
330
A
100
AcDbEntity
  8
0
 62
     7
100
AcDbSpline
210
0.0
220
0.0
230
1.0
 70
    11
 71
     3
 72
    23
 73
    19
 74
     0
 42
0.0000000001
 43
0.0000000001
 40
0.0
 40
0.0
 40
0.0
 40
0.0
 40
1.0
 40
1.0
 40
1.0
 40
2.0
 40
2.0
 40
2.0
 40
3.0
 40
3.0
 40
3.0
 40
4.0
 40
4.0
 40
4.0
 40
5.0
 40
5.0
 40
5.0
 40
6.0
 40
6.0
 40
6.0
 40
6.0
 10
146.6797634548609
 20
71.89156358506943
 30
0.0
 10
147.3598253038194
 20
71.3389702690972
 30
0.0
 10
148.2231662326388
 20
71.00445149739581
 30
0.0
 10
149.1636773003471
 20
70.99446072048611
 30
0.0
 10
149.1636773003471
 20
70.99446072048611
 30
0.0
 10
149.1636773003471
 20
70.97620171440969
 30
0.0
 10
149.1636773003471
 20
70.97620171440969
 30
0.0
 10
149.1636773003471
 20
70.97620171440969
 30
0.0
 10
150.2027180989583
 20
70.97620171440969
 30
0.0
 10
150.2027180989583
 20
70.97620171440969
 30
0.0
 10
150.2027180989583
 20
70.97620171440969
 30
0.0
 10
148.0302408854165
 20
67.21381293402777
 30
0.0
 10
148.0302408854165
 20
67.21381293402777
 30
0.0
 10
146.6556477864583
 20
68.11436089409721
 30
0.0
 10
145.4870713975694
 20
69.30498589409722
 30
0.0
 10
144.6127061631944
 20
70.69818250868054
 30
0.0
 10
144.6127061631944
 20
70.69818250868054
 30
0.0
 10
146.6797634548609
 20
71.89156358506943
 30
0.0
 10
146.6797634548609
 20
71.89156358506943
 30
0.0
  0
SPLINE
  5
121
330
A
100
AcDbEntity
  8
0
 62
     7
100
AcDbSpline
210
0.0
220
0.0
230
1.0
 70
    11
 71
     3
 72
    17
 73
    13
 74
     0
 42
0.0000000001
 43
0.0000000001
 40
0.0
 40
0.0
 40
0.0
 40
0.0
 40
1.0
 40
1.0
 40
1.0
 40
2.0
 40
2.0
 40
2.0
 40
3.0
 40
3.0
 40
3.0
 40
4.0
 40
4.0
 40
4.0
 40
4.0
 10
143.0758490668401
 20
82.45319281684027
 30
0.0
 10
142.2672851562498
 20
80.88843044704859
 30
0.0
 10
141.7777370876734
 20
79.13315429687497
 30
0.0
 10
141.6953993055555
 20
77.2734917534722
 30
0.0
 10
141.6953993055555
 20
77.2734917534722
 30
0.0
 10
139.0178710937498
 20
77.2734917534722
 30
0.0
 10
139.0178710937498
 20
77.2734917534722
 30
0.0
 10
139.1033094618055
 20
79.61960177951389
 30
0.0
 10
139.7244601779514
 20
81.83066406249997
 30
0.0
 10
140.7583333333333
 20
83.79126790364582
 30
0.0
 10
140.7583333333333
 20
83.79126790364582
 30
0.0
 10
143.0758490668401
 20
82.45319281684027
 30
0.0
 10
143.0758490668401
 20
82.45319281684027
 30
0.0
  0
SPLINE
  5
120
330
A
100
AcDbEntity
  8
0
 62
     7
100
AcDbSpline
210
0.0
220
0.0
230
1.0
 70
    11
 71
     3
 72
    20
 73
    16
 74
     0
 42
0.0000000001
 43
0.0000000001
 40
0.0
 40
0.0
 40
0.0
 40
0.0
 40
1.0
 40
1.0
 40
1.0
 40
2.0
 40
2.0
 40
2.0
 40
3.0
 40
3.0
 40
3.0
 40
4.0
 40
4.0
 40
4.0
 40
5.0
 40
5.0
 40
5.0
 40
5.0
 10
140.1816243489583
 20
89.39988335503469
 30
0.0
 10
139.9318549262152
 20
88.94340820312498
 30
0.0
 10
139.7895724826387
 20
88.42044270833332
 30
0.0
 10
139.7895724826387
 20
87.86440429687498
 30
0.0
 10
139.7895724826387
 20
87.07168782552082
 30
0.0
 10
140.0796495225694
 20
86.34649522569445
 30
0.0
 10
140.5571397569443
 20
85.78597819010417
 30
0.0
 10
140.4779025607638
 20
85.66712239583333
 30
0.0
 10
140.3952202690971
 20
85.55136718749997
 30
0.0
 10
140.3194281684027
 20
85.43009982638887
 30
0.0
 10
140.3194281684027
 20
85.43009982638887
 30
0.0
 10
138.128347439236
 20
86.69513888888884
 30
0.0
 10
138.128347439236
 20
86.69513888888884
 30
0.0
 10
138.7305501302083
 20
87.65976562499998
 30
0.0
 10
139.4202582465277
 20
88.56272515190969
 30
0.0
 10
140.1816243489583
 20
89.39988335503469
 30
0.0
  0
SPLINE
  5
11F
330
A
100
AcDbEntity
  8
0
 62
     7
100
AcDbSpline
210
0.0
220
0.0
230
1.0
 70
    11
 71
     3
 72
    17
 73
    13
 74
     0
 42
0.0000000001
 43
0.0000000001
 40
0.0
 40
0.0
 40
0.0
 40
0.0
 40
1.0
 40
1.0
 40
1.0
 40
2.0
 40
2.0
 40
2.0
 40
3.0
 40
3.0
 40
3.0
 40
4.0
 40
4.0
 40
4.0
 40
4.0
 10
137.5275227864583
 20
85.65644259982638
 30
0.0
 10
137.5275227864583
 20
85.65644259982638
 30
0.0
 10
139.7199815538193
 20
84.39071451822917
 30
0.0
 10
139.7199815538193
 20
84.39071451822917
 30
0.0
 10
138.5848225911458
 20
82.25268825954861
 30
0.0
 10
137.9044162326388
 20
79.83802083333333
 30
0.0
 10
137.8175998263887
 20
77.2734917534722
 30
0.0
 10
137.8175998263887
 20
77.2734917534722
 30
0.0
 10
135.275808376736
 20
77.2734917534722
 30
0.0
 10
135.275808376736
 20
77.2734917534722
 30
0.0
 10
135.3646918402777
 20
80.2996636284722
 30
0.0
 10
136.1729112413194
 20
83.14669053819443
 30
0.0
 10
137.5275227864583
 20
85.65644259982638
 30
0.0
  0
SPLINE
  5
11E
330
A
100
AcDbEntity
  8
0
 62
     7
100
AcDbSpline
210
0.0
220
0.0
230
1.0
 70
    11
 71
     3
 72
    17
 73
    13
 74
     0
 42
0.0000000001
 43
0.0000000001
 40
0.0
 40
0.0
 40
0.0
 40
0.0
 40
1.0
 40
1.0
 40
1.0
 40
2.0
 40
2.0
 40
2.0
 40
3.0
 40
3.0
 40
3.0
 40
4.0
 40
4.0
 40
4.0
 40
4.0
 10
135.277530924479
 20
76.0739095052083
 30
0.0
 10
135.277530924479
 20
76.0739095052083
 30
0.0
 10
137.8196668836805
 20
76.0739095052083
 30
0.0
 10
137.8196668836805
 20
76.0739095052083
 30
0.0
 10
137.9147515190972
 20
73.60653211805554
 30
0.0
 10
138.5562282986109
 20
71.2790256076389
 30
0.0
 10
139.6269639756944
 20
69.205078125
 30
0.0
 10
139.6269639756944
 20
69.205078125
 30
0.0
 10
137.4307156032984
 20
67.9372829861111
 30
0.0
 10
137.4307156032984
 20
67.9372829861111
 30
0.0
 10
136.1419053819444
 20
70.38398980034722
 30
0.0
 10
135.3757161458333
 20
73.14488932291665
 30
0.0
 10
135.277530924479
 20
76.0739095052083
 30
0.0
  0
SPLINE
  5
11D
330
A
100
AcDbEntity
  8
0
 62
     7
100
AcDbSpline
210
0.0
220
0.0
230
1.0
 70
    11
 71
     3
 72
    20
 73
    16
 74
     0
 42
0.0000000001
 43
0.0000000001
 40
0.0
 40
0.0
 40
0.0
 40
0.0
 40
1.0
 40
1.0
 40
1.0
 40
2.0
 40
2.0
 40
2.0
 40
3.0
 40
3.0
 40
3.0
 40
4.0
 40
4.0
 40
4.0
 40
5.0
 40
5.0
 40
5.0
 40
5.0
 10
140.1898925781249
 20
64.01056315104167
 30
0.0
 10
139.3806396484374
 20
64.89939778645832
 30
0.0
 10
138.6506239149305
 20
65.86126844618053
 30
0.0
 10
138.0205159505208
 20
66.89204101562499
 30
0.0
 10
138.0205159505208
 20
66.89204101562499
 30
0.0
 10
140.2126302083333
 20
68.15776909722221
 30
0.0
 10
140.2126302083333
 20
68.15776909722221
 30
0.0
 10
140.3214952256944
 20
67.98000217013889
 30
0.0
 10
140.4389729817708
 20
67.80843641493056
 30
0.0
 10
140.5543836805555
 20
67.63514811197916
 30
0.0
 10
140.0782714843749
 20
67.07463107638888
 30
0.0
 10
139.7895724826387
 20
66.35116102430554
 30
0.0
 10
139.7895724826387
 20
65.56016710069444
 30
0.0
 10
139.7895724826387
 20
64.99827202690972
 30
0.0
 10
139.9356445312498
 20
64.47013888888888
 30
0.0
 10
140.1898925781249
 20
64.01056315104167
 30
0.0
  0
SPLINE
  5
11C
330
A
100
AcDbEntity
  8
0
 62
     7
100
AcDbSpline
210
0.0
220
0.0
230
1.0
 70
    11
 71
     3
 72
    17
 73
    13
 74
     0
 42
0.0000000001
 43
0.0000000001
 40
0.0
 40
0.0
 40
0.0
 40
0.0
 40
1.0
 40
1.0
 40
1.0
 40
2.0
 40
2.0
 40
2.0
 40
3.0
 40
3.0
 40
3.0
 40
4.0
 40
4.0
 40
4.0
 40
4.0
 10
139.019593641493
 20
76.0739095052083
 30
0.0
 10
139.019593641493
 20
76.0739095052083
 30
0.0
 10
141.6974663628471
 20
76.0739095052083
 30
0.0
 10
141.6974663628471
 20
76.0739095052083
 30
0.0
 10
141.7863498263888
 20
74.31105414496528
 30
0.0
 10
142.2424804687499
 20
72.64466145833333
 30
0.0
 10
142.9879991319443
 20
71.14570041232638
 30
0.0
 10
142.9879991319443
 20
71.14570041232638
 30
0.0
 10
140.6666937934027
 20
69.80590277777777
 30
0.0
 10
140.6666937934027
 20
69.80590277777777
 30
0.0
 10
139.6972439236109
 20
71.7017388237847
 30
0.0
 10
139.1129557291665
 20
73.824951171875
 30
0.0
 10
139.019593641493
 20
76.0739095052083
 30
0.0
  0
SPLINE
  5
11B
330
A
100
AcDbEntity
  8
0
 62
     7
100
AcDbSpline
210
0.0
220
0.0
230
1.0
 70
    11
 71
     3
 72
    29
 73
    25
 74
     0
 42
0.0000000001
 43
0.0000000001
 40
0.0
 40
0.0
 40
0.0
 40
0.0
 40
1.0
 40
1.0
 40
1.0
 40
2.0
 40
2.0
 40
2.0
 40
3.0
 40
3.0
 40
3.0
 40
4.0
 40
4.0
 40
4.0
 40
5.0
 40
5.0
 40
5.0
 40
6.0
 40
6.0
 40
6.0
 40
7.0
 40
7.0
 40
7.0
 40
8.0
 40
8.0
 40
8.0
 40
8.0
 10
143.5729763454859
 20
70.09804687499999
 30
0.0
 10
144.5537950303819
 20
68.52329372829861
 30
0.0
 10
145.8743001302083
 20
67.18211805555553
 30
0.0
 10
147.430105251736
 20
66.17408311631944
 30
0.0
 10
147.430105251736
 20
66.17408311631944
 30
0.0
 10
146.0920301649304
 20
63.85622287326388
 30
0.0
 10
146.0920301649304
 20
63.85622287326388
 30
0.0
 10
146.0014241536458
 20
63.91375596788194
 30
0.0
 10
145.9149522569444
 20
63.97680121527777
 30
0.0
 10
145.825724283854
 20
64.03605685763888
 30
0.0
 10
146.0713595920138
 20
64.48977593315972
 30
0.0
 10
146.2112304687499
 20
65.00895182291666
 30
0.0
 10
146.2112304687499
 20
65.56016710069444
 30
0.0
 10
146.2112304687499
 20
67.33025716145833
 30
0.0
 10
144.7708360460069
 20
68.77099609375
 30
0.0
 10
143.0004014756944
 20
68.77099609375
 30
0.0
 10
142.4553873697916
 20
68.77099609375
 30
0.0
 10
141.942068142361
 20
68.63319227430553
 30
0.0
 10
141.4921386718748
 20
68.39272460937499
 30
0.0
 10
141.4122124565971
 20
68.51468098958332
 30
0.0
 10
141.3288411458333
 20
68.63388129340278
 30
0.0
 10
141.2523600260415
 20
68.75824924045137
 30
0.0
 10
141.2523600260415
 20
68.75824924045137
 30
0.0
 10
143.5729763454859
 20
70.09804687499999
 30
0.0
 10
143.5729763454859
 20
70.09804687499999
 30
0.0
  0
SPLINE
  5
11A
330
A
100
AcDbEntity
  8
0
 62
     7
100
AcDbSpline
210
0.0
220
0.0
230
1.0
 70
    11
 71
     3
 72
    17
 73
    13
 74
     0
 42
0.0000000001
 43
0.0000000001
 40
0.0
 40
0.0
 40
0.0
 40
0.0
 40
1.0
 40
1.0
 40
1.0
 40
2.0
 40
2.0
 40
2.0
 40
3.0
 40
3.0
 40
3.0
 40
4.0
 40
4.0
 40
4.0
 40
4.0
 10
144.0049913194443
 20
65.56016710069444
 30
0.0
 10
144.0049913194443
 20
65.00516221788193
 30
0.0
 10
143.5550618489583
 20
64.55557725694443
 30
0.0
 10
143.0004014756944
 20
64.55557725694443
 30
0.0
 10
142.4453965928819
 20
64.55557725694443
 30
0.0
 10
141.9958116319444
 20
65.00516221788193
 30
0.0
 10
141.9958116319444
 20
65.56016710069444
 30
0.0
 10
141.9958116319444
 20
66.11482747395831
 30
0.0
 10
142.4453965928819
 20
66.56475694444444
 30
0.0
 10
143.0004014756944
 20
66.56475694444444
 30
0.0
 10
143.5550618489583
 20
66.56475694444444
 30
0.0
 10
144.0049913194443
 20
66.11482747395831
 30
0.0
 10
144.0049913194443
 20
65.56016710069444
 30
0.0
  0
SPLINE
  5
119
330
A
100
AcDbEntity
  8
0
 62
     7
100
AcDbSpline
210
0.0
220
0.0
230
1.0
 70
    11
 71
     3
 72
    20
 73
    16
 74
     0
 42
0.0000000001
 43
0.0000000001
 40
0.0
 40
0.0
 40
0.0
 40
0.0
 40
1.0
 40
1.0
 40
1.0
 40
2.0
 40
2.0
 40
2.0
 40
3.0
 40
3.0
 40
3.0
 40
4.0
 40
4.0
 40
4.0
 40
5.0
 40
5.0
 40
5.0
 40
5.0
 10
141.4432183159721
 20
62.75379231770831
 30
0.0
 10
141.904861111111
 20
62.49678819444444
 30
0.0
 10
142.4354058159721
 20
62.34899359809027
 30
0.0
 10
143.0004014756944
 20
62.34899359809027
 30
0.0
 10
143.7862277560764
 20
62.34899359809027
 30
0.0
 10
144.5059082031248
 20
62.63390299479166
 30
0.0
 10
145.064702690972
 20
63.10450303819443
 30
0.0
 10
145.2069851345484
 20
63.00838487413193
 30
0.0
 10
145.3468560112845
 20
62.90882161458333
 30
0.0
 10
145.4918945312499
 20
62.81718207465278
 30
0.0
 10
145.4918945312499
 20
62.81718207465278
 30
0.0
 10
144.2351236979166
 20
60.64022623697916
 30
0.0
 10
144.2351236979166
 20
60.64022623697916
 30
0.0
 10
143.2381130642359
 20
61.25758734809028
 30
0.0
 10
142.3058702256944
 20
61.96796603732638
 30
0.0
 10
141.4432183159721
 20
62.75379231770831
 30
0.0
  0
SPLINE
  5
118
330
A
100
AcDbEntity
  8
0
 62
     7
100
AcDbSpline
210
0.0
220
0.0
230
1.0
 70
    11
 71
     3
 72
    17
 73
    13
 74
     0
 42
0.0000000001
 43
0.0000000001
 40
0.0
 40
0.0
 40
0.0
 40
0.0
 40
1.0
 40
1.0
 40
1.0
 40
2.0
 40
2.0
 40
2.0
 40
3.0
 40
3.0
 40
3.0
 40
4.0
 40
4.0
 40
4.0
 40
4.0
 10
153.6088840060763
 20
57.83006184895833
 30
0.0
 10
150.6040717230901
 20
57.91550021701389
 30
0.0
 10
147.7725477430555
 20
58.70511610243053
 30
0.0
 10
145.2748535156248
 20
60.04112413194444
 30
0.0
 10
145.2748535156248
 20
60.04112413194444
 30
0.0
 10
146.5302463107638
 20
62.21497938368053
 30
0.0
 10
146.5302463107638
 20
62.21497938368053
 30
0.0
 10
148.6565592447916
 20
61.08085394965278
 30
0.0
 10
151.0581353081597
 20
60.4028591579861
 30
0.0
 10
153.6088840060763
 20
60.30708550347222
 30
0.0
 10
153.6088840060763
 20
60.30708550347222
 30
0.0
 10
153.6088840060763
 20
57.83006184895833
 30
0.0
 10
153.6088840060763
 20
57.83006184895833
 30
0.0
  0
SPLINE
  5
117
330
A
100
AcDbEntity
  8
0
 62
     7
100
AcDbSpline
210
0.0
220
0.0
230
1.0
 70
    11
 71
     3
 72
    17
 73
    13
 74
     0
 42
0.0000000001
 43
0.0000000001
 40
0.0
 40
0.0
 40
0.0
 40
0.0
 40
1.0
 40
1.0
 40
1.0
 40
2.0
 40
2.0
 40
2.0
 40
3.0
 40
3.0
 40
3.0
 40
4.0
 40
4.0
 40
4.0
 40
4.0
 10
153.6088840060763
 20
61.50701226128472
 30
0.0
 10
151.2762098524305
 20
61.60106336805553
 30
0.0
 10
149.0792724609373
 20
62.22152506510416
 30
0.0
 10
147.1300374348958
 20
63.25436469184028
 30
0.0
 10
147.1300374348958
 20
63.25436469184028
 30
0.0
 10
148.4691460503472
 20
65.5739474826389
 30
0.0
 10
148.4691460503472
 20
65.5739474826389
 30
0.0
 10
150.0225396050346
 20
64.76710611979166
 30
0.0
 10
151.7626573350694
 20
64.27549099392361
 30
0.0
 10
153.6088840060763
 20
64.18488498263887
 30
0.0
 10
153.6088840060763
 20
64.18488498263887
 30
0.0
 10
153.6088840060763
 20
61.50701226128472
 30
0.0
 10
153.6088840060763
 20
61.50701226128472
 30
0.0
  0
SPLINE
  5
116
330
A
100
AcDbEntity
  8
0
 62
     7
100
AcDbSpline
210
0.0
220
0.0
230
1.0
 70
    11
 71
     3
 72
    17
 73
    13
 74
     0
 42
0.0000000001
 43
0.0000000001
 40
0.0
 40
0.0
 40
0.0
 40
0.0
 40
1.0
 40
1.0
 40
1.0
 40
2.0
 40
2.0
 40
2.0
 40
3.0
 40
3.0
 40
3.0
 40
4.0
 40
4.0
 40
4.0
 40
4.0
 10
153.6088840060763
 20
65.38481174045138
 30
0.0
 10
151.9807318793402
 20
65.47335069444443
 30
0.0
 10
150.4449083116319
 20
65.90743272569444
 30
0.0
 10
149.0692816840276
 20
66.61367730034722
 30
0.0
 10
149.0692816840276
 20
66.61367730034722
 30
0.0
 10
151.5883355034721
 20
70.97620171440969
 30
0.0
 10
151.5883355034721
 20
70.97620171440969
 30
0.0
 10
151.5883355034721
 20
70.97620171440969
 30
0.0
 10
153.6088840060763
 20
70.97620171440969
 30
0.0
 10
153.6088840060763
 20
70.97620171440969
 30
0.0
 10
153.6088840060763
 20
70.97620171440969
 30
0.0
 10
153.6088840060763
 20
65.38481174045138
 30
0.0
 10
153.6088840060763
 20
65.38481174045138
 30
0.0
  0
SPLINE
  5
115
330
A
100
AcDbEntity
  8
0
 62
     7
100
AcDbSpline
210
0.0
220
0.0
230
1.0
 70
    11
 71
     3
 72
    17
 73
    13
 74
     0
 42
0.0000000001
 43
0.0000000001
 40
0.0
 40
0.0
 40
0.0
 40
0.0
 40
1.0
 40
1.0
 40
1.0
 40
2.0
 40
2.0
 40
2.0
 40
3.0
 40
3.0
 40
3.0
 40
4.0
 40
4.0
 40
4.0
 40
4.0
 10
153.6088840060763
 20
84.39140353732637
 30
0.0
 10
152.6566596137151
 20
84.24154188368055
 30
0.0
 10
151.8026204427083
 20
83.75233832465278
 30
0.0
 10
151.1893934461804
 20
83.0405815972222
 30
0.0
 10
151.1893934461804
 20
83.0405815972222
 30
0.0
 10
149.0234619140624
 20
86.7922905815972
 30
0.0
 10
149.0234619140624
 20
86.7922905815972
 30
0.0
 10
150.4104573567708
 20
87.51162651909719
 30
0.0
 10
151.9638509114583
 20
87.95156521267356
 30
0.0
 10
153.6088840060763
 20
88.04079318576388
 30
0.0
 10
153.6088840060763
 20
88.04079318576388
 30
0.0
 10
153.6088840060763
 20
84.39140353732637
 30
0.0
 10
153.6088840060763
 20
84.39140353732637
 30
0.0
  0
SPLINE
  5
114
330
A
100
AcDbEntity
  8
0
 62
     7
100
AcDbSpline
210
0.0
220
0.0
230
1.0
 70
    11
 71
     3
 72
    17
 73
    13
 74
     0
 42
0.0000000001
 43
0.0000000001
 40
0.0
 40
0.0
 40
0.0
 40
0.0
 40
1.0
 40
1.0
 40
1.0
 40
2.0
 40
2.0
 40
2.0
 40
3.0
 40
3.0
 40
3.0
 40
4.0
 40
4.0
 40
4.0
 40
4.0
 10
153.6088840060763
 20
89.24037543402778
 30
0.0
 10
151.7454318576388
 20
89.14942491319445
 30
0.0
 10
149.9870551215277
 20
88.65298665364582
 30
0.0
 10
148.4229817708333
 20
87.83270941840276
 30
0.0
 10
148.4229817708333
 20
87.83270941840276
 30
0.0
 10
147.0835286458333
 20
90.15263671875
 30
0.0
 10
147.0835286458333
 20
90.15263671875
 30
0.0
 10
149.0430989583333
 20
91.19925672743056
 30
0.0
 10
151.2589843749998
 20
91.82350802951388
 30
0.0
 10
153.6088840060763
 20
91.91824815538193
 30
0.0
 10
153.6088840060763
 20
91.91824815538193
 30
0.0
 10
153.6088840060763
 20
89.24037543402778
 30
0.0
 10
153.6088840060763
 20
89.24037543402778
 30
0.0
  0
SPLINE
  5
113
330
A
100
AcDbEntity
  8
0
 62
     7
100
AcDbSpline
210
0.0
220
0.0
230
1.0
 70
    11
 71
     3
 72
    17
 73
    13
 74
     0
 42
0.0000000001
 43
0.0000000001
 40
0.0
 40
0.0
 40
0.0
 40
0.0
 40
1.0
 40
1.0
 40
1.0
 40
2.0
 40
2.0
 40
2.0
 40
3.0
 40
3.0
 40
3.0
 40
4.0
 40
4.0
 40
4.0
 40
4.0
 10
153.6088840060763
 20
93.11817491319445
 30
0.0
 10
151.0405653211805
 20
93.02171223958332
 30
0.0
 10
148.620730251736
 20
92.33958333333331
 30
0.0
 10
146.4837375217014
 20
91.19167751736107
 30
0.0
 10
146.4837375217014
 20
91.19167751736107
 30
0.0
 10
145.2328233506944
 20
93.35864257812501
 30
0.0
 10
145.2328233506944
 20
93.35864257812501
 30
0.0
 10
147.740163845486
 20
94.70843098958331
 30
0.0
 10
150.5871907552083
 20
95.49976942274305
 30
0.0
 10
153.6088840060763
 20
95.58624131944444
 30
0.0
 10
153.6088840060763
 20
95.58624131944444
 30
0.0
 10
153.6088840060763
 20
93.11817491319445
 30
0.0
 10
153.6088840060763
 20
93.11817491319445
 30
0.0
  0
SPLINE
  5
112
330
A
100
AcDbEntity
  8
0
 62
     7
100
AcDbSpline
210
0.0
220
0.0
230
1.0
 70
    11
 71
     3
 72
    17
 73
    13
 74
     0
 42
0.0000000001
 43
0.0000000001
 40
0.0
 40
0.0
 40
0.0
 40
0.0
 40
1.0
 40
1.0
 40
1.0
 40
2.0
 40
2.0
 40
2.0
 40
3.0
 40
3.0
 40
3.0
 40
4.0
 40
4.0
 40
4.0
 40
4.0
 10
173.025786675347
 20
77.2734917534722
 30
0.0
 10
173.025786675347
 20
77.2734917534722
 30
0.0
 10
170.6369574652777
 20
77.2734917534722
 30
0.0
 10
170.6369574652777
 20
77.2734917534722
 30
0.0
 10
170.5494520399304
 20
79.82630750868054
 30
0.0
 10
169.8790364583333
 20
82.2309841579861
 30
0.0
 10
168.7511121961804
 20
84.36143120659719
 30
0.0
 10
168.7511121961804
 20
84.36143120659719
 30
0.0
 10
170.8347059461804
 20
85.56376953125001
 30
0.0
 10
170.8347059461804
 20
85.56376953125001
 30
0.0
 10
172.1596896701389
 20
83.07813313802084
 30
0.0
 10
172.9375922309026
 20
80.26142306857638
 30
0.0
 10
173.025786675347
 20
77.2734917534722
 30
0.0
  0
SPLINE
  5
111
330
A
100
AcDbEntity
  8
0
 62
     7
100
AcDbSpline
210
0.0
220
0.0
230
1.0
 70
    11
 71
     3
 72
    20
 73
    16
 74
     0
 42
0.0000000001
 43
0.0000000001
 40
0.0
 40
0.0
 40
0.0
 40
0.0
 40
1.0
 40
1.0
 40
1.0
 40
2.0
 40
2.0
 40
2.0
 40
3.0
 40
3.0
 40
3.0
 40
4.0
 40
4.0
 40
4.0
 40
5.0
 40
5.0
 40
5.0
 40
5.0
 10
168.1241048177083
 20
89.39884982638885
 30
0.0
 10
168.9088975694444
 20
88.53481987847223
 30
0.0
 10
169.6199652777776
 20
87.60188802083332
 30
0.0
 10
170.2359483506944
 20
86.60418836805556
 30
0.0
 10
170.2359483506944
 20
86.60418836805556
 30
0.0
 10
168.1530436197915
 20
85.40116102430554
 30
0.0
 10
168.1530436197915
 20
85.40116102430554
 30
0.0
 10
168.0496907552083
 20
85.56652560763888
 30
0.0
 10
167.9380696614583
 20
85.72603352864584
 30
0.0
 10
167.8292046440971
 20
85.88691948784722
 30
0.0
 10
168.257085503472
 20
86.4326226128472
 30
0.0
 10
168.5154676649305
 20
87.11819661458333
 30
0.0
 10
168.5154676649305
 20
87.86440429687498
 30
0.0
 10
168.5154676649305
 20
88.41975368923609
 30
0.0
 10
168.3735297309027
 20
88.94237467447915
 30
0.0
 10
168.1241048177083
 20
89.39884982638885
 30
0.0
  0
SPLINE
  5
110
330
A
100
AcDbEntity
  8
0
 62
     7
100
AcDbSpline
210
0.0
220
0.0
230
1.0
 70
    11
 71
     3
 72
    17
 73
    13
 74
     0
 42
0.0000000001
 43
0.0000000001
 40
0.0
 40
0.0
 40
0.0
 40
0.0
 40
1.0
 40
1.0
 40
1.0
 40
2.0
 40
2.0
 40
2.0
 40
3.0
 40
3.0
 40
3.0
 40
4.0
 40
4.0
 40
4.0
 40
4.0
 10
169.4366861979166
 20
77.2734917534722
 30
0.0
 10
169.4366861979166
 20
77.2734917534722
 30
0.0
 10
166.7598470052083
 20
77.2734917534722
 30
0.0
 10
166.7598470052083
 20
77.2734917534722
 30
0.0
 10
166.6764756944444
 20
79.12144097222221
 30
0.0
 10
166.1927842881944
 20
80.86500379774305
 30
0.0
 10
165.3921440972222
 20
82.42184244791666
 30
0.0
 10
165.3921440972222
 20
82.42184244791666
 30
0.0
 10
167.7120713975694
 20
83.76129557291667
 30
0.0
 10
167.7120713975694
 20
83.76129557291667
 30
0.0
 10
168.7380208333333
 20
81.80827094184026
 30
0.0
 10
169.3505588107638
 20
79.6078884548611
 30
0.0
 10
169.4366861979166
 20
77.2734917534722
 30
0.0
  0
SPLINE
  5
10F
330
A
100
AcDbEntity
  8
0
 62
     7
100
AcDbSpline
210
0.0
220
0.0
230
1.0
 70
    11
 71
     3
 72
    20
 73
    16
 74
     0
 42
0.0000000001
 43
0.0000000001
 40
0.0
 40
0.0
 40
0.0
 40
0.0
 40
1.0
 40
1.0
 40
1.0
 40
2.0
 40
2.0
 40
2.0
 40
3.0
 40
3.0
 40
3.0
 40
4.0
 40
4.0
 40
4.0
 40
5.0
 40
5.0
 40
5.0
 40
5.0
 10
162.5244466145833
 20
63.96060926649305
 30
0.0
 10
162.4438313802083
 20
63.90789930555555
 30
0.0
 10
162.3659722222221
 20
63.85139973958333
 30
0.0
 10
162.2839789496526
 20
63.80041232638888
 30
0.0
 10
162.2839789496526
 20
63.80041232638888
 30
0.0
 10
160.9445258246526
 20
66.12102864583333
 30
0.0
 10
160.9445258246526
 20
66.12102864583333
 30
0.0
 10
161.6114963107638
 20
66.54546440972223
 30
0.0
 10
162.2329915364583
 20
67.03432345920139
 30
0.0
 10
162.8069444444444
 20
67.57348090277777
 30
0.0
 10
162.3618381076388
 20
67.02226562499999
 30
0.0
 10
162.0938096788194
 20
66.32222222222222
 30
0.0
 10
162.0938096788194
 20
65.56016710069444
 30
0.0
 10
162.0938096788194
 20
64.97725694444444
 30
0.0
 10
162.2522840711805
 20
64.43224283854165
 30
0.0
 10
162.5244466145833
 20
63.96060926649305
 30
0.0
  0
SPLINE
  5
10E
330
A
100
AcDbEntity
  8
0
 62
     7
100
AcDbSpline
210
0.0
220
0.0
230
1.0
 70
    11
 71
     3
 72
    23
 73
    19
 74
     0
 42
0.0000000001
 43
0.0000000001
 40
0.0
 40
0.0
 40
0.0
 40
0.0
 40
1.0
 40
1.0
 40
1.0
 40
2.0
 40
2.0
 40
2.0
 40
3.0
 40
3.0
 40
3.0
 40
4.0
 40
4.0
 40
4.0
 40
5.0
 40
5.0
 40
5.0
 40
6.0
 40
6.0
 40
6.0
 40
6.0
 10
160.3437011718749
 20
67.16075846354165
 30
0.0
 10
160.3437011718749
 20
67.16075846354165
 30
0.0
 10
158.1409071180555
 20
70.97620171440969
 30
0.0
 10
158.1409071180555
 20
70.97620171440969
 30
0.0
 10
158.1409071180555
 20
70.97620171440969
 30
0.0
 10
159.3501356336805
 20
70.97620171440969
 30
0.0
 10
159.3501356336805
 20
70.97620171440969
 30
0.0
 10
159.3501356336805
 20
70.97620171440969
 30
0.0
 10
159.3501356336805
 20
70.99652777777777
 30
0.0
 10
159.3501356336805
 20
70.99652777777777
 30
0.0
 10
160.1859157986111
 20
71.01719835069444
 30
0.0
 10
160.9576171874999
 20
71.294873046875
 30
0.0
 10
161.5922037760415
 20
71.75307074652777
 30
0.0
 10
161.5922037760415
 20
71.75307074652777
 30
0.0
 10
163.7288519965276
 20
70.5197265625
 30
0.0
 10
163.7288519965276
 20
70.5197265625
 30
0.0
 10
162.849663628472
 20
69.17648383246528
 30
0.0
 10
161.6955566406249
 20
68.02892252604165
 30
0.0
 10
160.3437011718749
 20
67.16075846354165
 30
0.0
  0
SPLINE
  5
10D
330
A
100
AcDbEntity
  8
0
 62
     7
100
AcDbSpline
210
0.0
220
0.0
230
1.0
 70
    11
 71
     3
 72
    20
 73
    16
 74
     0
 42
0.0000000001
 43
0.0000000001
 40
0.0
 40
0.0
 40
0.0
 40
0.0
 40
1.0
 40
1.0
 40
1.0
 40
2.0
 40
2.0
 40
2.0
 40
3.0
 40
3.0
 40
3.0
 40
4.0
 40
4.0
 40
4.0
 40
5.0
 40
5.0
 40
5.0
 40
5.0
 10
162.8048773871526
 20
85.85315755208332
 30
0.0
 10
162.2584852430555
 20
86.36647677951387
 30
0.0
 10
161.6686848958333
 20
86.83432074652776
 30
0.0
 10
161.0368543836804
 20
87.24359809027779
 30
0.0
 10
161.0368543836804
 20
87.24359809027779
 30
0.0
 10
162.3769965277777
 20
89.56421440972219
 30
0.0
 10
162.3769965277777
 20
89.56421440972219
 30
0.0
 10
162.427294921875
 20
89.53217502170138
 30
0.0
 10
162.4748372395833
 20
89.49669053819444
 30
0.0
 10
162.5251356336804
 20
89.46430664062498
 30
0.0
 10
162.2522840711805
 20
88.99232855902781
 30
0.0
 10
162.0938096788194
 20
88.44696994357638
 30
0.0
 10
162.0938096788194
 20
87.86440429687498
 30
0.0
 10
162.0938096788194
 20
87.10303819444446
 30
0.0
 10
162.3611490885416
 20
86.40437282986109
 30
0.0
 10
162.8048773871526
 20
85.85315755208332
 30
0.0
  0
SPLINE
  5
10C
330
A
100
AcDbEntity
  8
0
 62
     7
100
AcDbSpline
210
0.0
220
0.0
230
1.0
 70
    11
 71
     3
 72
    29
 73
    25
 74
     0
 42
0.0000000001
 43
0.0000000001
 40
0.0
 40
0.0
 40
0.0
 40
0.0
 40
1.0
 40
1.0
 40
1.0
 40
2.0
 40
2.0
 40
2.0
 40
3.0
 40
3.0
 40
3.0
 40
4.0
 40
4.0
 40
4.0
 40
5.0
 40
5.0
 40
5.0
 40
6.0
 40
6.0
 40
6.0
 40
7.0
 40
7.0
 40
7.0
 40
8.0
 40
8.0
 40
8.0
 40
8.0
 10
163.7564127604165
 20
82.86315917968748
 30
0.0
 10
163.7564127604165
 20
82.86315917968748
 30
0.0
 10
158.4819715711805
 20
79.81769476996527
 30
0.0
 10
158.4819715711805
 20
79.81769476996527
 30
0.0
 10
158.4819715711805
 20
79.81769476996527
 30
0.0
 10
158.2284125434027
 20
80.08606770833333
 30
0.0
 10
158.2284125434027
 20
80.08606770833333
 30
0.0
 10
158.2270345052083
 20
80.06401909722219
 30
0.0
 10
158.226345486111
 20
80.0426595052083
 30
0.0
 10
158.226345486111
 20
80.02061089409719
 30
0.0
 10
158.226345486111
 20
80.01440972222217
 30
0.0
 10
158.2284125434027
 20
80.00820855034723
 30
0.0
 10
158.2284125434027
 20
80.00200737847221
 30
0.0
 10
158.2284125434027
 20
80.00200737847221
 30
0.0
 10
158.2215223524304
 20
80.03886990017361
 30
0.0
 10
158.2215223524304
 20
80.03886990017361
 30
0.0
 10
158.2849121093749
 20
80.68551432291666
 30
0.0
 10
158.1905164930555
 20
81.32285698784722
 30
0.0
 10
157.9569390190972
 20
81.90921223958332
 30
0.0
 10
157.9569390190972
 20
81.90921223958332
 30
0.0
 10
160.4367187499998
 20
86.20386827256941
 30
0.0
 10
160.4367187499998
 20
86.20386827256941
 30
0.0
 10
161.7623914930555
 20
85.33432617187498
 30
0.0
 10
162.8937608506944
 20
84.19331054687498
 30
0.0
 10
163.7564127604165
 20
82.86315917968748
 30
0.0
  0
SPLINE
  5
10B
330
A
100
AcDbEntity
  8
0
 62
     7
100
AcDbSpline
210
0.0
220
0.0
230
1.0
 70
    11
 71
     3
 72
    20
 73
    16
 74
     0
 42
0.0000000001
 43
0.0000000001
 40
0.0
 40
0.0
 40
0.0
 40
0.0
 40
1.0
 40
1.0
 40
1.0
 40
2.0
 40
2.0
 40
2.0
 40
3.0
 40
3.0
 40
3.0
 40
4.0
 40
4.0
 40
4.0
 40
5.0
 40
5.0
 40
5.0
 40
5.0
 10
162.4769042968748
 20
72.62812499999999
 30
0.0
 10
162.9688639322916
 20
73.2944064670139
 30
0.0
 10
163.2637641059026
 20
74.11468370225694
 30
0.0
 10
163.2637641059026
 20
75.00455186631942
 30
0.0
 10
163.2637641059026
 20
75.375244140625
 30
0.0
 10
163.2100206163194
 20
75.73284505208331
 30
0.0
 10
163.115625
 20
76.0739095052083
 30
0.0
 10
163.115625
 20
76.0739095052083
 30
0.0
 10
165.5561306423609
 20
76.0739095052083
 30
0.0
 10
165.5561306423609
 20
76.0739095052083
 30
0.0
 10
165.4651801215276
 20
74.45471462673609
 30
0.0
 10
165.0317871093749
 20
72.92715928819443
 30
0.0
 10
164.3296766493055
 20
71.55807834201389
 30
0.0
 10
164.3296766493055
 20
71.55807834201389
 30
0.0
 10
162.4769042968748
 20
72.62812499999999
 30
0.0
 10
162.4769042968748
 20
72.62812499999999
 30
0.0
  0
SPLINE
  5
10A
330
A
100
AcDbEntity
  8
0
 62
     7
100
AcDbSpline
210
0.0
220
0.0
230
1.0
 70
    11
 71
     3
 72
    17
 73
    13
 74
     0
 42
0.0000000001
 43
0.0000000001
 40
0.0
 40
0.0
 40
0.0
 40
0.0
 40
1.0
 40
1.0
 40
1.0
 40
2.0
 40
2.0
 40
2.0
 40
3.0
 40
3.0
 40
3.0
 40
4.0
 40
4.0
 40
4.0
 40
4.0
 10
162.5526963975694
 20
77.2734917534722
 30
0.0
 10
161.8671223958333
 20
78.26430121527778
 30
0.0
 10
160.7509114583333
 20
78.93471679687498
 30
0.0
 10
159.4741590711805
 20
79.00499674479165
 30
0.0
 10
159.4741590711805
 20
79.00499674479165
 30
0.0
 10
164.3531032986109
 20
81.82170681423611
 30
0.0
 10
164.3531032986109
 20
81.82170681423611
 30
0.0
 10
165.0524576822915
 20
80.44263509114582
 30
0.0
 10
165.4789605034721
 20
78.90336642795137
 30
0.0
 10
165.559575737847
 20
77.2734917534722
 30
0.0
 10
165.559575737847
 20
77.2734917534722
 30
0.0
 10
162.5526963975694
 20
77.2734917534722
 30
0.0
 10
162.5526963975694
 20
77.2734917534722
 30
0.0
  0
SPLINE
  5
109
330
A
100
AcDbEntity
  8
0
 62
     7
100
AcDbSpline
210
0.0
220
0.0
230
1.0
 70
    11
 71
     3
 72
    20
 73
    16
 74
     0
 42
0.0000000001
 43
0.0000000001
 40
0.0
 40
0.0
 40
0.0
 40
0.0
 40
1.0
 40
1.0
 40
1.0
 40
2.0
 40
2.0
 40
2.0
 40
3.0
 40
3.0
 40
3.0
 40
4.0
 40
4.0
 40
4.0
 40
5.0
 40
5.0
 40
5.0
 40
5.0
 10
167.1146918402777
 20
84.80205891927081
 30
0.0
 10
167.1146918402777
 20
84.80205891927081
 30
0.0
 10
164.7982096354166
 20
83.4643283420139
 30
0.0
 10
164.7982096354166
 20
83.4643283420139
 30
0.0
 10
164.3627495659721
 20
84.14232313368056
 30
0.0
 10
163.8611436631944
 20
84.77312011718748
 30
0.0
 10
163.3078613281249
 20
85.35430772569444
 30
0.0
 10
163.8563205295138
 20
84.9167805989583
 30
0.0
 10
164.5501627604166
 20
84.65323079427081
 30
0.0
 10
165.3046386718749
 20
84.65323079427081
 30
0.0
 10
165.8937499999999
 20
84.65323079427081
 30
0.0
 10
166.4442762586805
 20
84.81549479166666
 30
0.0
 10
166.9196994357638
 20
85.09351399739582
 30
0.0
 10
166.9837782118055
 20
84.99601779513886
 30
0.0
 10
167.0519911024304
 20
84.9009331597222
 30
0.0
 10
167.1146918402777
 20
84.80205891927081
 30
0.0
  0
SPLINE
  5
108
330
A
100
AcDbEntity
  8
0
 62
     7
100
AcDbSpline
210
0.0
220
0.0
230
1.0
 70
    11
 71
     3
 72
    17
 73
    13
 74
     0
 42
0.0000000001
 43
0.0000000001
 40
0.0
 40
0.0
 40
0.0
 40
0.0
 40
1.0
 40
1.0
 40
1.0
 40
2.0
 40
2.0
 40
2.0
 40
3.0
 40
3.0
 40
3.0
 40
4.0
 40
4.0
 40
4.0
 40
4.0
 10
164.3000488281249
 20
87.86440429687498
 30
0.0
 10
164.3000488281249
 20
88.41906467013888
 30
0.0
 10
164.7499782986111
 20
88.86899414062495
 30
0.0
 10
165.3046386718749
 20
88.86899414062495
 30
0.0
 10
165.8592990451388
 20
88.86899414062495
 30
0.0
 10
166.3092285156249
 20
88.41906467013888
 30
0.0
 10
166.3092285156249
 20
87.86440429687498
 30
0.0
 10
166.3092285156249
 20
87.3093994140625
 30
0.0
 10
165.8592990451388
 20
86.85981445312497
 30
0.0
 10
165.3046386718749
 20
86.85981445312497
 30
0.0
 10
164.7499782986111
 20
86.85981445312497
 30
0.0
 10
164.3000488281249
 20
87.3093994140625
 30
0.0
 10
164.3000488281249
 20
87.86440429687498
 30
0.0
  0
SPLINE
  5
107
330
A
100
AcDbEntity
  8
0
 62
     7
100
AcDbSpline
210
0.0
220
0.0
230
1.0
 70
    11
 71
     3
 72
    20
 73
    16
 74
     0
 42
0.0000000001
 43
0.0000000001
 40
0.0
 40
0.0
 40
0.0
 40
0.0
 40
1.0
 40
1.0
 40
1.0
 40
2.0
 40
2.0
 40
2.0
 40
3.0
 40
3.0
 40
3.0
 40
4.0
 40
4.0
 40
4.0
 40
5.0
 40
5.0
 40
5.0
 40
5.0
 10
166.8521755642361
 20
90.67594672309024
 30
0.0
 10
166.3925998263888
 20
90.92985026041665
 30
0.0
 10
165.8655002170138
 20
91.07523328993055
 30
0.0
 10
165.3046386718749
 20
91.07523328993055
 30
0.0
 10
164.5522298177083
 20
91.07523328993055
 30
0.0
 10
163.8611436631944
 20
90.81306152343747
 30
0.0
 10
163.3126844618055
 20
90.37794596354164
 30
0.0
 10
163.2003743489583
 20
90.45304904513887
 30
0.0
 10
163.0915093315971
 20
90.53159722222218
 30
0.0
 10
162.9771321614583
 20
90.60394422743057
 30
0.0
 10
162.9771321614583
 20
90.60394422743057
 30
0.0
 10
164.1898057725694
 20
92.70476345486112
 30
0.0
 10
164.1898057725694
 20
92.70476345486112
 30
0.0
 10
165.1378960503471
 20
92.10738389756945
 30
0.0
 10
166.0274197048609
 20
91.42663302951389
 30
0.0
 10
166.8521755642361
 20
90.67594672309024
 30
0.0
  0
SPLINE
  5
106
330
A
100
AcDbEntity
  8
0
 62
     7
100
AcDbSpline
210
0.0
220
0.0
230
1.0
 70
    11
 71
     3
 72
    17
 73
    13
 74
     0
 42
0.0000000001
 43
0.0000000001
 40
0.0
 40
0.0
 40
0.0
 40
0.0
 40
1.0
 40
1.0
 40
1.0
 40
2.0
 40
2.0
 40
2.0
 40
3.0
 40
3.0
 40
3.0
 40
4.0
 40
4.0
 40
4.0
 40
4.0
 10
154.8088107638888
 20
95.58658582899305
 30
0.0
 10
157.8218912760416
 20
95.48288845486107
 30
0.0
 10
160.6599609374999
 20
94.67535807291664
 30
0.0
 10
163.1569661458333
 20
93.31557888454858
 30
0.0
 10
163.1569661458333
 20
93.31557888454858
 30
0.0
 10
161.940847439236
 20
91.20924750434028
 30
0.0
 10
161.940847439236
 20
91.20924750434028
 30
0.0
 10
159.8000651041665
 20
92.35267469618056
 30
0.0
 10
157.3788519965276
 20
93.03308105468749
 30
0.0
 10
154.8088107638888
 20
93.122998046875
 30
0.0
 10
154.8088107638888
 20
93.122998046875
 30
0.0
 10
154.8088107638888
 20
95.58658582899305
 30
0.0
 10
154.8088107638888
 20
95.58658582899305
 30
0.0
  0
SPLINE
  5
105
330
A
100
AcDbEntity
  8
0
 62
     7
100
AcDbSpline
210
0.0
220
0.0
230
1.0
 70
    11
 71
     3
 72
    17
 73
    13
 74
     0
 42
0.0000000001
 43
0.0000000001
 40
0.0
 40
0.0
 40
0.0
 40
0.0
 40
1.0
 40
1.0
 40
1.0
 40
2.0
 40
2.0
 40
2.0
 40
3.0
 40
3.0
 40
3.0
 40
4.0
 40
4.0
 40
4.0
 40
4.0
 10
154.8088107638888
 20
91.92307128906248
 30
0.0
 10
157.1604329427083
 20
91.83453233506943
 30
0.0
 10
159.3770073784722
 20
91.21097005208332
 30
0.0
 10
161.3407118055554
 20
90.16917317708331
 30
0.0
 10
161.3407118055554
 20
90.16917317708331
 30
0.0
 10
160.0005696614583
 20
87.84786783854166
 30
0.0
 10
160.0005696614583
 20
87.84786783854166
 30
0.0
 10
158.4330512152776
 20
88.66366644965276
 30
0.0
 10
156.6739854600694
 20
89.15976019965276
 30
0.0
 10
154.8088107638888
 20
89.24485405815969
 30
0.0
 10
154.8088107638888
 20
89.24485405815969
 30
0.0
 10
154.8088107638888
 20
91.92307128906248
 30
0.0
 10
154.8088107638888
 20
91.92307128906248
 30
0.0
  0
SPLINE
  5
104
330
A
100
AcDbEntity
  8
0
 62
     7
100
AcDbSpline
210
0.0
220
0.0
230
1.0
 70
    11
 71
     3
 72
    17
 73
    13
 74
     0
 42
0.0000000001
 43
0.0000000001
 40
0.0
 40
0.0
 40
0.0
 40
0.0
 40
1.0
 40
1.0
 40
1.0
 40
2.0
 40
2.0
 40
2.0
 40
3.0
 40
3.0
 40
3.0
 40
4.0
 40
4.0
 40
4.0
 40
4.0
 10
154.8088107638888
 20
88.04492730034722
 30
0.0
 10
156.4562554253472
 20
87.96155598958332
 30
0.0
 10
158.0099934895833
 20
87.52265082465276
 30
0.0
 10
159.3997450086805
 20
86.80813802083333
 30
0.0
 10
159.3997450086805
 20
86.80813802083333
 30
0.0
 10
157.2424262152777
 20
83.07089843749997
 30
0.0
 10
157.2424262152777
 20
83.07089843749997
 30
0.0
 10
156.6099066840276
 20
83.79333496093748
 30
0.0
 10
155.7562120225694
 20
84.25601128472221
 30
0.0
 10
154.8088107638888
 20
84.39381510416666
 30
0.0
 10
154.8088107638888
 20
84.39381510416666
 30
0.0
 10
154.8088107638888
 20
88.04492730034722
 30
0.0
 10
154.8088107638888
 20
88.04492730034722
 30
0.0
  0
SPLINE
  5
103
330
A
100
AcDbEntity
  8
0
 62
     7
100
AcDbSpline
210
0.0
220
0.0
230
1.0
 70
    11
 71
     3
 72
    17
 73
    13
 74
     0
 42
0.0000000001
 43
0.0000000001
 40
0.0
 40
0.0
 40
0.0
 40
0.0
 40
1.0
 40
1.0
 40
1.0
 40
2.0
 40
2.0
 40
2.0
 40
3.0
 40
3.0
 40
3.0
 40
4.0
 40
4.0
 40
4.0
 40
4.0
 10
154.8088107638888
 20
70.97620171440969
 30
0.0
 10
154.8088107638888
 20
70.97620171440969
 30
0.0
 10
156.7552897135415
 20
70.97620171440969
 30
0.0
 10
156.7552897135415
 20
70.97620171440969
 30
0.0
 10
156.7552897135415
 20
70.97620171440969
 30
0.0
 10
159.301904296875
 20
66.5661349826389
 30
0.0
 10
159.301904296875
 20
66.5661349826389
 30
0.0
 10
157.9369574652776
 20
65.88090549045138
 30
0.0
 10
156.4169813368055
 20
65.46060384114582
 30
0.0
 10
154.8088107638888
 20
65.37895507812497
 30
0.0
 10
154.8088107638888
 20
65.37895507812497
 30
0.0
 10
154.8088107638888
 20
70.97620171440969
 30
0.0
 10
154.8088107638888
 20
70.97620171440969
 30
0.0
  0
SPLINE
  5
102
330
A
100
AcDbEntity
  8
0
 62
     7
100
AcDbSpline
210
0.0
220
0.0
230
1.0
 70
    11
 71
     3
 72
    17
 73
    13
 74
     0
 42
0.0000000001
 43
0.0000000001
 40
0.0
 40
0.0
 40
0.0
 40
0.0
 40
1.0
 40
1.0
 40
1.0
 40
2.0
 40
2.0
 40
2.0
 40
3.0
 40
3.0
 40
3.0
 40
4.0
 40
4.0
 40
4.0
 40
4.0
 10
154.8088107638888
 20
64.17937282986111
 30
0.0
 10
156.635400390625
 20
64.26274414062497
 30
0.0
 10
158.3593261718748
 20
64.740234375
 30
0.0
 10
159.9020399305555
 20
65.52571614583333
 30
0.0
 10
159.9020399305555
 20
65.52571614583333
 30
0.0
 10
161.2421820746527
 20
63.20475531684028
 30
0.0
 10
161.2421820746527
 20
63.20475531684028
 30
0.0
 10
159.3032823350694
 20
62.19361979166666
 30
0.0
 10
157.1218478732638
 20
61.58866102430554
 30
0.0
 10
154.8088107638888
 20
61.50115559895833
 30
0.0
 10
154.8088107638888
 20
61.50115559895833
 30
0.0
 10
154.8088107638888
 20
64.17937282986111
 30
0.0
 10
154.8088107638888
 20
64.17937282986111
 30
0.0
  0
SPLINE
  5
101
330
A
100
AcDbEntity
  8
0
 62
     7
100
AcDbSpline
210
0.0
220
0.0
230
1.0
 70
    11
 71
     3
 72
    17
 73
    13
 74
     0
 42
0.0000000001
 43
0.0000000001
 40
0.0
 40
0.0
 40
0.0
 40
0.0
 40
1.0
 40
1.0
 40
1.0
 40
2.0
 40
2.0
 40
2.0
 40
3.0
 40
3.0
 40
3.0
 40
4.0
 40
4.0
 40
4.0
 40
4.0
 10
154.8088107638888
 20
57.83764105902777
 30
0.0
 10
154.8088107638888
 20
57.83764105902777
 30
0.0
 10
154.8088107638888
 20
60.30122884114582
 30
0.0
 10
154.8088107638888
 20
60.30122884114582
 30
0.0
 10
157.3402669270833
 20
60.38976779513888
 30
0.0
 10
159.7263400607638
 20
61.05260416666666
 30
0.0
 10
161.8430067274305
 20
62.16468098958333
 30
0.0
 10
161.8430067274305
 20
62.16468098958333
 30
0.0
 10
163.0591254340276
 20
60.05800509982638
 30
0.0
 10
163.0591254340276
 20
60.05800509982638
 30
0.0
 10
160.5855468749998
 20
58.72992078993053
 30
0.0
 10
157.7833062065971
 20
57.93996039496527
 30
0.0
 10
154.8088107638888
 20
57.83764105902777
 30
0.0
  0
SPLINE
  5
100
330
A
100
AcDbEntity
  8
0
 62
     7
100
AcDbSpline
210
0.0
220
0.0
230
1.0
 70
    11
 71
     3
 72
    20
 73
    16
 74
     0
 42
0.0000000001
 43
0.0000000001
 40
0.0
 40
0.0
 40
0.0
 40
0.0
 40
1.0
 40
1.0
 40
1.0
 40
2.0
 40
2.0
 40
2.0
 40
3.0
 40
3.0
 40
3.0
 40
4.0
 40
4.0
 40
4.0
 40
5.0
 40
5.0
 40
5.0
 40
5.0
 10
164.0967881944443
 20
60.66020779079861
 30
0.0
 10
164.0967881944443
 20
60.66020779079861
 30
0.0
 10
162.8841145833333
 20
62.76068250868053
 30
0.0
 10
162.8841145833333
 20
62.76068250868053
 30
0.0
 10
163.0301866319444
 20
62.85163302951389
 30
0.0
 10
163.1707465277776
 20
62.95016276041666
 30
0.0
 10
163.3133734809026
 20
63.04524739583333
 30
0.0
 10
163.8618326822916
 20
62.61082085503472
 30
0.0
 10
164.5522298177083
 20
62.34899359809027
 30
0.0
 10
165.3046386718749
 20
62.34899359809027
 30
0.0
 10
165.8641221788194
 20
62.34899359809027
 30
0.0
 10
166.3898437499998
 20
62.49334309895832
 30
0.0
 10
166.8487304687499
 20
62.74621310763888
 30
0.0
 10
165.9971028645833
 20
61.97175564236109
 30
0.0
 10
165.0786404079861
 20
61.27033420138888
 30
0.0
 10
164.0967881944443
 20
60.66020779079861
 30
0.0
  0
SPLINE
  5
FF
330
A
100
AcDbEntity
  8
0
 62
     7
100
AcDbSpline
210
0.0
220
0.0
230
1.0
 70
    11
 71
     3
 72
    17
 73
    13
 74
     0
 42
0.0000000001
 43
0.0000000001
 40
0.0
 40
0.0
 40
0.0
 40
0.0
 40
1.0
 40
1.0
 40
1.0
 40
2.0
 40
2.0
 40
2.0
 40
3.0
 40
3.0
 40
3.0
 40
4.0
 40
4.0
 40
4.0
 40
4.0
 10
164.3000488281249
 20
65.56016710069444
 30
0.0
 10
164.3000488281249
 20
66.11482747395831
 30
0.0
 10
164.7499782986111
 20
66.56475694444444
 30
0.0
 10
165.3046386718749
 20
66.56475694444444
 30
0.0
 10
165.8592990451388
 20
66.56475694444444
 30
0.0
 10
166.3092285156249
 20
66.11482747395831
 30
0.0
 10
166.3092285156249
 20
65.56016710069444
 30
0.0
 10
166.3092285156249
 20
65.00516221788193
 30
0.0
 10
165.8592990451388
 20
64.55557725694443
 30
0.0
 10
165.3046386718749
 20
64.55557725694443
 30
0.0
 10
164.7499782986111
 20
64.55557725694443
 30
0.0
 10
164.3000488281249
 20
65.00516221788193
 30
0.0
 10
164.3000488281249
 20
65.56016710069444
 30
0.0
  0
SPLINE
  5
FE
330
A
100
AcDbEntity
  8
0
 62
     7
100
AcDbSpline
210
0.0
220
0.0
230
1.0
 70
    11
 71
     3
 72
    20
 73
    16
 74
     0
 42
0.0000000001
 43
0.0000000001
 40
0.0
 40
0.0
 40
0.0
 40
0.0
 40
1.0
 40
1.0
 40
1.0
 40
2.0
 40
2.0
 40
2.0
 40
3.0
 40
3.0
 40
3.0
 40
4.0
 40
4.0
 40
4.0
 40
5.0
 40
5.0
 40
5.0
 40
5.0
 10
166.9196994357638
 20
68.33036838107638
 30
0.0
 10
166.4442762586805
 20
68.60838758680554
 30
0.0
 10
165.8937499999999
 20
68.77099609375
 30
0.0
 10
165.3046386718749
 20
68.77099609375
 30
0.0
 10
164.5494737413194
 20
68.77099609375
 30
0.0
 10
163.8556315104166
 20
68.50710177951389
 30
0.0
 10
163.3064832899304
 20
68.06888563368054
 30
0.0
 10
163.8494303385416
 20
68.63835991753473
 30
0.0
 10
164.3420789930555
 20
69.2550320095486
 30
0.0
 10
164.7713378906249
 20
69.91786838107639
 30
0.0
 10
164.7713378906249
 20
69.91786838107639
 30
0.0
 10
167.0885091145833
 20
68.58013780381944
 30
0.0
 10
167.0885091145833
 20
68.58013780381944
 30
0.0
 10
167.0340766059027
 20
68.4953884548611
 30
0.0
 10
166.9755099826388
 20
68.41408420138889
 30
0.0
 10
166.9196994357638
 20
68.33036838107638
 30
0.0
  0
SPLINE
  5
FD
330
A
100
AcDbEntity
  8
0
 62
     7
100
AcDbSpline
210
0.0
220
0.0
230
1.0
 70
    11
 71
     3
 72
    17
 73
    13
 74
     0
 42
0.0000000001
 43
0.0000000001
 40
0.0
 40
0.0
 40
0.0
 40
0.0
 40
1.0
 40
1.0
 40
1.0
 40
2.0
 40
2.0
 40
2.0
 40
3.0
 40
3.0
 40
3.0
 40
4.0
 40
4.0
 40
4.0
 40
4.0
 10
165.3694064670138
 20
70.9579427083333
 30
0.0
 10
166.1721137152777
 20
72.50479058159722
 30
0.0
 10
166.6626953124998
 20
74.23664008246527
 30
0.0
 10
166.7557128906248
 20
76.0739095052083
 30
0.0
 10
166.7557128906248
 20
76.0739095052083
 30
0.0
 10
169.4332411024304
 20
76.0739095052083
 30
0.0
 10
169.4332411024304
 20
76.0739095052083
 30
0.0
 10
169.3367784288193
 20
73.74984809027776
 30
0.0
 10
168.7173502604165
 20
71.5615234375
 30
0.0
 10
167.6886447482638
 20
69.61917860243054
 30
0.0
 10
167.6886447482638
 20
69.61917860243054
 30
0.0
 10
165.3694064670138
 20
70.9579427083333
 30
0.0
 10
165.3694064670138
 20
70.9579427083333
 30
0.0
  0
SPLINE
  5
FC
330
A
100
AcDbEntity
  8
0
 62
     7
100
AcDbSpline
210
0.0
220
0.0
230
1.0
 70
    11
 71
     3
 72
    20
 73
    16
 74
     0
 42
0.0000000001
 43
0.0000000001
 40
0.0
 40
0.0
 40
0.0
 40
0.0
 40
1.0
 40
1.0
 40
1.0
 40
2.0
 40
2.0
 40
2.0
 40
3.0
 40
3.0
 40
3.0
 40
4.0
 40
4.0
 40
4.0
 40
5.0
 40
5.0
 40
5.0
 40
5.0
 10
168.1185926649304
 20
64.01676432291665
 30
0.0
 10
168.3707736545138
 20
64.47496202256944
 30
0.0
 10
168.5154676649305
 20
65.00068359374999
 30
0.0
 10
168.5154676649305
 20
65.56016710069444
 30
0.0
 10
168.5154676649305
 20
66.30568576388888
 30
0.0
 10
168.257085503472
 20
66.99125976562497
 30
0.0
 10
167.8292046440971
 20
67.53696289062499
 30
0.0
 10
167.9291124131944
 20
67.68441297743057
 30
0.0
 10
168.0317762586805
 20
67.82979600694443
 30
0.0
 10
168.1268608940972
 20
67.98069118923611
 30
0.0
 10
168.1268608940972
 20
67.98069118923611
 30
0.0
 10
170.210454644097
 20
66.7776638454861
 30
0.0
 10
170.210454644097
 20
66.7776638454861
 30
0.0
 10
169.5986056857638
 20
65.79236653645833
 30
0.0
 10
168.8958062065972
 20
64.87045898437499
 30
0.0
 10
168.1185926649304
 20
64.01676432291665
 30
0.0
  0
SPLINE
  5
FB
330
A
100
AcDbEntity
  8
0
 62
     7
100
AcDbSpline
210
0.0
220
0.0
230
1.0
 70
    11
 71
     3
 72
    17
 73
    13
 74
     0
 42
0.0000000001
 43
0.0000000001
 40
0.0
 40
0.0
 40
0.0
 40
0.0
 40
1.0
 40
1.0
 40
1.0
 40
2.0
 40
2.0
 40
2.0
 40
3.0
 40
3.0
 40
3.0
 40
4.0
 40
4.0
 40
4.0
 40
4.0
 10
168.7283745659721
 20
69.01904296875
 30
0.0
 10
169.8583658854165
 20
71.13881022135416
 30
0.0
 10
170.5349826388887
 20
73.53177354600693
 30
0.0
 10
170.6335123697915
 20
76.0739095052083
 30
0.0
 10
170.6335123697915
 20
76.0739095052083
 30
0.0
 10
173.0326768663193
 20
76.0739095052083
 30
0.0
 10
173.0326768663193
 20
76.0739095052083
 30
0.0
 10
172.9334581163193
 20
73.0959689670139
 30
0.0
 10
172.1397081163193
 20
70.29235026041665
 30
0.0
 10
170.8112792968749
 20
67.81601562499999
 30
0.0
 10
170.8112792968749
 20
67.81601562499999
 30
0.0
 10
168.7283745659721
 20
69.01904296875
 30
0.0
 10
168.7283745659721
 20
69.01904296875
 30
0.0
  0
MTEXT
  5
FA
330
A
100
AcDbEntity
  8
0
 62
     7
100
AcDbMText
 10
84.60919999999999
 20
239.693023
 30
0.0
 40
2.847891
 41
0.0
 71
     1
 72
     2
  1
\W0.90;\fMSGothic|b0|i0|c128;R-13
  7
STD
 11
0.9171722974507449
 21
-0.3984908741601525
 31
0.0
 73
     1
 44
1.0
  0
MTEXT
  5
F9
330
A
100
AcDbEntity
  8
0
 62
     7
100
AcDbMText
 10
54.846806
 20
236.6226669999999
 30
0.0
 40
2.847891
 41
0.0
 71
     1
 72
     2
  1
\W0.90;\fMSGothic|b0|i0|c128;R-13
  7
STD
 11
0.8920154765294977
 21
0.4520048557613661
 31
0.0
 73
     1
 44
1.0
  0
LINE
  5
F8
330
A
100
AcDbEntity
  8
0
 62
     7
100
AcDbLine
 10
80.11035600000003
 20
239.8499589999999
 30
0.0
 11
82.84438299999997
 21
238.87982
 31
0.0
  0
LINE
  5
F7
330
A
100
AcDbEntity
  8
0
 62
     7
100
AcDbLine
 10
61.413133
 20
238.3451419999999
 30
0.0
 11
64.14716099999999
 21
239.679083
 31
0.0
  0
POLYLINE
  5
F2
330
A
100
AcDbEntity
  8
0
 62
     7
100
AcDb2dPolyline
 66
     1
 10
0.0
 20
0.0
 30
0.0
  0
VERTEX
  5
F3
330
F2
100
AcDbEntity
  8
0
 62
     7
100
AcDbVertex
100
AcDb2dVertex
 10
72.61382799999998
 20
249.1103759999999
 30
0.0
  0
VERTEX
  5
F4
330
F2
100
AcDbEntity
  8
0
 62
     7
100
AcDbVertex
100
AcDb2dVertex
 10
73.936745
 20
251.050654
 30
0.0
  0
VERTEX
  5
F5
330
F2
100
AcDbEntity
  8
0
 62
     7
100
AcDbVertex
100
AcDb2dVertex
 10
77.288133
 20
251.050654
 30
0.0
  0
SEQEND
  5
F6
330
F2
100
AcDbEntity
  8
0
 62
     7
  0
MTEXT
  5
F1
330
A
100
AcDbEntity
  8
0
  6
AI9-LType5
 62
     7
100
AcDbMText
 10
77.552717
 20
252.4874339999999
 30
0.0
 40
2.847891
 41
0.0
 71
     1
 72
     2
  1
\W0.90;\fMSGothic|b0|i0|c128;R-13
  7
STD
 73
     1
 44
1.0
  0
LINE
  5
F0
330
A
100
AcDbEntity
  8
0
  6
AI9-LType5
 62
     7
100
AcDbLine
 10
72.07105300000002
 20
138.933122
 30
0.0
 11
72.07105300000002
 21
275.0147379999999
 31
0.0
  0
POLYLINE
  5
EA
330
A
100
AcDbEntity
  8
0
  6
AI9-LType8
 62
     7
100
AcDb2dPolyline
 66
     1
 10
0.0
 20
0.0
 30
0.0
 70
     1
  0
VERTEX
  5
EB
330
EA
100
AcDbEntity
  8
0
  6
AI9-LType8
 62
     7
100
AcDbVertex
100
AcDb2dVertex
 10
79.80563700000002
 20
141.179324
 30
0.0
  0
VERTEX
  5
EC
330
EA
100
AcDbEntity
  8
0
  6
AI9-LType8
 62
     7
100
AcDbVertex
100
AcDb2dVertex
 10
64.205556
 20
141.179324
 30
0.0
  0
VERTEX
  5
ED
330
EA
100
AcDbEntity
  8
0
  6
AI9-LType8
 62
     7
100
AcDbVertex
100
AcDb2dVertex
 10
64.205556
 20
151.112912
 30
0.0
  0
VERTEX
  5
EE
330
EA
100
AcDbEntity
  8
0
  6
AI9-LType8
 62
     7
100
AcDbVertex
100
AcDb2dVertex
 10
79.80563700000002
 20
151.112912
 30
0.0
  0
SEQEND
  5
EF
330
EA
100
AcDbEntity
  8
0
  6
AI9-LType8
 62
     7
  0
POLYLINE
  5
E3
330
A
100
AcDbEntity
  8
0
  6
AI9-LType7
 62
     7
100
AcDb2dPolyline
 66
     1
 10
0.0
 20
0.0
 30
0.0
 70
     1
  0
VERTEX
  5
E4
330
E3
100
AcDbEntity
  8
0
  6
AI9-LType7
 62
     7
100
AcDbVertex
100
AcDb2dVertex
 10
79.09853100000002
 20
141.179324
 30
0.0
  0
VERTEX
  5
E5
330
E3
100
AcDbEntity
  8
0
  6
AI9-LType7
 62
     7
100
AcDbVertex
100
AcDb2dVertex
 10
64.912661
 20
141.179324
 30
0.0
  0
VERTEX
  5
E6
330
E3
100
AcDbEntity
  8
0
  6
AI9-LType7
 62
     7
100
AcDbVertex
100
AcDb2dVertex
 10
64.912661
 20
151.112912
 30
0.0
  0
VERTEX
  5
E7
330
E3
100
AcDbEntity
  8
0
  6
AI9-LType7
 62
     7
100
AcDbVertex
100
AcDb2dVertex
 10
79.09853100000002
 20
151.112912
 30
0.0
  0
SEQEND
  5
E8
330
E3
100
AcDbEntity
  8
0
  6
AI9-LType7
 62
     7
  0
LINE
  5
E1
330
A
100
AcDbEntity
  8
0
 62
     7
100
AcDbLine
 10
51.678327
 20
140.530957
 30
0.0
 11
97.20491899999998
 21
140.530957
 31
0.0
  0
LINE
  5
E0
330
A
100
AcDbEntity
  8
0
 62
     7
100
AcDbLine
 10
82.561713
 20
150.995779
 30
0.0
 11
92.02849099999999
 21
140.952637
 31
0.0
  0
SPLINE
  5
DF
330
A
100
AcDbEntity
  8
0
 62
     7
100
AcDbSpline
210
0.0
220
0.0
230
1.0
 70
     8
 71
     3
 72
    11
 73
     7
 74
     0
 42
0.0000000001
 43
0.0000000001
 40
0.0
 40
0.0
 40
0.0
 40
0.0
 40
1.0
 40
1.0
 40
1.0
 40
2.0
 40
2.0
 40
2.0
 40
2.0
 10
97.53857693142359
 20
140.5309570312498
 30
0.0
 10
97.78662380642359
 20
140.497195095486
 30
0.0
 10
98.0153781467014
 20
140.6715169270833
 30
0.0
 10
98.04879557291666
 20
140.9202528211805
 30
0.0
 10
98.04948459201387
 20
140.9236979166666
 30
0.0
 10
98.04982910156248
 20
140.9285210503472
 30
0.0
 10
98.05051812065972
 20
140.9326551649305
 30
0.0
  0
CIRCLE
  5
DE
330
A
100
AcDbEntity
  8
0
 62
     7
100
AcDbCircle
 10
75.831203
 20
148.986599
 30
0.0
 40
1.40646
  0
CIRCLE
  5
DD
330
A
100
AcDbEntity
  8
0
 62
     7
100
AcDbCircle
 10
68.19661299999999
 20
148.986599
 30
0.0
 40
1.406545999999999
  0
CIRCLE
  5
DC
330
A
100
AcDbEntity
  8
0
 62
     7
100
AcDbCircle
 10
68.196699
 20
148.986599
 30
0.0
 40
1.203716
  0
CIRCLE
  5
DB
330
A
100
AcDbEntity
  8
0
 62
     7
100
AcDbCircle
 10
75.831203
 20
148.986599
 30
0.0
 40
1.203543999999999
  0
LINE
  5
DA
330
A
100
AcDbEntity
  8
0
  6
AI9-LType2
 62
     7
100
AcDbLine
 10
75.83137499999998
 20
145.97283
 30
0.0
 11
75.83137499999998
 21
150.995779
 31
0.0
  0
LINE
  5
D9
330
A
100
AcDbEntity
  8
0
  6
AI9-LType2
 62
     7
100
AcDbLine
 10
68.196699
 20
145.97283
 30
0.0
 11
68.196699
 21
150.995779
 31
0.0
  0
LINE
  5
D8
330
A
100
AcDbEntity
  8
0
  6
AI9-LType2
 62
     7
100
AcDbLine
 10
79.749137
 20
148.986599
 30
0.0
 11
64.278936
 21
148.986599
 31
0.0
  0
LINE
  5
D7
330
A
100
AcDbEntity
  8
0
 62
     7
100
AcDbLine
 10
91.59957699999999
 20
140.530957
 30
0.0
 11
52.367518
 21
140.530957
 31
0.0
  0
ELLIPSE
  5
D6
330
A
100
AcDbEntity
  8
0
 62
     7
100
AcDbEllipse
 10
60.798356
 20
145.306204
 30
0.0
 11
2.292366536458331
 21
2.607937282986109
 31
0.0
210
0.0
220
0.0
230
1.0
 40
0.4884260000000002
 41
0.0
 42
6.283185307179584
  0
ELLIPSE
  5
D5
330
A
100
AcDbEntity
  8
0
 62
     7
100
AcDbEllipse
 10
83.34805600000001
 20
145.306204
 30
0.0
 11
-2.292366536458331
 21
2.607937282986109
 31
0.0
210
0.0
220
0.0
230
1.0
 40
0.4884260000000002
 41
0.0
 42
6.283185307179584
  0
POLYLINE
  5
CD
330
A
100
AcDbEntity
  8
0
 62
     7
100
AcDb2dPolyline
 66
     1
 10
0.0
 20
0.0
 30
0.0
 70
     1
  0
VERTEX
  5
CE
330
CD
100
AcDbEntity
  8
0
 62
     7
100
AcDbVertex
100
AcDb2dVertex
 10
92.04916199999999
 20
140.882012
 30
0.0
  0
VERTEX
  5
CF
330
CD
100
AcDbEntity
  8
0
 62
     7
100
AcDbVertex
100
AcDb2dVertex
 10
91.766147
 20
140.5099419999999
 30
0.0
  0
VERTEX
  5
D0
330
CD
100
AcDbEntity
  8
0
 62
     7
100
AcDbVertex
100
AcDb2dVertex
 10
52.332206
 20
140.5099419999999
 30
0.0
  0
VERTEX
  5
D1
330
CD
100
AcDbEntity
  8
0
 62
     7
100
AcDbVertex
100
AcDb2dVertex
 10
52.02077
 20
140.910262
 30
0.0
  0
VERTEX
  5
D2
330
CD
100
AcDbEntity
  8
0
 62
     7
100
AcDbVertex
100
AcDb2dVertex
 10
61.47910699999999
 20
151.1125679999999
 30
0.0
  0
VERTEX
  5
D3
330
CD
100
AcDbEntity
  8
0
 62
     7
100
AcDbVertex
100
AcDb2dVertex
 10
82.52295600000001
 20
151.1125679999999
 30
0.0
  0
SEQEND
  5
D4
330
CD
100
AcDbEntity
  8
0
 62
     7
  0
LINE
  5
CC
330
A
100
AcDbEntity
  8
0
 62
     7
100
AcDbLine
 10
92.021601
 20
140.9626269999999
 30
0.0
 11
52.02077
 21
140.9626269999999
 31
0.0
  0
POLYLINE
  5
C6
330
A
100
AcDbEntity
  8
0
 62
   222
100
AcDb2dPolyline
 66
     1
 10
0.0
 20
0.0
 30
0.0
 70
     1
  0
VERTEX
  5
C7
330
C6
100
AcDbEntity
  8
0
 62
   222
100
AcDbVertex
100
AcDb2dVertex
 10
161.059937
 20
200.07616
 30
0.0
  0
VERTEX
  5
C8
330
C6
100
AcDbEntity
  8
0
 62
   222
100
AcDbVertex
100
AcDb2dVertex
 10
145.459855
 20
200.07616
 30
0.0
  0
VERTEX
  5
C9
330
C6
100
AcDbEntity
  8
0
 62
   222
100
AcDbVertex
100
AcDb2dVertex
 10
145.459855
 20
210.075549
 30
0.0
  0
VERTEX
  5
CA
330
C6
100
AcDbEntity
  8
0
 62
   222
100
AcDbVertex
100
AcDb2dVertex
 10
161.059937
 20
210.075549
 30
0.0
  0
SEQEND
  5
CB
330
C6
100
AcDbEntity
  8
0
 62
   222
  0
HATCH
  5
C5
330
A
100
AcDbEntity
  8
0
 62
   254
100
AcDbHatch
 10
0.0
 20
0.0
 30
0.0
210
0.0
220
0.0
230
1.0
  2
SOLID
 70
     1
 71
     0
 91
        1
 92
        3
 72
     0
 73
     1
 93
        4
 10
161.0599365234374
 20
200.0761596679686
 10
145.459855143229
 20
200.0761596679686
 10
145.459855143229
 20
210.0755493164061
 10
161.0599365234374
 20
210.0755493164061
 97
        0
 75
     0
 76
     1
 98
        1
 10
0.0
 20
0.0
  0
POLYLINE
  5
BF
330
A
100
AcDbEntity
  8
0
 62
   222
100
AcDb2dPolyline
 66
     1
 10
0.0
 20
0.0
 30
0.0
 70
     1
  0
VERTEX
  5
C0
330
BF
100
AcDbEntity
  8
0
 62
   222
100
AcDbVertex
100
AcDb2dVertex
 10
161.059937
 20
180.07962
 30
0.0
  0
VERTEX
  5
C1
330
BF
100
AcDbEntity
  8
0
 62
   222
100
AcDbVertex
100
AcDb2dVertex
 10
145.459855
 20
180.07962
 30
0.0
  0
VERTEX
  5
C2
330
BF
100
AcDbEntity
  8
0
 62
   222
100
AcDbVertex
100
AcDb2dVertex
 10
145.459855
 20
190.078148
 30
0.0
  0
VERTEX
  5
C3
330
BF
100
AcDbEntity
  8
0
 62
   222
100
AcDbVertex
100
AcDb2dVertex
 10
161.059937
 20
190.078148
 30
0.0
  0
SEQEND
  5
C4
330
BF
100
AcDbEntity
  8
0
 62
   222
  0
HATCH
  5
BE
330
A
100
AcDbEntity
  8
0
 62
   254
100
AcDbHatch
 10
0.0
 20
0.0
 30
0.0
210
0.0
220
0.0
230
1.0
  2
SOLID
 70
     1
 71
     0
 91
        1
 92
        3
 72
     0
 73
     1
 93
        4
 10
161.0599365234374
 20
180.0796196831596
 10
145.459855143229
 20
180.0796196831596
 10
145.459855143229
 20
190.0781480577256
 10
161.0599365234374
 20
190.0781480577256
 97
        0
 75
     0
 76
     1
 98
        1
 10
0.0
 20
0.0
  0
POLYLINE
  5
B8
330
A
100
AcDbEntity
  8
0
 62
     7
100
AcDb2dPolyline
 66
     1
 10
0.0
 20
0.0
 30
0.0
 70
     1
  0
VERTEX
  5
B9
330
B8
100
AcDbEntity
  8
0
 62
     7
100
AcDbVertex
100
AcDb2dVertex
 10
161.059937
 20
151.075361
 30
0.0
  0
VERTEX
  5
BA
330
B8
100
AcDbEntity
  8
0
 62
     7
100
AcDbVertex
100
AcDb2dVertex
 10
145.459855
 20
151.075361
 30
0.0
  0
VERTEX
  5
BB
330
B8
100
AcDbEntity
  8
0
 62
     7
100
AcDbVertex
100
AcDb2dVertex
 10
145.459855
 20
221.075395
 30
0.0
  0
VERTEX
  5
BC
330
B8
100
AcDbEntity
  8
0
 62
     7
100
AcDbVertex
100
AcDb2dVertex
 10
161.059937
 20
221.075395
 30
0.0
  0
SEQEND
  5
BD
330
B8
100
AcDbEntity
  8
0
 62
     7
  0
LINE
  5
B7
330
A
100
AcDbEntity
  8
0
 62
     7
100
AcDbLine
 10
146.413802
 20
221.075395
 30
0.0
 11
146.413802
 21
151.075705
 31
0.0
  0
LINE
  5
B6
330
A
100
AcDbEntity
  8
0
 62
     7
100
AcDbLine
 10
151.929744
 20
221.075395
 30
0.0
 11
151.929744
 21
151.075705
 31
0.0
  0
LINE
  5
B5
330
A
100
AcDbEntity
  8
0
 62
     7
100
AcDbLine
 10
150.9878549999999
 20
221.075395
 30
0.0
 11
150.9878549999999
 21
151.075705
 31
0.0
  0
LINE
  5
B4
330
A
100
AcDbEntity
  8
0
 62
     7
100
AcDbLine
 10
150.718793
 20
221.075395
 30
0.0
 11
150.718793
 21
151.075705
 31
0.0
  0
LINE
  5
B3
330
A
100
AcDbEntity
  8
0
 62
     7
100
AcDbLine
 10
150.315028
 20
221.075395
 30
0.0
 11
150.315028
 21
151.075705
 31
0.0
  0
LINE
  5
B2
330
A
100
AcDbEntity
  8
0
 62
     7
100
AcDbLine
 10
149.5078419999998
 20
221.075395
 30
0.0
 11
149.5078419999998
 21
151.075705
 31
0.0
  0
LINE
  5
B1
330
A
100
AcDbEntity
  8
0
 62
     7
100
AcDbLine
 10
145.688265
 20
221.075395
 30
0.0
 11
145.688265
 21
151.075705
 31
0.0
  0
LINE
  5
B0
330
A
100
AcDbEntity
  8
0
 62
     7
100
AcDbLine
 10
160.2048639999999
 20
221.075395
 30
0.0
 11
160.2048639999999
 21
151.075705
 31
0.0
  0
LINE
  5
AF
330
A
100
AcDbEntity
  8
0
 62
     7
100
AcDbLine
 10
154.6889209999999
 20
221.075395
 30
0.0
 11
154.6889209999999
 21
151.075705
 31
0.0
  0
LINE
  5
AE
330
A
100
AcDbEntity
  8
0
 62
     7
100
AcDbLine
 10
155.630811
 20
221.075395
 30
0.0
 11
155.630811
 21
151.075705
 31
0.0
  0
LINE
  5
AD
330
A
100
AcDbEntity
  8
0
 62
     7
100
AcDbLine
 10
155.8998729999999
 20
221.075395
 30
0.0
 11
155.8998729999999
 21
151.075705
 31
0.0
  0
LINE
  5
AC
330
A
100
AcDbEntity
  8
0
 62
     7
100
AcDbLine
 10
156.3036379999998
 20
221.075395
 30
0.0
 11
156.3036379999998
 21
151.075705
 31
0.0
  0
LINE
  5
AB
330
A
100
AcDbEntity
  8
0
 62
     7
100
AcDbLine
 10
157.110824
 20
221.075395
 30
0.0
 11
157.110824
 21
151.075705
 31
0.0
  0
LINE
  5
AA
330
A
100
AcDbEntity
  8
0
 62
     7
100
AcDbLine
 10
160.9304009999999
 20
221.075395
 30
0.0
 11
160.9304009999999
 21
151.075705
 31
0.0
  0
LINE
  5
A9
330
A
100
AcDbEntity
  8
0
 62
     7
100
AcDbLine
 10
145.586979
 20
220.2986979999999
 30
0.0
 11
160.930745
 21
220.2986979999999
 31
0.0
  0
LINE
  5
A8
330
A
100
AcDbEntity
  8
0
  6
AI9-LType5
 62
   222
100
AcDbLine
 10
153.3653159999999
 20
254.6227009999999
 30
0.0
 11
153.3653159999999
 21
231.990491
 31
0.0
  0
SPLINE
  5
A7
330
A
100
AcDbEntity
  8
0
 62
     7
100
AcDbSpline
210
0.0
220
0.0
230
1.0
 70
    11
 71
     3
 72
    35
 73
    31
 74
     0
 42
0.0000000001
 43
0.0000000001
 40
0.0
 40
0.0
 40
0.0
 40
0.0
 40
1.0
 40
1.0
 40
1.0
 40
2.0
 40
2.0
 40
2.0
 40
3.0
 40
3.0
 40
3.0
 40
4.0
 40
4.0
 40
4.0
 40
5.0
 40
5.0
 40
5.0
 40
6.0
 40
6.0
 40
6.0
 40
7.0
 40
7.0
 40
7.0
 40
8.0
 40
8.0
 40
8.0
 40
9.0
 40
9.0
 40
9.0
 40
10.0
 40
10.0
 40
10.0
 40
10.0
 10
147.9675401475693
 20
243.2972941080727
 30
0.0
 10
150.8900146484374
 20
243.0113511827256
 30
0.0
 10
150.5740993923611
 20
240.2759453667533
 30
0.0
 10
150.5740993923611
 20
240.2759453667533
 30
0.0
 10
150.5740993923611
 20
238.7421888563368
 30
0.0
 10
151.8170898437499
 20
237.4988538953993
 30
0.0
 10
153.3508463541665
 20
237.4988538953993
 30
0.0
 10
154.8846028645833
 20
237.4988538953993
 30
0.0
 10
156.1275933159722
 20
238.7421888563368
 30
0.0
 10
156.1275933159722
 20
240.2759453667533
 30
0.0
 10
156.1275933159722
 20
240.2759453667533
 30
0.0
 10
155.8437174479165
 20
243.0668172200521
 30
0.0
 10
158.7224392361109
 20
243.2972941080727
 30
0.0
 10
160.2513726128472
 20
243.4192504882811
 30
0.0
 10
161.4995307074652
 20
244.5402845594616
 30
0.0
 10
161.4995307074652
 20
246.0740410698783
 30
0.0
 10
161.4995307074652
 20
247.607797580295
 30
0.0
 10
160.2561957465276
 20
248.850788031684
 30
0.0
 10
158.7224392361109
 20
248.850788031684
 30
0.0
 10
158.7224392361109
 20
248.850788031684
 30
0.0
 10
153.1847927517361
 20
248.9682657877604
 30
0.0
 10
153.1847927517361
 20
248.9682657877604
 30
0.0
 10
153.1847927517361
 20
248.9682657877604
 30
0.0
 10
147.9675401475693
 20
248.850788031684
 30
0.0
 10
147.9675401475693
 20
248.850788031684
 30
0.0
 10
146.4337836371526
 20
248.850788031684
 30
0.0
 10
145.1907931857638
 20
247.607797580295
 30
0.0
 10
145.1907931857638
 20
246.0740410698783
 30
0.0
 10
145.1907931857638
 20
244.5402845594616
 30
0.0
 10
146.4413628472222
 20
243.4461222330728
 30
0.0
 10
147.9675401475693
 20
243.2972941080727
 30
0.0
  0
SPLINE
  5
A6
330
A
100
AcDbEntity
  8
0
  6
AI9-LType6
 62
     7
100
AcDbSpline
210
0.0
220
0.0
230
1.0
 70
    11
 71
     3
 72
    50
 73
    46
 74
     0
 42
0.0000000001
 43
0.0000000001
 40
0.0
 40
0.0
 40
0.0
 40
0.0
 40
1.0
 40
1.0
 40
1.0
 40
2.0
 40
2.0
 40
2.0
 40
3.0
 40
3.0
 40
3.0
 40
4.0
 40
4.0
 40
4.0
 40
5.0
 40
5.0
 40
5.0
 40
6.0
 40
6.0
 40
6.0
 40
7.0
 40
7.0
 40
7.0
 40
8.0
 40
8.0
 40
8.0
 40
9.0
 40
9.0
 40
9.0
 40
10.0
 40
10.0
 40
10.0
 40
11.0
 40
11.0
 40
11.0
 40
12.0
 40
12.0
 40
12.0
 40
13.0
 40
13.0
 40
13.0
 40
14.0
 40
14.0
 40
14.0
 40
15.0
 40
15.0
 40
15.0
 40
15.0
 10
155.5267686631944
 20
240.2680216471353
 30
0.0
 10
155.5240125868055
 20
240.3114298502603
 30
0.0
 10
155.5205674913194
 20
240.3734415690104
 30
0.0
 10
155.5205674913194
 20
240.4716267903645
 30
0.0
 10
155.5205674913194
 20
240.9394707573783
 30
0.0
 10
155.607728407118
 20
241.9547403971353
 30
0.0
 10
156.2874457465276
 20
242.7698499891493
 30
0.0
 10
156.8414171006944
 20
243.4340643988714
 30
0.0
 10
157.6448133680555
 20
243.8130249023436
 30
0.0
 10
158.6748969184026
 20
243.8953626844616
 30
0.0
 10
159.9640516493055
 20
243.9983710394965
 30
0.0
 10
160.8997395833333
 20
244.9144219292533
 30
0.0
 10
160.8997395833333
 20
246.0740410698783
 30
0.0
 10
160.8997395833333
 20
247.2743123372396
 30
0.0
 10
159.9227105034722
 20
248.2509969075521
 30
0.0
 10
158.7224392361109
 20
248.2509969075521
 30
0.0
 10
158.7224392361109
 20
248.2509969075521
 30
0.0
 10
153.1847927517361
 20
248.3681301540797
 30
0.0
 10
153.1847927517361
 20
248.3681301540797
 30
0.0
 10
153.1847927517361
 20
248.3681301540797
 30
0.0
 10
147.9675401475693
 20
248.2509969075521
 30
0.0
 10
147.9675401475693
 20
248.2509969075521
 30
0.0
 10
146.7672688802083
 20
248.2509969075521
 30
0.0
 10
145.7909288194444
 20
247.2743123372396
 30
0.0
 10
145.7909288194444
 20
246.0740410698783
 30
0.0
 10
145.7909288194444
 20
244.7862643771701
 30
0.0
 10
146.9150634765624
 20
244.0028496636283
 30
0.0
 10
148.0257622612846
 20
243.8943291558159
 30
0.0
 10
150.2978027343749
 20
243.6721204969616
 30
0.0
 10
150.932044813368
 20
242.1580010308158
 30
0.0
 10
151.1080891927083
 20
241.2753675672743
 30
0.0
 10
151.1694118923611
 20
240.9666870117186
 30
0.0
 10
151.194216579861
 20
240.7220852322048
 30
0.0
 10
151.194216579861
 20
240.5270928276908
 30
0.0
 10
151.194216579861
 20
240.4196058485241
 30
0.0
 10
151.1797471788194
 20
240.3431247287326
 30
0.0
 10
151.1666558159722
 20
240.263887532552
 30
0.0
 10
151.1673448350693
 20
240.2645765516491
 30
0.0
 10
151.1742350260416
 20
240.2759453667533
 30
0.0
 10
151.1742350260416
 20
240.2759453667533
 30
0.0
 10
151.1742350260416
 20
239.0753295898436
 30
0.0
 10
152.1505750868055
 20
238.0989895290798
 30
0.0
 10
153.3508463541665
 20
238.0989895290798
 30
0.0
 10
154.5483615451388
 20
238.0989895290798
 30
0.0
 10
155.522634548611
 20
239.0711954752604
 30
0.0
 10
155.5267686631944
 20
240.2680216471353
 30
0.0
  0
CIRCLE
  5
A4
330
A
100
AcDbEntity
  8
0
 62
     7
100
AcDbCircle
 10
153.31984
 20
246.777874
 30
0.0
 40
0.276297
  0
LINE
  5
A3
330
A
100
AcDbEntity
  8
0
 62
     7
100
AcDbLine
 10
145.191138
 20
260.826629
 30
0.0
 11
161.5040089999999
 21
260.826629
 31
0.0
  0
LINE
  5
A2
330
A
100
AcDbEntity
  8
0
 62
     7
100
AcDbLine
 10
145.191138
 20
253.0944569999999
 30
0.0
 11
145.191138
 21
260.826629
 31
0.0
  0
LINE
  5
A1
330
A
100
AcDbEntity
  8
0
 62
     7
100
AcDbLine
 10
161.4998749999999
 20
253.0944569999999
 30
0.0
 11
161.4998749999999
 21
260.826629
 31
0.0
  0
HATCH
  5
A0
330
A
100
AcDbEntity
  8
0
 62
     7
100
AcDbHatch
 10
0.0
 20
0.0
 30
0.0
210
0.0
220
0.0
230
1.0
  2
SOLID
 70
     1
 71
     0
 91
        1
 92
        1
 93
        1
 72
     4
 94
        3
 73
     0
 74
     0
 95
       17
 96
       13
 40
0.0
 40
0.0
 40
0.0
 40
0.0
 40
1.0
 40
1.0
 40
1.0
 40
2.0
 40
2.0
 40
2.0
 40
3.0
 40
3.0
 40
3.0
 40
4.0
 40
4.0
 40
4.0
 40
4.0
 10
145.3768283420138
 20
260.8328301323783
 10
145.3768283420138
 20
260.7280992296006
 10
145.2920789930554
 20
260.6433498806422
 10
145.1873480902776
 20
260.6433498806422
 10
145.0826171874998
 20
260.6433498806422
 10
144.9978678385416
 20
260.7280992296006
 10
144.9978678385416
 20
260.8328301323783
 10
144.9978678385416
 20
260.9375610351562
 10
145.0826171874998
 20
261.0223103841145
 10
145.1873480902776
 20
261.0223103841145
 10
145.2920789930554
 20
261.0223103841145
 10
145.3768283420138
 20
260.9375610351562
 10
145.3768283420138
 20
260.8328301323783
 97
        0
 75
     0
 76
     1
 98
        1
 10
0.0
 20
0.0
  0
HATCH
  5
9F
330
A
100
AcDbEntity
  8
0
 62
     7
100
AcDbHatch
 10
0.0
 20
0.0
 30
0.0
210
0.0
220
0.0
230
1.0
  2
SOLID
 70
     1
 71
     0
 91
        1
 92
        1
 93
        1
 72
     4
 94
        3
 73
     0
 74
     0
 95
       17
 96
       13
 40
0.0
 40
0.0
 40
0.0
 40
0.0
 40
1.0
 40
1.0
 40
1.0
 40
2.0
 40
2.0
 40
2.0
 40
3.0
 40
3.0
 40
3.0
 40
4.0
 40
4.0
 40
4.0
 40
4.0
 10
161.699001736111
 20
260.8328301323783
 10
161.699001736111
 20
260.7280992296006
 10
161.6142523871527
 20
260.6433498806422
 10
161.5095214843749
 20
260.6433498806422
 10
161.404790581597
 20
260.6433498806422
 10
161.3200412326388
 20
260.7280992296006
 10
161.3200412326388
 20
260.8328301323783
 10
161.3200412326388
 20
260.9375610351562
 10
161.404790581597
 20
261.0223103841145
 10
161.5095214843749
 20
261.0223103841145
 10
161.6142523871527
 20
261.0223103841145
 10
161.699001736111
 20
260.9375610351562
 10
161.699001736111
 20
260.8328301323783
 97
        0
 75
     0
 76
     1
 98
        1
 10
0.0
 20
0.0
  0
MTEXT
  5
9E
330
A
100
AcDbEntity
  8
0
 62
     7
100
AcDbMText
 10
149.0224279999999
 20
264.6708549999999
 30
0.0
 40
2.624835
 41
0.0
 71
     1
 72
     2
  1
\W0.90;\fMSGothic|b0|i0|c128;76±2
  7
KANJISTD
 73
     1
 44
1.0
  0
SPLINE
  5
9D
330
A
100
AcDbEntity
  8
0
 62
     7
100
AcDbSpline
210
0.0
220
0.0
230
1.0
 70
     8
 71
     3
 72
    11
 73
     7
 74
     0
 42
0.0000000001
 43
0.0000000001
 40
0.0
 40
0.0
 40
0.0
 40
0.0
 40
1.0
 40
1.0
 40
1.0
 40
2.0
 40
2.0
 40
2.0
 40
2.0
 10
133.3586127387152
 20
140.9894992404513
 30
0.0
 10
133.3851399739583
 20
140.7407633463541
 30
0.0
 10
133.6080376519096
 20
140.5602403428819
 30
0.0
 10
133.8571180555555
 20
140.585734049479
 30
0.0
 10
133.861941189236
 20
140.5864230685762
 30
0.0
 10
133.8660753038193
 20
140.5871120876734
 30
0.0
 10
133.8702094184027
 20
140.5878011067708
 30
0.0
  0
LINE
  5
9C
330
A
100
AcDbEntity
  8
0
  6
AI9-LType2
 62
     7
100
AcDbLine
 10
161.130561
 20
149.0436159999999
 30
0.0
 11
145.66036
 21
149.0436159999999
 31
0.0
  0
LINE
  5
9B
330
A
100
AcDbEntity
  8
0
  6
AI9-LType5
 62
     7
100
AcDbLine
 10
153.372206
 20
137.0000789999999
 30
0.0
 11
153.372206
 21
275.0147379999999
 31
0.0
  0
POLYLINE
  5
94
330
A
100
AcDbEntity
  8
0
  6
AI9-LType4
 62
     7
100
AcDb2dPolyline
 66
     1
 10
0.0
 20
0.0
 30
0.0
 70
     1
  0
VERTEX
  5
95
330
94
100
AcDbEntity
  8
0
  6
AI9-LType4
 62
     7
100
AcDbVertex
100
AcDb2dVertex
 10
161.106445
 20
141.179324
 30
0.0
  0
VERTEX
  5
96
330
94
100
AcDbEntity
  8
0
  6
AI9-LType4
 62
     7
100
AcDbVertex
100
AcDb2dVertex
 10
145.5063639999998
 20
141.179324
 30
0.0
  0
VERTEX
  5
97
330
94
100
AcDbEntity
  8
0
  6
AI9-LType4
 62
     7
100
AcDbVertex
100
AcDb2dVertex
 10
145.5063639999998
 20
151.112912
 30
0.0
  0
VERTEX
  5
98
330
94
100
AcDbEntity
  8
0
  6
AI9-LType4
 62
     7
100
AcDbVertex
100
AcDb2dVertex
 10
161.106445
 20
151.112912
 30
0.0
  0
SEQEND
  5
99
330
94
100
AcDbEntity
  8
0
  6
AI9-LType4
 62
     7
  0
POLYLINE
  5
8D
330
A
100
AcDbEntity
  8
0
  6
AI9-LType3
 62
     7
100
AcDb2dPolyline
 66
     1
 10
0.0
 20
0.0
 30
0.0
 70
     1
  0
VERTEX
  5
8E
330
8D
100
AcDbEntity
  8
0
  6
AI9-LType3
 62
     7
100
AcDbVertex
100
AcDb2dVertex
 10
160.399512
 20
141.179324
 30
0.0
  0
VERTEX
  5
8F
330
8D
100
AcDbEntity
  8
0
  6
AI9-LType3
 62
     7
100
AcDbVertex
100
AcDb2dVertex
 10
146.213642
 20
141.179324
 30
0.0
  0
VERTEX
  5
90
330
8D
100
AcDbEntity
  8
0
  6
AI9-LType3
 62
     7
100
AcDbVertex
100
AcDb2dVertex
 10
146.213642
 20
151.112912
 30
0.0
  0
VERTEX
  5
91
330
8D
100
AcDbEntity
  8
0
  6
AI9-LType3
 62
     7
100
AcDbVertex
100
AcDb2dVertex
 10
160.399512
 20
151.112912
 30
0.0
  0
SEQEND
  5
92
330
8D
100
AcDbEntity
  8
0
  6
AI9-LType3
 62
     7
  0
LINE
  5
8B
330
A
100
AcDbEntity
  8
0
 62
     7
100
AcDbLine
 10
132.9793079999999
 20
140.530957
 30
0.0
 11
177.9226449999999
 21
140.530957
 31
0.0
  0
LINE
  5
8A
330
A
100
AcDbEntity
  8
0
 62
     7
100
AcDbLine
 10
163.8625219999999
 20
150.995779
 30
0.0
 11
173.329644
 21
140.952637
 31
0.0
  0
SPLINE
  5
89
330
A
100
AcDbEntity
  8
0
 62
     7
100
AcDbSpline
210
0.0
220
0.0
230
1.0
 70
     8
 71
     3
 72
    11
 73
     7
 74
     0
 42
0.0000000001
 43
0.0000000001
 40
0.0
 40
0.0
 40
0.0
 40
0.0
 40
1.0
 40
1.0
 40
1.0
 40
2.0
 40
2.0
 40
2.0
 40
2.0
 10
172.839751519097
 20
140.5309570312498
 30
0.0
 10
173.087798394097
 20
140.497195095486
 30
0.0
 10
173.316552734375
 20
140.6715169270833
 30
0.0
 10
173.3503146701388
 20
140.9202528211805
 30
0.0
 10
173.3510036892361
 20
140.9236979166666
 30
0.0
 10
173.3510036892361
 20
140.9285210503472
 30
0.0
 10
173.3516927083333
 20
140.9326551649305
 30
0.0
  0
CIRCLE
  5
88
330
A
100
AcDbEntity
  8
0
 62
     7
100
AcDbCircle
 10
157.132183
 20
148.986599
 30
0.0
 40
1.406287999999999
  0
CIRCLE
  5
87
330
A
100
AcDbEntity
  8
0
 62
     7
100
AcDbCircle
 10
149.497507
 20
148.986599
 30
0.0
 40
1.406631999999999
  0
CIRCLE
  5
86
330
A
100
AcDbEntity
  8
0
 62
     7
100
AcDbCircle
 10
149.497507
 20
148.986599
 30
0.0
 40
0.8037410000000001
  0
CIRCLE
  5
85
330
A
100
AcDbEntity
  8
0
 62
     7
100
AcDbCircle
 10
157.132183
 20
148.986599
 30
0.0
 40
0.803396
  0
LINE
  5
84
330
A
100
AcDbEntity
  8
0
  6
AI9-LType2
 62
     7
100
AcDbLine
 10
157.132183
 20
145.97283
 30
0.0
 11
157.132183
 21
150.995779
 31
0.0
  0
LINE
  5
83
330
A
100
AcDbEntity
  8
0
  6
AI9-LType2
 62
     7
100
AcDbLine
 10
149.497852
 20
145.97283
 30
0.0
 11
149.497852
 21
150.995779
 31
0.0
  0
LINE
  5
82
330
A
100
AcDbEntity
  8
0
  6
AI9-LType2
 62
     7
100
AcDbLine
 10
161.0499459999998
 20
148.986599
 30
0.0
 11
145.5800889999999
 21
148.986599
 31
0.0
  0
LINE
  5
80
330
A
100
AcDbEntity
  8
0
 62
     7
100
AcDbLine
 10
172.9003849999999
 20
140.530957
 30
0.0
 11
133.6683269999998
 21
140.530957
 31
0.0
  0
ELLIPSE
  5
7F
330
A
100
AcDbEntity
  8
0
 62
     7
100
AcDbEllipse
 10
142.099164
 20
145.306204
 30
0.0
 11
2.292366536458331
 21
2.607937282986109
 31
0.0
210
0.0
220
0.0
230
1.0
 40
0.488464
 41
0.0
 42
6.283185307179584
  0
ELLIPSE
  5
7E
330
A
100
AcDbEntity
  8
0
 62
     7
100
AcDbEllipse
 10
164.649037
 20
145.306204
 30
0.0
 11
-2.292366536458331
 21
2.607937282986109
 31
0.0
210
0.0
220
0.0
230
1.0
 40
0.488464
 41
0.0
 42
6.283185307179584
  0
POLYLINE
  5
76
330
A
100
AcDbEntity
  8
0
 62
     7
100
AcDb2dPolyline
 66
     1
 10
0.0
 20
0.0
 30
0.0
 70
     1
  0
VERTEX
  5
77
330
76
100
AcDbEntity
  8
0
 62
     7
100
AcDbVertex
100
AcDb2dVertex
 10
173.3503149999999
 20
140.882012
 30
0.0
  0
VERTEX
  5
78
330
76
100
AcDbEntity
  8
0
 62
     7
100
AcDbVertex
100
AcDb2dVertex
 10
173.0671279999999
 20
140.5099419999999
 30
0.0
  0
VERTEX
  5
79
330
76
100
AcDbEntity
  8
0
 62
     7
100
AcDbVertex
100
AcDb2dVertex
 10
133.633187
 20
140.5099419999999
 30
0.0
  0
VERTEX
  5
7A
330
76
100
AcDbEntity
  8
0
 62
     7
100
AcDbVertex
100
AcDb2dVertex
 10
133.32175
 20
140.910262
 30
0.0
  0
VERTEX
  5
7B
330
76
100
AcDbEntity
  8
0
 62
     7
100
AcDbVertex
100
AcDb2dVertex
 10
142.779915
 20
151.1125679999999
 30
0.0
  0
VERTEX
  5
7C
330
76
100
AcDbEntity
  8
0
 62
     7
100
AcDbVertex
100
AcDb2dVertex
 10
163.8239369999999
 20
151.1125679999999
 30
0.0
  0
SEQEND
  5
7D
330
76
100
AcDbEntity
  8
0
 62
     7
  0
LINE
  5
75
330
A
100
AcDbEntity
  8
0
 62
     7
100
AcDbLine
 10
173.322754
 20
140.9626269999999
 30
0.0
 11
133.32175
 21
140.9626269999999
 31
0.0
  0
LINE
  5
74
330
A
100
AcDbEntity
  8
0
  6
AI9-LType1
 62
     7
100
AcDbLine
 10
181.083521
 20
119.940999
 30
0.0
 11
134.3166939999999
 21
119.921707
 31
0.0
  0
LINE
  5
72
330
A
100
AcDbEntity
  8
0
 62
     7
100
AcDbLine
 10
154.526657
 20
120.9107939999999
 30
0.0
 11
136.6834739999999
 21
120.9107939999999
 31
0.0
  0
LINE
  5
71
330
A
100
AcDbEntity
  8
0
 62
     7
100
AcDbLine
 10
154.526657
 20
118.931931
 30
0.0
 11
136.5773649999999
 21
118.931931
 31
0.0
  0
LINE
  5
70
330
A
100
AcDbEntity
  8
0
 62
     7
100
AcDbLine
 10
136.024083
 20
120.4133219999999
 30
0.0
 11
136.024083
 21
119.4156219999999
 31
0.0
  0
SPLINE
  5
6F
330
A
100
AcDbEntity
  8
0
 62
     7
100
AcDbSpline
210
0.0
220
0.0
230
1.0
 70
     8
 71
     3
 72
     8
 73
     4
 74
     0
 42
0.0000000001
 43
0.0000000001
 40
0.0
 40
0.0
 40
0.0
 40
0.0
 40
1.0
 40
1.0
 40
1.0
 40
1.0
 10
136.0240831163194
 20
119.4156222873262
 30
0.0
 10
136.0933295355903
 20
119.157240125868
 30
0.0
 10
136.3114040798609
 20
118.9663818359373
 30
0.0
 10
136.5773654513888
 20
118.9319308810762
 30
0.0
  0
SPLINE
  5
6E
330
A
100
AcDbEntity
  8
0
 62
     7
100
AcDbSpline
210
0.0
220
0.0
230
1.0
 70
     8
 71
     3
 72
     8
 73
     4
 74
     0
 42
0.0000000001
 43
0.0000000001
 40
0.0
 40
0.0
 40
0.0
 40
0.0
 40
1.0
 40
1.0
 40
1.0
 40
1.0
 10
136.683474392361
 20
120.9107937282984
 30
0.0
 10
136.3747938368055
 20
120.9142388237846
 30
0.0
 10
136.1033203124998
 20
120.707533094618
 30
0.0
 10
136.0240831163194
 20
120.4088433159721
 30
0.0
  0
LINE
  5
6D
330
A
100
AcDbEntity
  8
0
 62
     7
100
AcDbLine
 10
167.7196509999999
 20
121.90057
 30
0.0
 11
169.369162
 21
121.90057
 31
0.0
  0
POLYLINE
  5
68
330
A
100
AcDbEntity
  8
0
 62
     7
100
AcDb2dPolyline
 66
     1
 10
0.0
 20
0.0
 30
0.0
  0
VERTEX
  5
69
330
68
100
AcDbEntity
  8
0
 62
     7
100
AcDbVertex
100
AcDb2dVertex
 10
167.7196509999999
 20
117.9428439999999
 30
0.0
  0
VERTEX
  5
6A
330
68
100
AcDbEntity
  8
0
 62
     7
100
AcDbVertex
100
AcDb2dVertex
 10
169.369162
 20
117.9428439999999
 30
0.0
  0
VERTEX
  5
6B
330
68
100
AcDbEntity
  8
0
 62
     7
100
AcDbVertex
100
AcDb2dVertex
 10
169.369162
 20
121.896436
 30
0.0
  0
SEQEND
  5
6C
330
68
100
AcDbEntity
  8
0
 62
     7
  0
LINE
  5
67
330
A
100
AcDbEntity
  8
0
 62
     7
100
AcDbLine
 10
167.7196509999999
 20
117.9428439999999
 30
0.0
 11
167.7196509999999
 21
121.90057
 31
0.0
  0
LINE
  5
66
330
A
100
AcDbEntity
  8
0
 62
     7
100
AcDbLine
 10
154.526657
 20
120.9107939999999
 30
0.0
 11
167.7196509999999
 21
121.3235159999999
 31
0.0
  0
LINE
  5
65
330
A
100
AcDbEntity
  8
0
 62
     7
100
AcDbLine
 10
154.526657
 20
118.931931
 30
0.0
 11
167.7196509999999
 21
118.519897
 31
0.0
  0
MTEXT
  5
64
330
A
100
AcDbEntity
  8
0
 62
     7
100
AcDbMText
 10
41.770561
 20
142.087796
 30
0.0
 40
2.624835
 41
0.0
 71
     1
 72
     2
  1
\W0.90;\fMSGothic|b0|i0|c128;50±2
  7
KANJISTD
 11
0.0
 21
1.0
 31
0.0
 73
     1
 44
1.0
  0
MTEXT
  5
63
330
A
100
AcDbEntity
  8
0
 62
     7
100
AcDbMText
 10
41.015223
 20
183.1085479999999
 30
0.0
 40
2.624835
 41
0.0
 71
     1
 72
     2
  1
\W0.90;\fMSGothic|b0|i0|c128;50
  7
STD
 11
0.0
 21
1.0
 31
0.0
 73
     1
 44
1.0
  0
MTEXT
  5
62
330
A
100
AcDbEntity
  8
0
 62
     7
100
AcDbMText
 10
41.015223
 20
192.7515419999999
 30
0.0
 40
2.624835
 41
0.0
 71
     1
 72
     2
  1
\W0.90;\fMSGothic|b0|i0|c128;50
  7
STD
 11
0.0
 21
1.0
 31
0.0
 73
     1
 44
1.0
  0
MTEXT
  5
61
330
A
100
AcDbEntity
  8
0
 62
     7
100
AcDbMText
 10
41.015223
 20
203.312827
 30
0.0
 40
2.624835
 41
0.0
 71
     1
 72
     2
  1
\W0.90;\fMSGothic|b0|i0|c128;50
  7
STD
 11
0.0
 21
1.0
 31
0.0
 73
     1
 44
1.0
  0
MTEXT
  5
60
330
A
100
AcDbEntity
  8
0
 62
     7
100
AcDbMText
 10
41.015223
 20
212.343456
 30
0.0
 40
2.624835
 41
0.0
 71
     1
 72
     2
  1
\W0.90;\fMSGothic|b0|i0|c128;50
  7
STD
 11
0.0
 21
1.0
 31
0.0
 73
     1
 44
1.0
  0
LINE
  5
5F
330
A
100
AcDbEntity
  8
0
 62
     7
100
AcDbLine
 10
169.369162
 20
124.236
 30
0.0
 11
169.369162
 21
129.3157929999999
 31
0.0
  0
LINE
  5
5E
330
A
100
AcDbEntity
  8
0
 62
     7
100
AcDbLine
 10
136.024083
 20
124.236
 30
0.0
 11
136.024083
 21
129.3157929999999
 31
0.0
  0
LINE
  5
5D
330
A
100
AcDbEntity
  8
0
 62
     7
100
AcDbLine
 10
130.985286
 20
118.900236
 30
0.0
 11
130.985286
 21
120.8932239999999
 31
0.0
  0
LINE
  5
5C
330
A
100
AcDbEntity
  8
0
 62
     7
100
AcDbLine
 10
134.995033
 20
118.931931
 30
0.0
 11
130.915007
 21
118.931931
 31
0.0
  0
LINE
  5
5B
330
A
100
AcDbEntity
  8
0
 62
     7
100
AcDbLine
 10
134.995033
 20
120.9107939999999
 30
0.0
 11
130.915007
 21
120.9107939999999
 31
0.0
  0
LINE
  5
5A
330
A
100
AcDbEntity
  8
0
 62
     7
100
AcDbLine
 10
167.7196509999999
 20
124.236
 30
0.0
 11
167.7196509999999
 21
126.0105689999999
 31
0.0
  0
LINE
  5
59
330
A
100
AcDbEntity
  8
0
 62
     7
100
AcDbLine
 10
169.380876
 20
126.0105689999999
 30
0.0
 11
167.838506
 21
126.0105689999999
 31
0.0
  0
MTEXT
  5
58
330
A
100
AcDbEntity
  8
0
 62
     7
100
AcDbMText
 10
167.8323049999999
 20
128.933749
 30
0.0
 40
2.624835
 41
0.0
 71
     1
 72
     2
  1
\W0.90;\fMSGothic|b0|i0|c128;5
  7
STD
 73
     1
 44
1.0
  0
MTEXT
  5
57
330
A
100
AcDbEntity
  8
0
 62
     7
100
AcDbMText
 10
149.900583
 20
132.2317379999998
 30
0.0
 40
2.624835
 41
0.0
 71
     1
 72
     2
  1
\W0.90;\fMSGothic|b0|i0|c128;100
  7
STD
 73
     1
 44
1.0
  0
MTEXT
  5
56
330
A
100
AcDbEntity
  8
0
 62
     7
100
AcDbMText
 10
127.879516
 20
119.043207
 30
0.0
 40
2.624835
 41
0.0
 71
     1
 72
     2
  1
\W0.90;\fMSGothic|b0|i0|c128;6
  7
STD
 11
0.0
 21
1.0
 31
0.0
 73
     1
 44
1.0
  0
MTEXT
  5
55
330
A
100
AcDbEntity
  8
0
 62
     7
100
AcDbMText
 10
84.26135100000001
 20
206.776542
 30
0.0
 40
2.624835
 41
0.0
 71
     1
 72
     2
  1
\W0.75;\fMSGothic|b0|i0|c128;高輝度反射シート（白）
  7
KANJISTD
 73
     1
 44
1.0
  0
POLYLINE
  5
50
330
A
100
AcDbEntity
  8
0
 62
     7
100
AcDb2dPolyline
 66
     1
 10
0.0
 20
0.0
 30
0.0
  0
VERTEX
  5
51
330
50
100
AcDbEntity
  8
0
 62
     7
100
AcDbVertex
100
AcDb2dVertex
 10
77.920653
 20
201.3279349999999
 30
0.0
  0
VERTEX
  5
52
330
50
100
AcDbEntity
  8
0
 62
     7
100
AcDbVertex
100
AcDb2dVertex
 10
83.87085
 20
203.674734
 30
0.0
  0
VERTEX
  5
53
330
50
100
AcDbEntity
  8
0
 62
     7
100
AcDbVertex
100
AcDb2dVertex
 10
111.612481
 20
203.674734
 30
0.0
  0
SEQEND
  5
54
330
50
100
AcDbEntity
  8
0
 62
     7
  0
POLYLINE
  5
4B
330
A
100
AcDbEntity
  8
0
 62
     7
100
AcDb2dPolyline
 66
     1
 10
0.0
 20
0.0
 30
0.0
  0
VERTEX
  5
4C
330
4B
100
AcDbEntity
  8
0
 62
     7
100
AcDbVertex
100
AcDb2dVertex
 10
77.920653
 20
213.022829
 30
0.0
  0
VERTEX
  5
4D
330
4B
100
AcDbEntity
  8
0
 62
     7
100
AcDbVertex
100
AcDb2dVertex
 10
83.87085
 20
215.3696279999999
 30
0.0
  0
VERTEX
  5
4E
330
4B
100
AcDbEntity
  8
0
 62
     7
100
AcDbVertex
100
AcDb2dVertex
 10
102.627155
 20
215.3696279999999
 30
0.0
  0
SEQEND
  5
4F
330
4B
100
AcDbEntity
  8
0
 62
     7
  0
POLYLINE
  5
46
330
A
100
AcDbEntity
  8
0
 62
     7
100
AcDb2dPolyline
 66
     1
 10
0.0
 20
0.0
 30
0.0
  0
VERTEX
  5
47
330
46
100
AcDbEntity
  8
0
 62
     7
100
AcDbVertex
100
AcDb2dVertex
 10
76.249954
 20
149.3505739999999
 30
0.0
  0
VERTEX
  5
48
330
46
100
AcDbEntity
  8
0
 62
     7
100
AcDbVertex
100
AcDb2dVertex
 10
83.12843199999997
 20
153.9249719999999
 30
0.0
  0
VERTEX
  5
49
330
46
100
AcDbEntity
  8
0
 62
     7
100
AcDbVertex
100
AcDb2dVertex
 10
104.4835449999998
 20
153.9249719999999
 30
0.0
  0
SEQEND
  5
4A
330
46
100
AcDbEntity
  8
0
 62
     7
  0
POLYLINE
  5
41
330
A
100
AcDbEntity
  8
0
 62
     7
100
AcDb2dPolyline
 66
     1
 10
0.0
 20
0.0
 30
0.0
  0
VERTEX
  5
42
330
41
100
AcDbEntity
  8
0
 62
     7
100
AcDbVertex
100
AcDb2dVertex
 10
83.86103100000003
 20
143.967095
 30
0.0
  0
VERTEX
  5
43
330
41
100
AcDbEntity
  8
0
 62
     7
100
AcDbVertex
100
AcDb2dVertex
 10
90.73950899999999
 20
148.541493
 30
0.0
  0
VERTEX
  5
44
330
41
100
AcDbEntity
  8
0
 62
     7
100
AcDbVertex
100
AcDb2dVertex
 10
112.0958279999999
 20
148.541493
 30
0.0
  0
SEQEND
  5
45
330
41
100
AcDbEntity
  8
0
 62
     7
  0
MTEXT
  5
40
330
A
100
AcDbEntity
  8
0
 62
     7
100
AcDbMText
 10
85.92016499999997
 20
218.7088029999999
 30
0.0
 40
2.624835
 41
0.0
 71
     1
 72
     2
  1
\W0.75;\fMSGothic|b0|i0|c128;本体　PF-400
  7
KANJISTD
 73
     1
 44
1.0
  0
MTEXT
  5
3F
330
A
100
AcDbEntity
  8
0
 62
     7
100
AcDbMText
 10
82.949976
 20
157.635528
 30
0.0
 40
2.624835
 41
0.0
 71
     1
 72
     2
  1
\W0.75;\fMSGothic|b0|i0|c128;セットピン（2本）
  7
KANJISTD
 73
     1
 44
1.0
  0
POLYLINE
  5
3A
330
A
100
AcDbEntity
  8
0
 62
     7
100
AcDb2dPolyline
 66
     1
 10
0.0
 20
0.0
 30
0.0
  0
VERTEX
  5
3B
330
3A
100
AcDbEntity
  8
0
 62
     7
100
AcDbVertex
100
AcDb2dVertex
 10
71.613889
 20
89.213848
 30
0.0
  0
VERTEX
  5
3C
330
3A
100
AcDbEntity
  8
0
 62
     7
100
AcDbVertex
100
AcDb2dVertex
 10
85.59787599999998
 20
104.889033
 30
0.0
  0
VERTEX
  5
3D
330
3A
100
AcDbEntity
  8
0
 62
     7
100
AcDbVertex
100
AcDb2dVertex
 10
106.9529889999998
 20
104.889033
 30
0.0
  0
SEQEND
  5
3E
330
3A
100
AcDbEntity
  8
0
 62
     7
  0
MTEXT
  5
39
330
A
100
AcDbEntity
  8
0
 62
     7
100
AcDbMText
 10
85.41942
 20
108.5994169999999
 30
0.0
 40
2.624835
 41
0.0
 71
     1
 72
     2
  1
\W0.75;\fMSGothic|b0|i0|c128;セットピンホール
  7
KANJISTD
 73
     1
 44
1.0
  0
MTEXT
  5
38
330
A
100
AcDbEntity
  8
0
 62
     7
100
AcDbMText
 10
91.488989
 20
151.880841
 30
0.0
 40
2.624835
 41
0.0
 71
     1
 72
     2
  1
\W0.75;\fMSGothic|b0|i0|c128;アンカーホール
  7
KANJISTD
 73
     1
 44
1.0
  0
POLYLINE
  5
33
330
A
100
AcDbEntity
  8
0
 62
     7
100
AcDb2dPolyline
 66
     1
 10
0.0
 20
0.0
 30
0.0
  0
VERTEX
  5
34
330
33
100
AcDbEntity
  8
0
 62
     7
100
AcDbVertex
100
AcDb2dVertex
 10
79.27491999999998
 20
88.228206
 30
0.0
  0
VERTEX
  5
35
330
33
100
AcDbEntity
  8
0
 62
     7
100
AcDbVertex
100
AcDb2dVertex
 10
86.15339799999999
 20
92.80260400000001
 30
0.0
  0
VERTEX
  5
36
330
33
100
AcDbEntity
  8
0
 62
     7
100
AcDbVertex
100
AcDb2dVertex
 10
107.509717
 20
92.80260400000001
 30
0.0
  0
SEQEND
  5
37
330
33
100
AcDbEntity
  8
0
 62
     7
  0
MTEXT
  5
32
330
A
100
AcDbEntity
  8
0
 62
     7
100
AcDbMText
 10
86.902878
 20
96.14195200000001
 30
0.0
 40
2.624835
 41
0.0
 71
     1
 72
     2
  1
\W0.75;\fMSGothic|b0|i0|c128;アンカーホール
  7
KANJISTD
 73
     1
 44
1.0
  0
MTEXT
  5
31
330
A
100
AcDbEntity
  8
0
 62
     7
100
AcDbMText
 10
115.2873639999999
 20
25.37969
 30
0.0
 40
2.624835
 41
0.0
 71
     1
 72
     2
  1
\W0.75;\fMSGothic|b0|i0|c128;ポスト：ポリウレタ ン
  7
KANJISTD
 73
     1
 44
1.0
  0
MTEXT
  5
30
330
A
100
AcDbEntity
  8
0
 62
     7
100
AcDbMText
 10
152.4902619999999
 20
25.37969
 30
0.0
 40
2.624835
 41
0.0
 71
     1
 72
     2
  1
\W0.75;\fMSGothic|b0|i0|c128;ベース・セットピン：スチレニクス
  7
KANJISTD
 73
     1
 44
1.0
  0
MTEXT
  5
2F
330
A
100
AcDbEntity
  8
0
 62
     7
100
AcDbMText
 10
99.74635000000001
 20
73.646151
 30
0.0
 40
2.624835
 41
0.0
 71
     1
 72
     2
  1
\W0.90;\fMSGothic|b0|i0|c128;110±2
  7
KANJISTD
 11
0.0
 21
1.0
 31
0.0
 73
     1
 44
1.0
  0
LINE
  5
2E
330
A
100
AcDbEntity
  8
0
 62
     7
100
AcDbLine
 10
177.713184
 20
87.79619100000003
 30
0.0
 11
185.4453559999999
 21
87.79619100000003
 31
0.0
  0
LINE
  5
2D
330
A
100
AcDbEntity
  8
0
 62
     7
100
AcDbLine
 10
177.713184
 20
65.51538100000001
 30
0.0
 11
185.4453559999999
 21
65.51538100000001
 31
0.0
  0
LINE
  5
2C
330
A
100
AcDbEntity
  8
0
 62
     7
100
AcDbLine
 10
185.4453559999999
 20
87.79619100000003
 30
0.0
 11
185.4453559999999
 21
65.515036
 31
0.0
  0
HATCH
  5
2B
330
A
100
AcDbEntity
  8
0
 62
     7
100
AcDbHatch
 10
0.0
 20
0.0
 30
0.0
210
0.0
220
0.0
230
1.0
  2
SOLID
 70
     1
 71
     0
 91
        1
 92
        1
 93
        1
 72
     4
 94
        3
 73
     0
 74
     0
 95
       17
 96
       13
 40
0.0
 40
0.0
 40
0.0
 40
0.0
 40
1.0
 40
1.0
 40
1.0
 40
2.0
 40
2.0
 40
2.0
 40
3.0
 40
3.0
 40
3.0
 40
4.0
 40
4.0
 40
4.0
 40
4.0
 10
185.4525906032986
 20
88.05836317274305
 10
185.5573215060763
 20
88.05836317274305
 10
185.6420708550347
 20
87.97361382378468
 10
185.6420708550347
 20
87.86888292100694
 10
185.6420708550347
 20
87.76415201822915
 10
185.5573215060763
 20
87.67940266927082
 10
185.4525906032986
 20
87.67940266927082
 10
185.3478597005208
 20
87.67940266927082
 10
185.2631103515624
 20
87.76415201822915
 10
185.2631103515624
 20
87.86888292100694
 10
185.2631103515624
 20
87.97361382378468
 10
185.3478597005208
 20
88.05836317274305
 10
185.4525906032986
 20
88.05836317274305
 97
        0
 75
     0
 76
     1
 98
        1
 10
0.0
 20
0.0
  0
HATCH
  5
2A
330
A
100
AcDbEntity
  8
0
 62
     7
100
AcDbHatch
 10
0.0
 20
0.0
 30
0.0
210
0.0
220
0.0
230
1.0
  2
SOLID
 70
     1
 71
     0
 91
        1
 92
        1
 93
        1
 72
     4
 94
        3
 73
     0
 74
     0
 95
       17
 96
       13
 40
0.0
 40
0.0
 40
0.0
 40
0.0
 40
1.0
 40
1.0
 40
1.0
 40
2.0
 40
2.0
 40
2.0
 40
3.0
 40
3.0
 40
3.0
 40
4.0
 40
4.0
 40
4.0
 40
4.0
 10
185.4525906032986
 20
65.70692816840278
 10
185.5573215060763
 20
65.70692816840278
 10
185.6420708550347
 20
65.62217881944444
 10
185.6420708550347
 20
65.51744791666665
 10
185.6420708550347
 20
65.41271701388888
 10
185.5573215060763
 20
65.32796766493056
 10
185.4525906032986
 20
65.32796766493056
 10
185.3478597005208
 20
65.32796766493056
 10
185.2631103515624
 20
65.41271701388888
 10
185.2631103515624
 20
65.51744791666665
 10
185.2631103515624
 20
65.62217881944444
 10
185.3478597005208
 20
65.70692816840278
 10
185.4525906032986
 20
65.70692816840278
 97
        0
 75
     0
 76
     1
 98
        1
 10
0.0
 20
0.0
  0
MTEXT
  5
29
330
A
100
AcDbEntity
  8
0
 62
     7
100
AcDbMText
 10
186.180178
 20
73.646151
 30
0.0
 40
2.624835
 41
0.0
 71
     1
 72
     2
  1
\W0.90;\fMSGothic|b0|i0|c128;110±2
  7
KANJISTD
 11
0.0
 21
1.0
 31
0.0
 73
     1
 44
1.0
  0
VIEWPORT
  5
1DD
330
B
100
AcDbEntity
 67
     1
  8
0
  6
Continuous
370
     0
100
AcDbViewport
 10
7.128710463328634
 20
3.242095226181753
 30
0.0
 40
12.30078556482961
 41
7.928516166683793
 68
     1
 69
     1
 12
7.128710463328634
 22
3.242095226181753
 13
0.0
 23
0.0
 14
10.0
 24
10.0
 15
10.0
 25
10.0
 16
0.0
 26
0.0
 36
1.0
 17
0.0
 27
0.0
 37
0.0
 42
50.0
 43
0.0
 44
0.0
 45
7.928516166683793
 50
0.0
 51
0.0
 72
   100
 90
    32800
  1

281
     0
 71
     1
 74
     0
110
0.0
120
0.0
130
0.0
111
1.0
121
0.0
131
0.0
112
0.0
122
1.0
132
0.0
 79
     0
146
0.0
  0
VIEWPORT
  5
1DF
330
B
100
AcDbEntity
 67
     1
  8
0
  6
Continuous
370
     0
100
AcDbViewport
 10
5.615416417910358
 20
3.902083250481312
 30
0.0
 40
8.984666268656575
 41
6.243333200770099
 68
     2
 69
     2
 12
105.9108479999999
 22
150.296683
 13
0.0
 23
0.0
 14
1.0
 24
1.0
 15
0.0
 25
0.0
 16
0.0
 26
0.0
 36
1.0
 17
0.0
 27
0.0
 37
0.0
 42
50.0
 43
0.0
 44
0.0
 45
275.5993054071428
 50
0.0
 51
0.0
 72
   100
 90
    32800
  1

281
     0
 71
     1
 74
     0
110
0.0
120
0.0
130
0.0
111
1.0
121
0.0
131
0.0
112
0.0
122
1.0
132
0.0
 79
     0
146
0.0
  0
ENDSEC
  0
SECTION
  2
OBJECTS
  0
DICTIONARY
  5
19
330
0
100
AcDbDictionary
281
     1
  3
ACAD_GROUP
350
1A
  3
ACAD_MLINESTYLE
350
1B
  3
ACAD_LAYOUT
350
1E
  3
ACAD_PLOTSETTINGS
350
22
  3
ACAD_PLOTSTYLENAME
350
1F
  3
ACAD_WIPEOUT_VARS
350
23
  0
DICTIONARY
  5
1A
102
{ACAD_REACTORS
330
19
102
}
330
19
100
AcDbDictionary
281
     1
  0
DICTIONARY
  5
1B
102
{ACAD_REACTORS
330
19
102
}
330
19
100
AcDbDictionary
281
     1
  3
Standard
350
1C
  0
DICTIONARY
  5
1E
102
{ACAD_REACTORS
330
19
102
}
330
19
100
AcDbDictionary
281
     1
  3
Layout1
350
21
  3
Model
350
20
  0
DICTIONARY
  5
22
102
{ACAD_REACTORS
330
19
102
}
330
19
100
AcDbDictionary
281
     1
  0
ACDBDICTIONARYWDFLT
  5
1F
102
{ACAD_REACTORS
330
19
102
}
330
19
100
AcDbDictionary
281
     1
  3
Normal
350
1D
100
AcDbDictionaryWithDefault
340
1D
  0
WIPEOUTVARIABLES
  5
23
330
19
100
AcDbWipeoutVariables
 70
     1
  0
MLINESTYLE
  5
1C
102
{ACAD_REACTORS
330
1B
102
}
330
1B
100
AcDbMlineStyle
  2
STANDARD
 70
     0
  3

 62
     0
 51
90.0
 52
90.0
 71
     2
 49
0.5
 62
   256
  6
BYLAYER
 49
-0.5
 62
   256
  6
BYLAYER
  0
LAYOUT
  5
21
102
{ACAD_REACTORS
330
1E
102
}
330
1E
100
AcDbPlotSettings
  1

  2
EPSON LP-S5500
  4
A4
  6

 40
5.873749732971191
 41
5.873747825622557
 42
5.873748779296875
 43
5.873748779296875
 44
209.9733276367186
 45
297.0106506347656
 46
0.0
 47
0.0
 48
0.0
 49
0.0
140
0.0
141
0.0
142
1.0
143
1.0
 70
     0
 72
     0
 73
     1
 74
     0
  7

 75
     0
147
1.0
148
0.0
149
0.0
100
AcDbLayout
  1
Layout1
 70
     0
 71
     1
 10
-0.2312499519408218
 20
-0.2312499894870548
 11
11.4620827502153
 21
8.035416452903447
 12
0.0
 22
0.0
 32
0.0
 14
1.12308328358207
 24
0.7804166500962629
 34
0.0
 15
10.10774955223864
 25
7.023749850866361
 35
0.0
146
0.0
 13
0.0
 23
0.0
 33
0.0
 16
1.0
 26
0.0
 36
0.0
 17
0.0
 27
1.0
 37
0.0
 76
     0
330
B
331
1DD
  0
LAYOUT
  5
20
102
{ACAD_REACTORS
330
1E
102
}
330
1E
100
AcDbPlotSettings
  1

  2

  4

  6

 40
0.0
 41
0.0
 42
0.0
 43
0.0
 44
0.0
 45
0.0
 46
0.0
 47
0.0
 48
0.0
 49
0.0
140
0.0
141
0.0
142
1.0
143
1.0
 70
  1024
 72
     0
 73
     0
 74
     0
  7

 75
     0
147
1.0
148
0.0
149
0.0
100
AcDbLayout
  1
Model
 70
     0
 71
     0
 10
0.0
 20
0.0
 11
0.0
 21
0.0
 12
0.0
 22
0.0
 32
0.0
 14
0.0
 24
0.0
 34
0.0
 15
0.0
 25
0.0
 35
0.0
146
0.0
 13
0.0
 23
0.0
 33
0.0
 16
0.0
 26
0.0
 36
0.0
 17
0.0
 27
0.0
 37
0.0
 76
     0
330
A
  0
ACDBPLACEHOLDER
  5
1D
102
{ACAD_REACTORS
330
1F
102
}
330
1F
  0
ENDSEC
  0
EOF
