  0
SECTION
  2
HEADER
  9
$ACADVER
  1
AC1014
  9
$ACADMAINTVER
 70
     9
  9
$DWGCODEPAGE
  3
ANSI_932
  9
$INSBASE
 10
0.0
 20
0.0
 30
0.0
  9
$EXTMIN
 10
1.000000000000000E+20
 20
1.000000000000000E+20
 30
1.000000000000000E+20
  9
$EXTMAX
 10
-1.000000000000000E+20
 20
-1.000000000000000E+20
 30
-1.000000000000000E+20
  9
$LIMMIN
 10
0.0
 20
0.0
  9
$LIMMAX
 10
12.0
 20
9.0
  9
$ORTHOMODE
 70
     0
  9
$REGENMODE
 70
     1
  9
$FILLMODE
 70
     1
  9
$QTEXTMODE
 70
     0
  9
$MIRRTEXT
 70
     1
  9
$DRAGMODE
 70
     2
  9
$LTSCALE
 40
1.0
  9
$OSMODE
 70
    37
  9
$ATTMODE
 70
     1
  9
$TEXTSIZE
 40
0.2
  9
$TRACEWID
 40
0.05
  9
$TEXTSTYLE
  7
STANDARD
  9
$CLAYER
  8
0
  9
$CELTYPE
  6
BYLAYER
  9
$CECOLOR
 62
   256
  9
$CELTSCALE
 40
1.0
  9
$DELOBJ
 70
     1
  9
$DISPSILH
 70
     0
  9
$DIMSCALE
 40
1.0
  9
$DIMASZ
 40
0.18
  9
$DIMEXO
 40
0.0625
  9
$DIMDLI
 40
0.38
  9
$DIMRND
 40
0.0
  9
$DIMDLE
 40
0.0
  9
$DIMEXE
 40
0.18
  9
$DIMTP
 40
0.0
  9
$DIMTM
 40
0.0
  9
$DIMTXT
 40
0.18
  9
$DIMCEN
 40
0.09
  9
$DIMTSZ
 40
0.0
  9
$DIMTOL
 70
     0
  9
$DIMLIM
 70
     0
  9
$DIMTIH
 70
     1
  9
$DIMTOH
 70
     1
  9
$DIMSE1
 70
     0
  9
$DIMSE2
 70
     0
  9
$DIMTAD
 70
     0
  9
$DIMZIN
 70
     0
  9
$DIMBLK
  1

  9
$DIMASO
 70
     1
  9
$DIMSHO
 70
     1
  9
$DIMPOST
  1

  9
$DIMAPOST
  1

  9
$DIMALT
 70
     0
  9
$DIMALTD
 70
     2
  9
$DIMALTF
 40
25.4
  9
$DIMLFAC
 40
1.0
  9
$DIMTOFL
 70
     0
  9
$DIMTVP
 40
0.0
  9
$DIMTIX
 70
     0
  9
$DIMSOXD
 70
     0
  9
$DIMSAH
 70
     0
  9
$DIMBLK1
  1

  9
$DIMBLK2
  1

  9
$DIMSTYLE
  2
STANDARD
  9
$DIMCLRD
 70
     0
  9
$DIMCLRE
 70
     0
  9
$DIMCLRT
 70
     0
  9
$DIMTFAC
 40
1.0
  9
$DIMGAP
 40
0.09
  9
$DIMJUST
 70
     0
  9
$DIMSD1
 70
     0
  9
$DIMSD2
 70
     0
  9
$DIMTOLJ
 70
     1
  9
$DIMTZIN
 70
     0
  9
$DIMALTZ
 70
     0
  9
$DIMALTTZ
 70
     0
  9
$DIMFIT
 70
     3
  9
$DIMUPT
 70
     0
  9
$DIMUNIT
 70
     2
  9
$DIMDEC
 70
     4
  9
$DIMTDEC
 70
     4
  9
$DIMALTU
 70
     2
  9
$DIMALTTD
 70
     2
  9
$DIMTXSTY
  7
STANDARD
  9
$DIMAUNIT
 70
     0
  9
$LUNITS
 70
     2
  9
$LUPREC
 70
     4
  9
$SKETCHINC
 40
0.1
  9
$FILLETRAD
 40
0.5
  9
$AUNITS
 70
     0
  9
$AUPREC
 70
     0
  9
$MENU
  1
.
  9
$ELEVATION
 40
0.0
  9
$PELEVATION
 40
0.0
  9
$THICKNESS
 40
0.0
  9
$LIMCHECK
 70
     0
  9
$CHAMFERA
 40
0.5
  9
$CHAMFERB
 40
0.5
  9
$CHAMFERC
 40
1.0
  9
$CHAMFERD
 40
0.0
  9
$SKPOLY
 70
     0
  9
$TDCREATE
 40
2457448.387959815
  9
$TDUPDATE
 40
2457448.387959826
  9
$TDINDWG
 40
0.0000000116
  9
$TDUSRTIMER
 40
0.0000000116
  9
$USRTIMER
 70
     1
  9
$ANGBASE
 50
0.0
  9
$ANGDIR
 70
     0
  9
$PDMODE
 70
     0
  9
$PDSIZE
 40
0.0
  9
$PLINEWID
 40
0.0
  9
$COORDS
 70
     1
  9
$SPLFRAME
 70
     0
  9
$SPLINETYPE
 70
     6
  9
$SPLINESEGS
 70
     8
  9
$ATTDIA
 70
     0
  9
$ATTREQ
 70
     1
  9
$HANDLING
 70
     1
  9
$HANDSEED
  5
3F0
  9
$SURFTAB1
 70
     6
  9
$SURFTAB2
 70
     6
  9
$SURFTYPE
 70
     6
  9
$SURFU
 70
     6
  9
$SURFV
 70
     6
  9
$UCSNAME
  2

  9
$UCSORG
 10
0.0
 20
0.0
 30
0.0
  9
$UCSXDIR
 10
1.0
 20
0.0
 30
0.0
  9
$UCSYDIR
 10
0.0
 20
1.0
 30
0.0
  9
$PUCSNAME
  2

  9
$PUCSORG
 10
0.0
 20
0.0
 30
0.0
  9
$PUCSXDIR
 10
1.0
 20
0.0
 30
0.0
  9
$PUCSYDIR
 10
0.0
 20
1.0
 30
0.0
  9
$USERI1
 70
     0
  9
$USERI2
 70
     0
  9
$USERI3
 70
     0
  9
$USERI4
 70
     0
  9
$USERI5
 70
     0
  9
$USERR1
 40
0.0
  9
$USERR2
 40
0.0
  9
$USERR3
 40
0.0
  9
$USERR4
 40
0.0
  9
$USERR5
 40
0.0
  9
$WORLDVIEW
 70
     1
  9
$SHADEDGE
 70
     3
  9
$SHADEDIF
 70
    70
  9
$TILEMODE
 70
     1
  9
$MAXACTVP
 70
    64
  9
$PINSBASE
 10
0.0
 20
0.0
 30
0.0
  9
$PLIMCHECK
 70
     0
  9
$PEXTMIN
 10
1.000000000000000E+20
 20
1.000000000000000E+20
 30
1.000000000000000E+20
  9
$PEXTMAX
 10
-1.000000000000000E+20
 20
-1.000000000000000E+20
 30
-1.000000000000000E+20
  9
$PLIMMIN
 10
0.0
 20
0.0
  9
$PLIMMAX
 10
12.0
 20
9.0
  9
$UNITMODE
 70
     0
  9
$VISRETAIN
 70
     1
  9
$PLINEGEN
 70
     0
  9
$PSLTSCALE
 70
     1
  9
$TREEDEPTH
 70
  3020
  9
$PICKSTYLE
 70
     1
  9
$CMLSTYLE
  2
STANDARD
  9
$CMLJUST
 70
     0
  9
$CMLSCALE
 40
1.0
  9
$PROXYGRAPHICS
 70
     1
  9
$MEASUREMENT
 70
     0
  0
ENDSEC
  0
SECTION
  2
CLASSES
  0
CLASS
  1
ACDBDICTIONARYWDFLT
  2
AcDbDictionaryWithDefault
  3
ObjectDBX Classes
 90
        0
280
     0
281
     0
  0
CLASS
  1
VISUALSTYLE
  2
AcDbVisualStyle
  3
ObjectDBX Classes
 90
     4095
280
     0
281
     0
  0
CLASS
  1
XRECORD
  2
AcDbXrecord
  3
AutoCAD 2000
 90
        0
280
     0
281
     0
  0
CLASS
  1
LWPOLYLINE
  2
AcDbPolyline
  3
AutoCAD 2000
 90
        0
280
     0
281
     1
  0
CLASS
  1
HATCH
  2
AcDbHatch
  3
AutoCAD 2000
 90
        0
280
     0
281
     1
  0
CLASS
  1
ACDBPLACEHOLDER
  2
AcDbPlaceHolder
  3
ObjectDBX Classes
 90
        0
280
     0
281
     0
  0
CLASS
  1
LAYOUT
  2
AcDbLayout
  3
ObjectDBX Classes
 90
        0
280
     0
281
     0
  0
ENDSEC
  0
SECTION
  2
TABLES
  0
TABLE
  2
VPORT
  5
8
330
0
100
AcDbSymbolTable
 70
     1
  0
VPORT
  5
29
330
8
100
AcDbSymbolTableRecord
100
AcDbViewportTableRecord
  2
*ACTIVE
 70
     0
 10
0.0
 20
0.0
 11
1.0
 21
1.0
 12
0.0
 22
0.0
 13
0.0
 23
0.0
 14
0.5
 24
0.5
 15
0.5
 25
0.5
 16
0.0
 26
0.0
 36
1.0
 17
104.9999647089931
 27
148.4996351082744
 37
0.0
 40
296.9999592356459
 41
0.7070705664688927
 42
50.0
 43
0.0
 44
0.0
 50
0.0
 51
0.0
 71
     0
 72
   100
 73
     1
 74
     3
 75
     0
 76
     0
 77
     0
 78
     0
  0
ENDTAB
  0
TABLE
  2
LTYPE
  5
5
330
0
100
AcDbSymbolTable
 70
     1
  0
LTYPE
  5
14
330
5
100
AcDbSymbolTableRecord
100
AcDbLinetypeTableRecord
  2
BYBLOCK
 70
     0
  3

 72
    65
 73
     0
 40
0.0
  0
LTYPE
  5
15
330
5
100
AcDbSymbolTableRecord
100
AcDbLinetypeTableRecord
  2
BYLAYER
 70
     0
  3

 72
    65
 73
     0
 40
0.0
  0
LTYPE
  5
16
330
5
100
AcDbSymbolTableRecord
100
AcDbLinetypeTableRecord
  2
CONTINUOUS
 70
     0
  3
Solid line
 72
    65
 73
     0
 40
0.0
  0
ENDTAB
  0
TABLE
  2
LAYER
  5
2
330
0
100
AcDbSymbolTable
 70
     1
  0
LAYER
  5
10
330
2
100
AcDbSymbolTableRecord
100
AcDbLayerTableRecord
  2
0
 70
     0
 62
     7
  6
CONTINUOUS
  0
ENDTAB
  0
TABLE
  2
STYLE
  5
3
330
0
100
AcDbSymbolTable
 70
     1
  0
STYLE
  5
11
330
3
100
AcDbSymbolTableRecord
100
AcDbTextStyleTableRecord
  2
STANDARD
 70
     0
 40
0.0
 41
1.0
 50
0.0
 71
     0
 42
0.2
  3
txt
  4

  0
ENDTAB
  0
TABLE
  2
VIEW
  5
6
330
0
100
AcDbSymbolTable
 70
     0
  0
ENDTAB
  0
TABLE
  2
UCS
  5
7
330
0
100
AcDbSymbolTable
 70
     0
  0
ENDTAB
  0
TABLE
  2
APPID
  5
9
330
0
100
AcDbSymbolTable
 70
     1
  0
APPID
  5
12
330
9
100
AcDbSymbolTableRecord
100
AcDbRegAppTableRecord
  2
ACAD
 70
     0
  0
ENDTAB
  0
TABLE
  2
DIMSTYLE
  5
A
330
0
100
AcDbSymbolTable
 70
     1
  0
DIMSTYLE
105
27
330
A
100
AcDbSymbolTableRecord
100
AcDbDimStyleTableRecord
  2
STANDARD
 70
     0
  3

  4

  5

  6

  7

 40
1.0
 41
0.18
 42
0.0625
 43
0.38
 44
0.18
 45
0.0
 46
0.0
 47
0.0
 48
0.0
140
0.18
141
0.09
142
0.0
143
25.4
144
1.0
145
0.0
146
1.0
147
0.09
 71
     0
 72
     0
 73
     1
 74
     1
 75
     0
 76
     0
 77
     0
 78
     0
170
     0
171
     2
172
     0
173
     0
174
     0
175
     0
176
     0
177
     0
178
     0
270
     2
271
     4
272
     4
273
     2
274
     2
340
11
275
     0
280
     0
281
     0
282
     0
283
     1
284
     0
285
     0
286
     0
287
     3
288
     0
  0
ENDTAB
  0
TABLE
  2
BLOCK_RECORD
  5
1
330
0
100
AcDbSymbolTable
 70
    19
  0
BLOCK_RECORD
  5
1F
330
1
100
AcDbSymbolTableRecord
100
AcDbBlockTableRecord
  2
*MODEL_SPACE
  0
BLOCK_RECORD
  5
1B
330
1
100
AcDbSymbolTableRecord
100
AcDbBlockTableRecord
  2
*PAPER_SPACE
  0
BLOCK_RECORD
  5
3B
330
1
100
AcDbSymbolTableRecord
100
AcDbBlockTableRecord
  2
BLOCK_2
  0
BLOCK_RECORD
  5
80
330
1
100
AcDbSymbolTableRecord
100
AcDbBlockTableRecord
  2
BLOCK_3
  0
BLOCK_RECORD
  5
9F
330
1
100
AcDbSymbolTableRecord
100
AcDbBlockTableRecord
  2
BLOCK_4
  0
BLOCK_RECORD
  5
14F
330
1
100
AcDbSymbolTableRecord
100
AcDbBlockTableRecord
  2
BLOCK_5
  0
BLOCK_RECORD
  5
1DA
330
1
100
AcDbSymbolTableRecord
100
AcDbBlockTableRecord
  2
BLOCK_6
  0
BLOCK_RECORD
  5
1E7
330
1
100
AcDbSymbolTableRecord
100
AcDbBlockTableRecord
  2
BLOCK_7
  0
BLOCK_RECORD
  5
20F
330
1
100
AcDbSymbolTableRecord
100
AcDbBlockTableRecord
  2
BLOCK_8
  0
BLOCK_RECORD
  5
214
330
1
100
AcDbSymbolTableRecord
100
AcDbBlockTableRecord
  2
BLOCK_9
  0
BLOCK_RECORD
  5
219
330
1
100
AcDbSymbolTableRecord
100
AcDbBlockTableRecord
  2
BLOCK_10
  0
BLOCK_RECORD
  5
244
330
1
100
AcDbSymbolTableRecord
100
AcDbBlockTableRecord
  2
BLOCK_11
  0
BLOCK_RECORD
  5
275
330
1
100
AcDbSymbolTableRecord
100
AcDbBlockTableRecord
  2
BLOCK_12
  0
BLOCK_RECORD
  5
27F
330
1
100
AcDbSymbolTableRecord
100
AcDbBlockTableRecord
  2
BLOCK_13
  0
BLOCK_RECORD
  5
2AB
330
1
100
AcDbSymbolTableRecord
100
AcDbBlockTableRecord
  2
BLOCK_14
  0
BLOCK_RECORD
  5
2DC
330
1
100
AcDbSymbolTableRecord
100
AcDbBlockTableRecord
  2
BLOCK_15
  0
BLOCK_RECORD
  5
2E2
330
1
100
AcDbSymbolTableRecord
100
AcDbBlockTableRecord
  2
BLOCK_16
  0
BLOCK_RECORD
  5
312
330
1
100
AcDbSymbolTableRecord
100
AcDbBlockTableRecord
  2
BLOCK_17
  0
BLOCK_RECORD
  5
343
330
1
100
AcDbSymbolTableRecord
100
AcDbBlockTableRecord
  2
BLOCK_18
  0
BLOCK_RECORD
  5
353
330
1
100
AcDbSymbolTableRecord
100
AcDbBlockTableRecord
  2
BLOCK_19
  0
ENDTAB
  0
ENDSEC
  0
SECTION
  2
BLOCKS
  0
BLOCK
  5
20
330
1F
100
AcDbEntity
  8
0
100
AcDbBlockBegin
  2
*MODEL_SPACE
 70
     0
 71
     0
 10
0.0
 20
0.0
 30
0.0
  3
*MODEL_SPACE
  1

  0
ENDBLK
  5
21
330
1F
100
AcDbEntity
  8
0
100
AcDbBlockEnd
  0
BLOCK
  5
1C
330
1B
100
AcDbEntity
 67
     1
  8
0
100
AcDbBlockBegin
  2
*PAPER_SPACE
 70
     0
 71
     0
 10
0.0
 20
0.0
 30
0.0
  3
*PAPER_SPACE
  1

  0
ENDBLK
  5
1D
330
1B
100
AcDbEntity
 67
     1
  8
0
100
AcDbBlockEnd
  0
BLOCK
  5
3D
330
3B
100
AcDbEntity
  8
0
100
AcDbBlockBegin
  2
BLOCK_2
 70
     0
 71
     0
 10
0.0
 20
0.0
 30
0.0
  3
BLOCK_2
  1

  0
POLYLINE
  5
3F
330
3B
100
AcDbEntity
  8
0
100
AcDb2dPolyline
 66
     1
 10
0.0
 20
0.0
 30
0.0
  0
VERTEX
  5
40
330
3F
100
AcDbEntity
  8
0
100
AcDbVertex
100
AcDb2dVertex
 10
98.27806665294784
 20
30.7764160079309
 30
0.0
  0
VERTEX
  5
41
330
3F
100
AcDbEntity
  8
0
100
AcDbVertex
100
AcDb2dVertex
 10
97.63228350423776
 20
30.7764160079309
 30
0.0
  0
VERTEX
  5
42
330
3F
100
AcDbEntity
  8
0
100
AcDbVertex
100
AcDb2dVertex
 10
97.63228350423776
 20
30.50735405053289
 30
0.0
  0
VERTEX
  5
43
330
3F
100
AcDbEntity
  8
0
100
AcDbVertex
100
AcDb2dVertex
 10
97.3630492920655
 20
30.50735405053289
 30
0.0
  0
VERTEX
  5
44
330
3F
100
AcDbEntity
  8
0
100
AcDbVertex
100
AcDb2dVertex
 10
97.3630492920655
 20
32.09209797374781
 30
0.0
  0
VERTEX
  5
45
330
3F
100
AcDbEntity
  8
0
100
AcDbVertex
100
AcDb2dVertex
 10
98.54730086512012
 20
32.09209797374781
 30
0.0
  0
VERTEX
  5
46
330
3F
100
AcDbEntity
  8
0
100
AcDbVertex
100
AcDb2dVertex
 10
98.54730086512012
 20
30.55214029184113
 30
0.0
  0
VERTEX
  5
47
330
3F
100
AcDbEntity
  8
0
100
AcDbVertex
100
AcDb2dVertex
 10
98.27806665294784
 20
30.55214029184113
 30
0.0
  0
VERTEX
  5
48
330
3F
100
AcDbEntity
  8
0
100
AcDbVertex
100
AcDb2dVertex
 10
98.27806665294784
 20
30.7764160079309
 30
0.0
  0
SEQEND
  5
49
330
3F
100
AcDbEntity
  8
0
  0
POLYLINE
  5
4A
330
3B
100
AcDbEntity
  8
0
100
AcDb2dPolyline
 66
     1
 10
0.0
 20
0.0
 30
0.0
  0
VERTEX
  5
4B
330
4A
100
AcDbEntity
  8
0
100
AcDbVertex
100
AcDb2dVertex
 10
97.63228350423776
 20
31.8078775962147
 30
0.0
  0
VERTEX
  5
4C
330
4A
100
AcDbEntity
  8
0
100
AcDbVertex
100
AcDb2dVertex
 10
97.63228350423776
 20
31.06029187591549
 30
0.0
  0
VERTEX
  5
4D
330
4A
100
AcDbEntity
  8
0
100
AcDbVertex
100
AcDb2dVertex
 10
98.27806665294784
 20
31.06029187591549
 30
0.0
  0
VERTEX
  5
4E
330
4A
100
AcDbEntity
  8
0
100
AcDbVertex
100
AcDb2dVertex
 10
98.27806665294784
 20
31.8078775962147
 30
0.0
  0
VERTEX
  5
4F
330
4A
100
AcDbEntity
  8
0
100
AcDbVertex
100
AcDb2dVertex
 10
97.63228350423776
 20
31.8078775962147
 30
0.0
  0
SEQEND
  5
50
330
4A
100
AcDbEntity
  8
0
  0
POLYLINE
  5
51
330
3B
100
AcDbEntity
  8
0
100
AcDb2dPolyline
 66
     1
 10
0.0
 20
0.0
 30
0.0
  0
VERTEX
  5
52
330
51
100
AcDbEntity
  8
0
100
AcDbVertex
100
AcDb2dVertex
 10
99.28730737535179
 20
32.46589083389742
 30
0.0
  0
VERTEX
  5
53
330
51
100
AcDbEntity
  8
0
100
AcDbVertex
100
AcDb2dVertex
 10
98.10322805707142
 20
32.46589083389742
 30
0.0
  0
VERTEX
  5
54
330
51
100
AcDbEntity
  8
0
100
AcDbVertex
100
AcDb2dVertex
 10
98.10322805707142
 20
32.36115993114582
 30
0.0
  0
VERTEX
  5
55
330
51
100
AcDbEntity
  8
0
100
AcDbVertex
100
AcDb2dVertex
 10
97.83399384489914
 20
32.36115993114582
 30
0.0
  0
VERTEX
  5
56
330
51
100
AcDbEntity
  8
0
100
AcDbVertex
100
AcDb2dVertex
 10
97.83399384489914
 20
33.75160046899266
 30
0.0
  0
VERTEX
  5
57
330
51
100
AcDbEntity
  8
0
100
AcDbVertex
100
AcDb2dVertex
 10
99.55654158752407
 20
33.75160046899266
 30
0.0
  0
VERTEX
  5
58
330
51
100
AcDbEntity
  8
0
100
AcDbVertex
100
AcDb2dVertex
 10
99.55654158752407
 20
32.3911322618675
 30
0.0
  0
VERTEX
  5
59
330
51
100
AcDbEntity
  8
0
100
AcDbVertex
100
AcDb2dVertex
 10
99.28730737535179
 20
32.3911322618675
 30
0.0
  0
VERTEX
  5
5A
330
51
100
AcDbEntity
  8
0
100
AcDbVertex
100
AcDb2dVertex
 10
99.28730737535179
 20
32.46589083389742
 30
0.0
  0
SEQEND
  5
5B
330
51
100
AcDbEntity
  8
0
  0
POLYLINE
  5
5C
330
3B
100
AcDbEntity
  8
0
100
AcDb2dPolyline
 66
     1
 10
0.0
 20
0.0
 30
0.0
  0
VERTEX
  5
5D
330
5C
100
AcDbEntity
  8
0
100
AcDbVertex
100
AcDb2dVertex
 10
98.10322805707142
 20
32.75011121143053
 30
0.0
  0
VERTEX
  5
5E
330
5C
100
AcDbEntity
  8
0
100
AcDbVertex
100
AcDb2dVertex
 10
99.28730737535179
 20
32.75011121143053
 30
0.0
  0
VERTEX
  5
5F
330
5C
100
AcDbEntity
  8
0
100
AcDbVertex
100
AcDb2dVertex
 10
99.28730737535179
 20
33.46772460100807
 30
0.0
  0
VERTEX
  5
60
330
5C
100
AcDbEntity
  8
0
100
AcDbVertex
100
AcDb2dVertex
 10
98.10322805707142
 20
33.46772460100807
 30
0.0
  0
VERTEX
  5
61
330
5C
100
AcDbEntity
  8
0
100
AcDbVertex
100
AcDb2dVertex
 10
98.10322805707142
 20
32.75011121143053
 30
0.0
  0
SEQEND
  5
62
330
5C
100
AcDbEntity
  8
0
  0
POLYLINE
  5
63
330
3B
100
AcDbEntity
  8
0
100
AcDb2dPolyline
 66
     1
 10
0.0
 20
0.0
 30
0.0
  0
VERTEX
  5
64
330
63
100
AcDbEntity
  8
0
100
AcDbVertex
100
AcDb2dVertex
 10
99.8121676725296
 20
30.7764160079309
 30
0.0
  0
VERTEX
  5
65
330
63
100
AcDbEntity
  8
0
100
AcDbVertex
100
AcDb2dVertex
 10
99.16621226904526
 20
30.7764160079309
 30
0.0
  0
VERTEX
  5
66
330
63
100
AcDbEntity
  8
0
100
AcDbVertex
100
AcDb2dVertex
 10
99.16621226904526
 20
30.50735405053289
 30
0.0
  0
VERTEX
  5
67
330
63
100
AcDbEntity
  8
0
100
AcDbVertex
100
AcDb2dVertex
 10
98.89715031164724
 20
30.50735405053289
 30
0.0
  0
VERTEX
  5
68
330
63
100
AcDbEntity
  8
0
100
AcDbVertex
100
AcDb2dVertex
 10
98.89715031164724
 20
32.09209797374781
 30
0.0
  0
VERTEX
  5
69
330
63
100
AcDbEntity
  8
0
100
AcDbVertex
100
AcDb2dVertex
 10
100.0812296299276
 20
32.09209797374781
 30
0.0
  0
VERTEX
  5
6A
330
63
100
AcDbEntity
  8
0
100
AcDbVertex
100
AcDb2dVertex
 10
100.0812296299276
 20
30.55214029184113
 30
0.0
  0
VERTEX
  5
6B
330
63
100
AcDbEntity
  8
0
100
AcDbVertex
100
AcDb2dVertex
 10
99.8121676725296
 20
30.55214029184113
 30
0.0
  0
VERTEX
  5
6C
330
63
100
AcDbEntity
  8
0
100
AcDbVertex
100
AcDb2dVertex
 10
99.8121676725296
 20
30.7764160079309
 30
0.0
  0
SEQEND
  5
6D
330
63
100
AcDbEntity
  8
0
  0
POLYLINE
  5
6E
330
3B
100
AcDbEntity
  8
0
100
AcDb2dPolyline
 66
     1
 10
0.0
 20
0.0
 30
0.0
  0
VERTEX
  5
6F
330
6E
100
AcDbEntity
  8
0
100
AcDbVertex
100
AcDb2dVertex
 10
99.16621226904526
 20
31.8078775962147
 30
0.0
  0
VERTEX
  5
70
330
6E
100
AcDbEntity
  8
0
100
AcDbVertex
100
AcDb2dVertex
 10
99.16621226904526
 20
31.06029187591549
 30
0.0
  0
VERTEX
  5
71
330
6E
100
AcDbEntity
  8
0
100
AcDbVertex
100
AcDb2dVertex
 10
99.8121676725296
 20
31.06029187591549
 30
0.0
  0
VERTEX
  5
72
330
6E
100
AcDbEntity
  8
0
100
AcDbVertex
100
AcDb2dVertex
 10
99.8121676725296
 20
31.8078775962147
 30
0.0
  0
VERTEX
  5
73
330
6E
100
AcDbEntity
  8
0
100
AcDbVertex
100
AcDb2dVertex
 10
99.16621226904526
 20
31.8078775962147
 30
0.0
  0
SEQEND
  5
74
330
6E
100
AcDbEntity
  8
0
  0
HATCH
  5
75
330
3B
100
AcDbEntity
  8
0
 62
    18
100
AcDbHatch
 10
0.0
 20
0.0
 30
0.0
210
0.0
220
0.0
230
1.0
  2
SOLID
 70
     1
 71
     0
 91
        6
 92
        1
 93
        8
 72
     1
 10
98.27806665294784
 20
30.7764160079309
 11
97.63228350423776
 21
30.7764160079309
 72
     1
 10
97.63228350423776
 20
30.7764160079309
 11
97.63228350423776
 21
30.50735405053289
 72
     1
 10
97.63228350423776
 20
30.50735405053289
 11
97.3630492920655
 21
30.50735405053289
 72
     1
 10
97.3630492920655
 20
30.50735405053289
 11
97.3630492920655
 21
32.09209797374781
 72
     1
 10
97.3630492920655
 20
32.09209797374781
 11
98.54730086512012
 21
32.09209797374781
 72
     1
 10
98.54730086512012
 20
32.09209797374781
 11
98.54730086512012
 21
30.55214029184113
 72
     1
 10
98.54730086512012
 20
30.55214029184113
 11
98.27806665294784
 21
30.55214029184113
 72
     1
 10
98.27806665294784
 20
30.55214029184113
 11
98.27806665294784
 21
30.7764160079309
 97
        0
 92
        1
 93
        4
 72
     1
 10
97.63228350423776
 20
31.8078775962147
 11
97.63228350423776
 21
31.06029187591549
 72
     1
 10
97.63228350423776
 20
31.06029187591549
 11
98.27806665294784
 21
31.06029187591549
 72
     1
 10
98.27806665294784
 20
31.06029187591549
 11
98.27806665294784
 21
31.8078775962147
 72
     1
 10
98.27806665294784
 20
31.8078775962147
 11
97.63228350423776
 21
31.8078775962147
 97
        0
 92
        1
 93
        8
 72
     1
 10
99.28730737535179
 20
32.46589083389742
 11
98.10322805707142
 21
32.46589083389742
 72
     1
 10
98.10322805707142
 20
32.46589083389742
 11
98.10322805707142
 21
32.36115993114582
 72
     1
 10
98.10322805707142
 20
32.36115993114582
 11
97.83399384489914
 21
32.36115993114582
 72
     1
 10
97.83399384489914
 20
32.36115993114582
 11
97.83399384489914
 21
33.75160046899266
 72
     1
 10
97.83399384489914
 20
33.75160046899266
 11
99.55654158752407
 21
33.75160046899266
 72
     1
 10
99.55654158752407
 20
33.75160046899266
 11
99.55654158752407
 21
32.3911322618675
 72
     1
 10
99.55654158752407
 20
32.3911322618675
 11
99.28730737535179
 21
32.3911322618675
 72
     1
 10
99.28730737535179
 20
32.3911322618675
 11
99.28730737535179
 21
32.46589083389742
 97
        0
 92
        1
 93
        4
 72
     1
 10
98.10322805707142
 20
32.75011121143053
 11
99.28730737535179
 21
32.75011121143053
 72
     1
 10
99.28730737535179
 20
32.75011121143053
 11
99.28730737535179
 21
33.46772460100807
 72
     1
 10
99.28730737535179
 20
33.46772460100807
 11
98.10322805707142
 21
33.46772460100807
 72
     1
 10
98.10322805707142
 20
33.46772460100807
 11
98.10322805707142
 21
32.75011121143053
 97
        0
 92
        1
 93
        8
 72
     1
 10
99.8121676725296
 20
30.7764160079309
 11
99.16621226904526
 21
30.7764160079309
 72
     1
 10
99.16621226904526
 20
30.7764160079309
 11
99.16621226904526
 21
30.50735405053289
 72
     1
 10
99.16621226904526
 20
30.50735405053289
 11
98.89715031164724
 21
30.50735405053289
 72
     1
 10
98.89715031164724
 20
30.50735405053289
 11
98.89715031164724
 21
32.09209797374781
 72
     1
 10
98.89715031164724
 20
32.09209797374781
 11
100.0812296299276
 21
32.09209797374781
 72
     1
 10
100.0812296299276
 20
32.09209797374781
 11
100.0812296299276
 21
30.55214029184113
 72
     1
 10
100.0812296299276
 20
30.55214029184113
 11
99.8121676725296
 21
30.55214029184113
 72
     1
 10
99.8121676725296
 20
30.55214029184113
 11
99.8121676725296
 21
30.7764160079309
 97
        0
 92
        1
 93
        4
 72
     1
 10
99.16621226904526
 20
31.8078775962147
 11
99.16621226904526
 21
31.06029187591549
 72
     1
 10
99.16621226904526
 20
31.06029187591549
 11
99.8121676725296
 21
31.06029187591549
 72
     1
 10
99.8121676725296
 20
31.06029187591549
 11
99.8121676725296
 21
31.8078775962147
 72
     1
 10
99.8121676725296
 20
31.8078775962147
 11
99.16621226904526
 21
31.8078775962147
 97
        0
 75
     2
 76
     1
 98
        0
  0
SPLINE
  5
76
330
3B
100
AcDbEntity
  8
0
100
AcDbSpline
210
0.0
220
0.0
230
1.0
 70
    11
 71
     3
 72
    77
 73
    73
 74
     0
 42
0.0000000001
 43
0.0000000001
 40
0.0
 40
0.0
 40
0.0
 40
0.0
 40
1.0
 40
1.0
 40
1.0
 40
2.0
 40
2.0
 40
2.0
 40
3.0
 40
3.0
 40
3.0
 40
4.0
 40
4.0
 40
4.0
 40
5.0
 40
5.0
 40
5.0
 40
6.0
 40
6.0
 40
6.0
 40
7.0
 40
7.0
 40
7.0
 40
8.0
 40
8.0
 40
8.0
 40
9.0
 40
9.0
 40
9.0
 40
10.0
 40
10.0
 40
10.0
 40
11.0
 40
11.0
 40
11.0
 40
12.0
 40
12.0
 40
12.0
 40
13.0
 40
13.0
 40
13.0
 40
14.0
 40
14.0
 40
14.0
 40
15.0
 40
15.0
 40
15.0
 40
16.0
 40
16.0
 40
16.0
 40
17.0
 40
17.0
 40
17.0
 40
18.0
 40
18.0
 40
18.0
 40
19.0
 40
19.0
 40
19.0
 40
20.0
 40
20.0
 40
20.0
 40
21.0
 40
21.0
 40
21.0
 40
22.0
 40
22.0
 40
22.0
 40
23.0
 40
23.0
 40
23.0
 40
24.0
 40
24.0
 40
24.0
 40
24.0
 10
106.5671386452332
 20
33.36299369825647
 30
0.0
 10
106.2622476947886
 20
32.87447915844805
 30
0.0
 10
105.9077473693564
 20
32.46072319066954
 30
0.0
 10
105.5039821784851
 20
32.12207030446948
 30
0.0
 10
105.5039821784851
 20
32.12207030446948
 30
0.0
 10
106.7555853682764
 20
32.12207030446948
 30
0.0
 10
106.7555853682764
 20
32.12207030446948
 30
0.0
 10
106.7555853682764
 20
32.12207030446948
 30
0.0
 10
106.7555853682764
 20
30.56695420242771
 30
0.0
 10
106.7555853682764
 20
30.56695420242771
 30
0.0
 10
106.7555853682764
 20
30.56695420242771
 30
0.0
 10
106.4865234108784
 20
30.56695420242771
 30
0.0
 10
106.4865234108784
 20
30.56695420242771
 30
0.0
 10
106.4865234108784
 20
30.56695420242771
 30
0.0
 10
106.4865234108784
 20
30.70165743590098
 30
0.0
 10
106.4865234108784
 20
30.70165743590098
 30
0.0
 10
106.4865234108784
 20
30.70165743590098
 30
0.0
 10
105.2619642206463
 20
30.70165743590098
 30
0.0
 10
105.2619642206463
 20
30.70165743590098
 30
0.0
 10
105.2619642206463
 20
30.70165743590098
 30
0.0
 10
105.2619642206463
 20
30.52216796111946
 30
0.0
 10
105.2619642206463
 20
30.52216796111946
 30
0.0
 10
105.2619642206463
 20
30.52216796111946
 30
0.0
 10
104.992730008474
 20
30.52216796111946
 30
0.0
 10
104.992730008474
 20
30.52216796111946
 30
0.0
 10
104.992730008474
 20
30.52216796111946
 30
0.0
 10
104.992730008474
 20
31.73311902418478
 30
0.0
 10
104.992730008474
 20
31.73311902418478
 30
0.0
 10
104.723668051076
 20
31.56362032631048
 30
0.0
 10
104.4768269595579
 20
31.43408473606509
 30
0.0
 10
104.2527234982424
 20
31.3445122534486
 30
0.0
 10
104.2527234982424
 20
31.3445122534486
 30
0.0
 10
104.1450642643283
 20
31.68833278287653
 30
0.0
 10
104.1450642643283
 20
31.68833278287653
 30
0.0
 10
104.5665716969486
 20
31.81786837312192
 30
0.0
 10
104.9746432571765
 20
32.05695799979826
 30
0.0
 10
105.3696234545604
 20
32.40594617245407
 30
0.0
 10
105.2888359654313
 20
32.50550943197779
 30
0.0
 10
105.1408691143398
 20
32.63538953177171
 30
0.0
 10
104.9255506465117
 20
32.79489745273878
 30
0.0
 10
104.7458889169559
 20
32.60541720105004
 30
0.0
 10
104.5486572004253
 20
32.44590928008297
 30
0.0
 10
104.3335109873715
 20
32.31637368983758
 30
0.0
 10
104.3335109873715
 20
32.31637368983758
 30
0.0
 10
104.1585001367208
 20
32.55546331651392
 30
0.0
 10
104.1585001367208
 20
32.55546331651392
 30
0.0
 10
104.6518378102086
 20
32.83451605081915
 30
0.0
 10
104.9972086326049
 20
33.27824434931933
 30
0.0
 10
105.1946126039097
 20
33.88630370246592
 30
0.0
 10
105.1946126039097
 20
33.88630370246592
 30
0.0
 10
105.4905463060926
 20
33.811545130436
 30
0.0
 10
105.4905463060926
 20
33.811545130436
 30
0.0
 10
105.5263752991392
 20
33.77158202280711
 30
0.0
 10
105.5129394267468
 20
33.74643282576478
 30
0.0
 10
105.4502386889152
 20
33.73678655840608
 30
0.0
 10
105.4502386889152
 20
33.73678655840608
 30
0.0
 10
105.3964951993453
 20
33.60208332493281
 30
0.0
 10
105.3964951993453
 20
33.60208332493281
 30
0.0
 10
105.3964951993453
 20
33.60208332493281
 30
0.0
 10
106.2980766878352
 20
33.60208332493281
 30
0.0
 10
106.2980766878352
 20
33.60208332493281
 30
0.0
 10
106.2980766878352
 20
33.60208332493281
 30
0.0
 10
106.3249484326202
 20
33.66202798637616
 30
0.0
 10
106.3249484326202
 20
33.66202798637616
 30
0.0
 10
106.3249484326202
 20
33.66202798637616
 30
0.0
 10
106.6074462624106
 20
33.4377522702864
 30
0.0
 10
106.6074462624106
 20
33.4377522702864
 30
0.0
 10
106.6432752554572
 20
33.3977891626575
 30
0.0
 10
106.6298393830648
 20
33.37263996561517
 30
0.0
 10
106.5671386452332
 20
33.36299369825647
 30
0.0
 10
106.5671386452332
 20
33.36299369825647
 30
0.0
 10
106.5671386452332
 20
33.36299369825647
 30
0.0
 10
106.5671386452332
 20
33.36299369825647
 30
0.0
  0
SPLINE
  5
77
330
3B
100
AcDbEntity
  8
0
100
AcDbSpline
210
0.0
220
0.0
230
1.0
 70
    11
 71
     3
 72
    20
 73
    16
 74
     0
 42
0.0000000001
 43
0.0000000001
 40
0.0
 40
0.0
 40
0.0
 40
0.0
 40
1.0
 40
1.0
 40
1.0
 40
2.0
 40
2.0
 40
2.0
 40
3.0
 40
3.0
 40
3.0
 40
4.0
 40
4.0
 40
4.0
 40
5.0
 40
5.0
 40
5.0
 40
5.0
 10
105.598377794781
 20
32.61540797795726
 30
0.0
 10
105.7954372565373
 20
32.82486978346045
 30
0.0
 10
105.9838839795804
 20
33.05879176690892
 30
0.0
 10
106.1633734543619
 20
33.31820745694823
 30
0.0
 10
106.1633734543619
 20
33.31820745694823
 30
0.0
 10
105.2754000930388
 20
33.31820745694823
 30
0.0
 10
105.2754000930388
 20
33.31820745694823
 30
0.0
 10
105.2754000930388
 20
33.31820745694823
 30
0.0
 10
105.0735174976031
 20
33.00401474869344
 30
0.0
 10
105.0735174976031
 20
33.00401474869344
 30
0.0
 10
105.2707492141337
 20
32.88446993535527
 30
0.0
 10
105.4457600647844
 20
32.75493434510988
 30
0.0
 10
105.598377794781
 20
32.61540797795726
 30
0.0
 10
105.598377794781
 20
32.61540797795726
 30
0.0
 10
105.598377794781
 20
32.61540797795726
 30
0.0
 10
105.598377794781
 20
32.61540797795726
 30
0.0
  0
POLYLINE
  5
78
330
3B
100
AcDbEntity
  8
0
100
AcDb2dPolyline
 66
     1
 10
0.0
 20
0.0
 30
0.0
  0
VERTEX
  5
79
330
78
100
AcDbEntity
  8
0
100
AcDbVertex
100
AcDb2dVertex
 10
106.4865234108784
 20
31.83784992693637
 30
0.0
  0
VERTEX
  5
7A
330
78
100
AcDbEntity
  8
0
100
AcDbVertex
100
AcDb2dVertex
 10
105.2619642206463
 20
31.83784992693637
 30
0.0
  0
VERTEX
  5
7B
330
78
100
AcDbEntity
  8
0
100
AcDbVertex
100
AcDb2dVertex
 10
105.2619642206463
 20
30.98553330388556
 30
0.0
  0
VERTEX
  5
7C
330
78
100
AcDbEntity
  8
0
100
AcDbVertex
100
AcDb2dVertex
 10
106.4865234108784
 20
30.98553330388556
 30
0.0
  0
VERTEX
  5
7D
330
78
100
AcDbEntity
  8
0
100
AcDbVertex
100
AcDb2dVertex
 10
106.4865234108784
 20
31.83784992693637
 30
0.0
  0
SEQEND
  5
7E
330
78
100
AcDbEntity
  8
0
  0
HATCH
  5
7F
330
3B
100
AcDbEntity
  8
0
 62
    18
100
AcDbHatch
 10
0.0
 20
0.0
 30
0.0
210
0.0
220
0.0
230
1.0
  2
SOLID
 70
     1
 71
     0
 91
        3
 92
        1
 93
        1
 72
     4
 94
        3
 73
     0
 74
     1
 95
       77
 96
       73
 40
0.0
 40
0.0
 40
0.0
 40
0.0
 40
1.0
 40
1.0
 40
1.0
 40
2.0
 40
2.0
 40
2.0
 40
3.0
 40
3.0
 40
3.0
 40
4.0
 40
4.0
 40
4.0
 40
5.0
 40
5.0
 40
5.0
 40
6.0
 40
6.0
 40
6.0
 40
7.0
 40
7.0
 40
7.0
 40
8.0
 40
8.0
 40
8.0
 40
9.0
 40
9.0
 40
9.0
 40
10.0
 40
10.0
 40
10.0
 40
11.0
 40
11.0
 40
11.0
 40
12.0
 40
12.0
 40
12.0
 40
13.0
 40
13.0
 40
13.0
 40
14.0
 40
14.0
 40
14.0
 40
15.0
 40
15.0
 40
15.0
 40
16.0
 40
16.0
 40
16.0
 40
17.0
 40
17.0
 40
17.0
 40
18.0
 40
18.0
 40
18.0
 40
19.0
 40
19.0
 40
19.0
 40
20.0
 40
20.0
 40
20.0
 40
21.0
 40
21.0
 40
21.0
 40
22.0
 40
22.0
 40
22.0
 40
23.0
 40
23.0
 40
23.0
 40
24.0
 40
24.0
 40
24.0
 40
24.0
 10
106.5671386452332
 20
33.36299369825647
 10
106.2622476947886
 20
32.87447915844805
 10
105.9077473693564
 20
32.46072319066954
 10
105.5039821784851
 20
32.12207030446948
 10
105.5039821784851
 20
32.12207030446948
 10
106.7555853682764
 20
32.12207030446948
 10
106.7555853682764
 20
32.12207030446948
 10
106.7555853682764
 20
32.12207030446948
 10
106.7555853682764
 20
30.56695420242771
 10
106.7555853682764
 20
30.56695420242771
 10
106.7555853682764
 20
30.56695420242771
 10
106.4865234108784
 20
30.56695420242771
 10
106.4865234108784
 20
30.56695420242771
 10
106.4865234108784
 20
30.56695420242771
 10
106.4865234108784
 20
30.70165743590098
 10
106.4865234108784
 20
30.70165743590098
 10
106.4865234108784
 20
30.70165743590098
 10
105.2619642206463
 20
30.70165743590098
 10
105.2619642206463
 20
30.70165743590098
 10
105.2619642206463
 20
30.70165743590098
 10
105.2619642206463
 20
30.52216796111946
 10
105.2619642206463
 20
30.52216796111946
 10
105.2619642206463
 20
30.52216796111946
 10
104.992730008474
 20
30.52216796111946
 10
104.992730008474
 20
30.52216796111946
 10
104.992730008474
 20
30.52216796111946
 10
104.992730008474
 20
31.73311902418478
 10
104.992730008474
 20
31.73311902418478
 10
104.723668051076
 20
31.56362032631048
 10
104.4768269595579
 20
31.43408473606509
 10
104.2527234982424
 20
31.3445122534486
 10
104.2527234982424
 20
31.3445122534486
 10
104.1450642643283
 20
31.68833278287653
 10
104.1450642643283
 20
31.68833278287653
 10
104.5665716969486
 20
31.81786837312192
 10
104.9746432571765
 20
32.05695799979826
 10
105.3696234545604
 20
32.40594617245407
 10
105.2888359654313
 20
32.50550943197779
 10
105.1408691143398
 20
32.63538953177171
 10
104.9255506465117
 20
32.79489745273878
 10
104.7458889169559
 20
32.60541720105004
 10
104.5486572004253
 20
32.44590928008297
 10
104.3335109873715
 20
32.31637368983758
 10
104.3335109873715
 20
32.31637368983758
 10
104.1585001367208
 20
32.55546331651392
 10
104.1585001367208
 20
32.55546331651392
 10
104.6518378102086
 20
32.83451605081915
 10
104.9972086326049
 20
33.27824434931933
 10
105.1946126039097
 20
33.88630370246592
 10
105.1946126039097
 20
33.88630370246592
 10
105.4905463060926
 20
33.811545130436
 10
105.4905463060926
 20
33.811545130436
 10
105.5263752991392
 20
33.77158202280711
 10
105.5129394267468
 20
33.74643282576478
 10
105.4502386889152
 20
33.73678655840608
 10
105.4502386889152
 20
33.73678655840608
 10
105.3964951993453
 20
33.60208332493281
 10
105.3964951993453
 20
33.60208332493281
 10
105.3964951993453
 20
33.60208332493281
 10
106.2980766878352
 20
33.60208332493281
 10
106.2980766878352
 20
33.60208332493281
 10
106.2980766878352
 20
33.60208332493281
 10
106.3249484326202
 20
33.66202798637616
 10
106.3249484326202
 20
33.66202798637616
 10
106.3249484326202
 20
33.66202798637616
 10
106.6074462624106
 20
33.4377522702864
 10
106.6074462624106
 20
33.4377522702864
 10
106.6432752554572
 20
33.3977891626575
 10
106.6298393830648
 20
33.37263996561517
 10
106.5671386452332
 20
33.36299369825647
 10
106.5671386452332
 20
33.36299369825647
 10
106.5671386452332
 20
33.36299369825647
 10
106.5671386452332
 20
33.36299369825647
 97
        0
 92
        1
 93
        1
 72
     4
 94
        3
 73
     0
 74
     1
 95
       20
 96
       16
 40
0.0
 40
0.0
 40
0.0
 40
0.0
 40
1.0
 40
1.0
 40
1.0
 40
2.0
 40
2.0
 40
2.0
 40
3.0
 40
3.0
 40
3.0
 40
4.0
 40
4.0
 40
4.0
 40
5.0
 40
5.0
 40
5.0
 40
5.0
 10
105.598377794781
 20
32.61540797795726
 10
105.7954372565373
 20
32.82486978346045
 10
105.9838839795804
 20
33.05879176690892
 10
106.1633734543619
 20
33.31820745694823
 10
106.1633734543619
 20
33.31820745694823
 10
105.2754000930388
 20
33.31820745694823
 10
105.2754000930388
 20
33.31820745694823
 10
105.2754000930388
 20
33.31820745694823
 10
105.0735174976031
 20
33.00401474869344
 10
105.0735174976031
 20
33.00401474869344
 10
105.2707492141337
 20
32.88446993535527
 10
105.4457600647844
 20
32.75493434510988
 10
105.598377794781
 20
32.61540797795726
 10
105.598377794781
 20
32.61540797795726
 10
105.598377794781
 20
32.61540797795726
 10
105.598377794781
 20
32.61540797795726
 97
        0
 92
        1
 93
        4
 72
     1
 10
106.4865234108784
 20
31.83784992693637
 11
105.2619642206463
 21
31.83784992693637
 72
     1
 10
105.2619642206463
 20
31.83784992693637
 11
105.2619642206463
 21
30.98553330388556
 72
     1
 10
105.2619642206463
 20
30.98553330388556
 11
106.4865234108784
 21
30.98553330388556
 72
     1
 10
106.4865234108784
 20
30.98553330388556
 11
106.4865234108784
 21
31.83784992693637
 97
        0
 75
     2
 76
     1
 98
        0
  0
ENDBLK
  5
3E
330
3B
100
AcDbEntity
  8
0
100
AcDbBlockEnd
  0
BLOCK
  5
82
330
80
100
AcDbEntity
  8
0
100
AcDbBlockBegin
  2
BLOCK_3
 70
     0
 71
     0
 10
0.0
 20
0.0
 30
0.0
  3
BLOCK_3
  1

  0
SPLINE
  5
84
330
80
100
AcDbEntity
  8
0
100
AcDbSpline
210
0.0
220
0.0
230
1.0
 70
    11
 71
     3
 72
    65
 73
    61
 74
     0
 42
0.0000000001
 43
0.0000000001
 40
0.0
 40
0.0
 40
0.0
 40
0.0
 40
1.0
 40
1.0
 40
1.0
 40
2.0
 40
2.0
 40
2.0
 40
3.0
 40
3.0
 40
3.0
 40
4.0
 40
4.0
 40
4.0
 40
5.0
 40
5.0
 40
5.0
 40
6.0
 40
6.0
 40
6.0
 40
7.0
 40
7.0
 40
7.0
 40
8.0
 40
8.0
 40
8.0
 40
9.0
 40
9.0
 40
9.0
 40
10.0
 40
10.0
 40
10.0
 40
11.0
 40
11.0
 40
11.0
 40
12.0
 40
12.0
 40
12.0
 40
13.0
 40
13.0
 40
13.0
 40
14.0
 40
14.0
 40
14.0
 40
15.0
 40
15.0
 40
15.0
 40
16.0
 40
16.0
 40
16.0
 40
17.0
 40
17.0
 40
17.0
 40
18.0
 40
18.0
 40
18.0
 40
19.0
 40
19.0
 40
19.0
 40
20.0
 40
20.0
 40
20.0
 40
20.0
 10
98.10322805707142
 20
22.90850693871732
 30
0.0
 10
98.10322805707142
 20
22.90850693871732
 30
0.0
 10
97.83399384489914
 20
22.90850693871732
 30
0.0
 10
97.83399384489914
 20
22.90850693871732
 30
0.0
 10
97.83399384489914
 20
22.90850693871732
 30
0.0
 10
97.83399384489914
 20
24.52322319265392
 30
0.0
 10
97.83399384489914
 20
24.52322319265392
 30
0.0
 10
97.69050561793848
 20
24.22418890453423
 30
0.0
 10
97.51549476728779
 20
23.94995930390834
 30
0.0
 10
97.3093058024956
 20
23.70087890032478
 30
0.0
 10
97.3093058024956
 20
23.70087890032478
 30
0.0
 10
97.12085907945243
 20
24.01472709903104
 30
0.0
 10
97.12085907945243
 20
24.01472709903104
 30
0.0
 10
97.51549476728779
 20
24.4732693081178
 30
0.0
 10
97.7487277316392
 20
24.89701605280353
 30
0.0
 10
97.82055797250668
 20
25.28562282353971
 30
0.0
 10
97.82055797250668
 20
25.28562282353971
 30
0.0
 10
97.25539005815143
 20
25.28562282353971
 30
0.0
 10
97.25539005815143
 20
25.28562282353971
 30
0.0
 10
97.25539005815143
 20
25.28562282353971
 30
0.0
 10
97.25539005815143
 20
25.56984320107282
 30
0.0
 10
97.25539005815143
 20
25.56984320107282
 30
0.0
 10
97.25539005815143
 20
25.56984320107282
 30
0.0
 10
97.83399384489914
 20
25.56984320107282
 30
0.0
 10
97.83399384489914
 20
25.56984320107282
 30
0.0
 10
97.83399384489914
 20
25.56984320107282
 30
0.0
 10
97.83399384489914
 20
26.27229817051526
 30
0.0
 10
97.83399384489914
 20
26.27229817051526
 30
0.0
 10
97.83399384489914
 20
26.27229817051526
 30
0.0
 10
98.08979218467894
 20
26.27229817051526
 30
0.0
 10
98.08979218467894
 20
26.27229817051526
 30
0.0
 10
98.16145017077214
 20
26.26230739360804
 30
0.0
 10
98.16592879490297
 20
26.23267957243489
 30
0.0
 10
98.10322805707142
 20
26.18272568789876
 30
0.0
 10
98.10322805707142
 20
26.18272568789876
 30
0.0
 10
98.10322805707142
 20
25.56984320107282
 30
0.0
 10
98.10322805707142
 20
25.56984320107282
 30
0.0
 10
98.10322805707142
 20
25.56984320107282
 30
0.0
 10
98.60104435469002
 20
25.56984320107282
 30
0.0
 10
98.60104435469002
 20
25.56984320107282
 30
0.0
 10
98.60104435469002
 20
25.56984320107282
 30
0.0
 10
98.60104435469002
 20
25.28562282353971
 30
0.0
 10
98.60104435469002
 20
25.28562282353971
 30
0.0
 10
98.60104435469002
 20
25.28562282353971
 30
0.0
 10
98.10322805707142
 20
25.28562282353971
 30
0.0
 10
98.10322805707142
 20
25.28562282353971
 30
0.0
 10
98.10322805707142
 20
25.28562282353971
 30
0.0
 10
98.10322805707142
 20
24.89701605280353
 30
0.0
 10
98.10322805707142
 20
24.89701605280353
 30
0.0
 10
98.35420326317187
 20
24.77747123946536
 30
0.0
 10
98.55160723447669
 20
24.64276800599209
 30
0.0
 10
98.6952677162116
 20
24.49325086193224
 30
0.0
 10
98.6952677162116
 20
24.49325086193224
 30
0.0
 10
98.52042912033518
 20
24.16424424309088
 30
0.0
 10
98.52042912033518
 20
24.16424424309088
 30
0.0
 10
98.40364038338521
 20
24.3037706102435
 30
0.0
 10
98.26463078055538
 20
24.4333062004889
 30
0.0
 10
98.10322805707142
 20
24.55319552337559
 30
0.0
 10
98.10322805707142
 20
24.55319552337559
 30
0.0
 10
98.10322805707142
 20
22.90850693871732
 30
0.0
 10
98.10322805707142
 20
22.90850693871732
 30
0.0
  0
SPLINE
  5
85
330
80
100
AcDbEntity
  8
0
100
AcDbSpline
210
0.0
220
0.0
230
1.0
 70
    11
 71
     3
 72
    71
 73
    67
 74
     0
 42
0.0000000001
 43
0.0000000001
 40
0.0
 40
0.0
 40
0.0
 40
0.0
 40
1.0
 40
1.0
 40
1.0
 40
2.0
 40
2.0
 40
2.0
 40
3.0
 40
3.0
 40
3.0
 40
4.0
 40
4.0
 40
4.0
 40
5.0
 40
5.0
 40
5.0
 40
6.0
 40
6.0
 40
6.0
 40
7.0
 40
7.0
 40
7.0
 40
8.0
 40
8.0
 40
8.0
 40
9.0
 40
9.0
 40
9.0
 40
10.0
 40
10.0
 40
10.0
 40
11.0
 40
11.0
 40
11.0
 40
12.0
 40
12.0
 40
12.0
 40
13.0
 40
13.0
 40
13.0
 40
14.0
 40
14.0
 40
14.0
 40
15.0
 40
15.0
 40
15.0
 40
16.0
 40
16.0
 40
16.0
 40
17.0
 40
17.0
 40
17.0
 40
18.0
 40
18.0
 40
18.0
 40
19.0
 40
19.0
 40
19.0
 40
20.0
 40
20.0
 40
20.0
 40
21.0
 40
21.0
 40
21.0
 40
22.0
 40
22.0
 40
22.0
 40
22.0
 10
99.42183835405079
 20
23.23716904801015
 30
0.0
 10
99.4576673470974
 20
23.23716904801015
 30
0.0
 10
99.47575409839496
 20
23.2571506018246
 30
0.0
 10
99.47575409839496
 20
23.2971137094535
 30
0.0
 10
99.47575409839496
 20
23.2971137094535
 30
0.0
 10
99.47575409839496
 20
24.49325086193224
 30
0.0
 10
99.47575409839496
 20
24.49325086193224
 30
0.0
 10
99.26043563056685
 20
24.10464409119606
 30
0.0
 10
98.95967879470453
 20
23.7756374723547
 30
0.0
 10
98.57417260990508
 20
23.50657551495669
 30
0.0
 10
98.57417260990508
 20
23.50657551495669
 30
0.0
 10
98.41259763164686
 20
23.8652099549712
 30
0.0
 10
98.41259763164686
 20
23.8652099549712
 30
0.0
 10
98.89715031164724
 20
24.16424424309088
 30
0.0
 10
99.2514783823052
 20
24.57765570132086
 30
0.0
 10
99.47575409839496
 20
25.10613334875819
 30
0.0
 10
99.47575409839496
 20
25.10613334875819
 30
0.0
 10
99.47575409839496
 20
25.28562282353971
 30
0.0
 10
99.47575409839496
 20
25.28562282353971
 30
0.0
 10
99.47575409839496
 20
25.28562282353971
 30
0.0
 10
98.72213946099656
 20
25.28562282353971
 30
0.0
 10
98.72213946099656
 20
25.28562282353971
 30
0.0
 10
98.72213946099656
 20
25.28562282353971
 30
0.0
 10
98.72213946099656
 20
25.56984320107282
 30
0.0
 10
98.72213946099656
 20
25.56984320107282
 30
0.0
 10
98.72213946099656
 20
25.56984320107282
 30
0.0
 10
99.47575409839496
 20
25.56984320107282
 30
0.0
 10
99.47575409839496
 20
25.56984320107282
 30
0.0
 10
99.47575409839496
 20
25.56984320107282
 30
0.0
 10
99.47575409839496
 20
26.27229817051526
 30
0.0
 10
99.47575409839496
 20
26.27229817051526
 30
0.0
 10
99.47575409839496
 20
26.27229817051526
 30
0.0
 10
99.73138018340049
 20
26.27229817051526
 30
0.0
 10
99.73138018340049
 20
26.27229817051526
 30
0.0
 10
99.80303816949369
 20
26.26230739360804
 30
0.0
 10
99.80751679362452
 20
26.23267957243489
 30
0.0
 10
99.74481605579297
 20
26.18272568789876
 30
0.0
 10
99.74481605579297
 20
26.18272568789876
 30
0.0
 10
99.74481605579297
 20
25.56984320107282
 30
0.0
 10
99.74481605579297
 20
25.56984320107282
 30
0.0
 10
99.74481605579297
 20
25.56984320107282
 30
0.0
 10
100.2291964810191
 20
25.56984320107282
 30
0.0
 10
100.2291964810191
 20
25.56984320107282
 30
0.0
 10
100.2291964810191
 20
25.56984320107282
 30
0.0
 10
100.2291964810191
 20
25.28562282353971
 30
0.0
 10
100.2291964810191
 20
25.28562282353971
 30
0.0
 10
100.2291964810191
 20
25.28562282353971
 30
0.0
 10
99.74481605579297
 20
25.28562282353971
 30
0.0
 10
99.74481605579297
 20
25.28562282353971
 30
0.0
 10
99.74481605579297
 20
25.28562282353971
 30
0.0
 10
99.74481605579297
 20
23.1923828067019
 30
0.0
 10
99.74481605579297
 20
23.1923828067019
 30
0.0
 10
99.74481605579297
 20
23.03321939528336
 30
0.0
 10
99.67298581492551
 20
22.95329318002557
 30
0.0
 10
99.52949758796485
 20
22.95329318002557
 30
0.0
 10
99.52949758796485
 20
22.95329318002557
 30
0.0
 10
99.24699975817437
 20
22.95329318002557
 30
0.0
 10
99.24699975817437
 20
22.95329318002557
 30
0.0
 10
99.24699975817437
 20
22.95329318002557
 30
0.0
 10
99.1930840138302
 20
23.23716904801015
 30
0.0
 10
99.1930840138302
 20
23.23716904801015
 30
0.0
 10
99.1930840138302
 20
23.23716904801015
 30
0.0
 10
99.42183835405079
 20
23.23716904801015
 30
0.0
 10
99.42183835405079
 20
23.23716904801015
 30
0.0
 10
99.42183835405079
 20
23.23716904801015
 30
0.0
 10
99.42183835405079
 20
23.23716904801015
 30
0.0
 10
99.42183835405079
 20
23.23716904801015
 30
0.0
  0
HATCH
  5
86
330
80
100
AcDbEntity
  8
0
 62
    18
100
AcDbHatch
 10
0.0
 20
0.0
 30
0.0
210
0.0
220
0.0
230
1.0
  2
SOLID
 70
     1
 71
     0
 91
        2
 92
        1
 93
        1
 72
     4
 94
        3
 73
     0
 74
     1
 95
       65
 96
       61
 40
0.0
 40
0.0
 40
0.0
 40
0.0
 40
1.0
 40
1.0
 40
1.0
 40
2.0
 40
2.0
 40
2.0
 40
3.0
 40
3.0
 40
3.0
 40
4.0
 40
4.0
 40
4.0
 40
5.0
 40
5.0
 40
5.0
 40
6.0
 40
6.0
 40
6.0
 40
7.0
 40
7.0
 40
7.0
 40
8.0
 40
8.0
 40
8.0
 40
9.0
 40
9.0
 40
9.0
 40
10.0
 40
10.0
 40
10.0
 40
11.0
 40
11.0
 40
11.0
 40
12.0
 40
12.0
 40
12.0
 40
13.0
 40
13.0
 40
13.0
 40
14.0
 40
14.0
 40
14.0
 40
15.0
 40
15.0
 40
15.0
 40
16.0
 40
16.0
 40
16.0
 40
17.0
 40
17.0
 40
17.0
 40
18.0
 40
18.0
 40
18.0
 40
19.0
 40
19.0
 40
19.0
 40
20.0
 40
20.0
 40
20.0
 40
20.0
 10
98.10322805707142
 20
22.90850693871732
 10
98.10322805707142
 20
22.90850693871732
 10
97.83399384489914
 20
22.90850693871732
 10
97.83399384489914
 20
22.90850693871732
 10
97.83399384489914
 20
22.90850693871732
 10
97.83399384489914
 20
24.52322319265392
 10
97.83399384489914
 20
24.52322319265392
 10
97.69050561793848
 20
24.22418890453423
 10
97.51549476728779
 20
23.94995930390834
 10
97.3093058024956
 20
23.70087890032478
 10
97.3093058024956
 20
23.70087890032478
 10
97.12085907945243
 20
24.01472709903104
 10
97.12085907945243
 20
24.01472709903104
 10
97.51549476728779
 20
24.4732693081178
 10
97.7487277316392
 20
24.89701605280353
 10
97.82055797250668
 20
25.28562282353971
 10
97.82055797250668
 20
25.28562282353971
 10
97.25539005815143
 20
25.28562282353971
 10
97.25539005815143
 20
25.28562282353971
 10
97.25539005815143
 20
25.28562282353971
 10
97.25539005815143
 20
25.56984320107282
 10
97.25539005815143
 20
25.56984320107282
 10
97.25539005815143
 20
25.56984320107282
 10
97.83399384489914
 20
25.56984320107282
 10
97.83399384489914
 20
25.56984320107282
 10
97.83399384489914
 20
25.56984320107282
 10
97.83399384489914
 20
26.27229817051526
 10
97.83399384489914
 20
26.27229817051526
 10
97.83399384489914
 20
26.27229817051526
 10
98.08979218467894
 20
26.27229817051526
 10
98.08979218467894
 20
26.27229817051526
 10
98.16145017077214
 20
26.26230739360804
 10
98.16592879490297
 20
26.23267957243489
 10
98.10322805707142
 20
26.18272568789876
 10
98.10322805707142
 20
26.18272568789876
 10
98.10322805707142
 20
25.56984320107282
 10
98.10322805707142
 20
25.56984320107282
 10
98.10322805707142
 20
25.56984320107282
 10
98.60104435469002
 20
25.56984320107282
 10
98.60104435469002
 20
25.56984320107282
 10
98.60104435469002
 20
25.56984320107282
 10
98.60104435469002
 20
25.28562282353971
 10
98.60104435469002
 20
25.28562282353971
 10
98.60104435469002
 20
25.28562282353971
 10
98.10322805707142
 20
25.28562282353971
 10
98.10322805707142
 20
25.28562282353971
 10
98.10322805707142
 20
25.28562282353971
 10
98.10322805707142
 20
24.89701605280353
 10
98.10322805707142
 20
24.89701605280353
 10
98.35420326317187
 20
24.77747123946536
 10
98.55160723447669
 20
24.64276800599209
 10
98.6952677162116
 20
24.49325086193224
 10
98.6952677162116
 20
24.49325086193224
 10
98.52042912033518
 20
24.16424424309088
 10
98.52042912033518
 20
24.16424424309088
 10
98.40364038338521
 20
24.3037706102435
 10
98.26463078055538
 20
24.4333062004889
 10
98.10322805707142
 20
24.55319552337559
 10
98.10322805707142
 20
24.55319552337559
 10
98.10322805707142
 20
22.90850693871732
 10
98.10322805707142
 20
22.90850693871732
 97
        0
 92
        1
 93
        1
 72
     4
 94
        3
 73
     0
 74
     1
 95
       71
 96
       67
 40
0.0
 40
0.0
 40
0.0
 40
0.0
 40
1.0
 40
1.0
 40
1.0
 40
2.0
 40
2.0
 40
2.0
 40
3.0
 40
3.0
 40
3.0
 40
4.0
 40
4.0
 40
4.0
 40
5.0
 40
5.0
 40
5.0
 40
6.0
 40
6.0
 40
6.0
 40
7.0
 40
7.0
 40
7.0
 40
8.0
 40
8.0
 40
8.0
 40
9.0
 40
9.0
 40
9.0
 40
10.0
 40
10.0
 40
10.0
 40
11.0
 40
11.0
 40
11.0
 40
12.0
 40
12.0
 40
12.0
 40
13.0
 40
13.0
 40
13.0
 40
14.0
 40
14.0
 40
14.0
 40
15.0
 40
15.0
 40
15.0
 40
16.0
 40
16.0
 40
16.0
 40
17.0
 40
17.0
 40
17.0
 40
18.0
 40
18.0
 40
18.0
 40
19.0
 40
19.0
 40
19.0
 40
20.0
 40
20.0
 40
20.0
 40
21.0
 40
21.0
 40
21.0
 40
22.0
 40
22.0
 40
22.0
 40
22.0
 10
99.42183835405079
 20
23.23716904801015
 10
99.4576673470974
 20
23.23716904801015
 10
99.47575409839496
 20
23.2571506018246
 10
99.47575409839496
 20
23.2971137094535
 10
99.47575409839496
 20
23.2971137094535
 10
99.47575409839496
 20
24.49325086193224
 10
99.47575409839496
 20
24.49325086193224
 10
99.26043563056685
 20
24.10464409119606
 10
98.95967879470453
 20
23.7756374723547
 10
98.57417260990508
 20
23.50657551495669
 10
98.57417260990508
 20
23.50657551495669
 10
98.41259763164686
 20
23.8652099549712
 10
98.41259763164686
 20
23.8652099549712
 10
98.89715031164724
 20
24.16424424309088
 10
99.2514783823052
 20
24.57765570132086
 10
99.47575409839496
 20
25.10613334875819
 10
99.47575409839496
 20
25.10613334875819
 10
99.47575409839496
 20
25.28562282353971
 10
99.47575409839496
 20
25.28562282353971
 10
99.47575409839496
 20
25.28562282353971
 10
98.72213946099656
 20
25.28562282353971
 10
98.72213946099656
 20
25.28562282353971
 10
98.72213946099656
 20
25.28562282353971
 10
98.72213946099656
 20
25.56984320107282
 10
98.72213946099656
 20
25.56984320107282
 10
98.72213946099656
 20
25.56984320107282
 10
99.47575409839496
 20
25.56984320107282
 10
99.47575409839496
 20
25.56984320107282
 10
99.47575409839496
 20
25.56984320107282
 10
99.47575409839496
 20
26.27229817051526
 10
99.47575409839496
 20
26.27229817051526
 10
99.47575409839496
 20
26.27229817051526
 10
99.73138018340049
 20
26.27229817051526
 10
99.73138018340049
 20
26.27229817051526
 10
99.80303816949369
 20
26.26230739360804
 10
99.80751679362452
 20
26.23267957243489
 10
99.74481605579297
 20
26.18272568789876
 10
99.74481605579297
 20
26.18272568789876
 10
99.74481605579297
 20
25.56984320107282
 10
99.74481605579297
 20
25.56984320107282
 10
99.74481605579297
 20
25.56984320107282
 10
100.2291964810191
 20
25.56984320107282
 10
100.2291964810191
 20
25.56984320107282
 10
100.2291964810191
 20
25.56984320107282
 10
100.2291964810191
 20
25.28562282353971
 10
100.2291964810191
 20
25.28562282353971
 10
100.2291964810191
 20
25.28562282353971
 10
99.74481605579297
 20
25.28562282353971
 10
99.74481605579297
 20
25.28562282353971
 10
99.74481605579297
 20
25.28562282353971
 10
99.74481605579297
 20
23.1923828067019
 10
99.74481605579297
 20
23.1923828067019
 10
99.74481605579297
 20
23.03321939528336
 10
99.67298581492551
 20
22.95329318002557
 10
99.52949758796485
 20
22.95329318002557
 10
99.52949758796485
 20
22.95329318002557
 10
99.24699975817437
 20
22.95329318002557
 10
99.24699975817437
 20
22.95329318002557
 10
99.24699975817437
 20
22.95329318002557
 10
99.1930840138302
 20
23.23716904801015
 10
99.1930840138302
 20
23.23716904801015
 10
99.1930840138302
 20
23.23716904801015
 10
99.42183835405079
 20
23.23716904801015
 10
99.42183835405079
 20
23.23716904801015
 10
99.42183835405079
 20
23.23716904801015
 10
99.42183835405079
 20
23.23716904801015
 10
99.42183835405079
 20
23.23716904801015
 97
        0
 75
     2
 76
     1
 98
        0
  0
SPLINE
  5
87
330
80
100
AcDbEntity
  8
0
100
AcDbSpline
210
0.0
220
0.0
230
1.0
 70
    11
 71
     3
 72
    56
 73
    52
 74
     0
 42
0.0000000001
 43
0.0000000001
 40
0.0
 40
0.0
 40
0.0
 40
0.0
 40
1.0
 40
1.0
 40
1.0
 40
2.0
 40
2.0
 40
2.0
 40
3.0
 40
3.0
 40
3.0
 40
4.0
 40
4.0
 40
4.0
 40
5.0
 40
5.0
 40
5.0
 40
6.0
 40
6.0
 40
6.0
 40
7.0
 40
7.0
 40
7.0
 40
8.0
 40
8.0
 40
8.0
 40
9.0
 40
9.0
 40
9.0
 40
10.0
 40
10.0
 40
10.0
 40
11.0
 40
11.0
 40
11.0
 40
12.0
 40
12.0
 40
12.0
 40
13.0
 40
13.0
 40
13.0
 40
14.0
 40
14.0
 40
14.0
 40
15.0
 40
15.0
 40
15.0
 40
16.0
 40
16.0
 40
16.0
 40
17.0
 40
17.0
 40
17.0
 40
17.0
 10
105.4905463060926
 20
26.00323621311725
 30
0.0
 10
105.4995035543543
 20
25.94363606122242
 30
0.0
 10
105.463846816082
 20
25.9336452843152
 30
0.0
 10
105.3830593269528
 20
25.97326388239557
 30
0.0
 10
105.1139973695548
 20
25.94363606122242
 30
0.0
 10
104.858199029775
 20
25.91366373050075
 30
0.0
 10
104.616008817162
 20
25.88369139977908
 30
0.0
 10
104.616008817162
 20
25.88369139977908
 30
0.0
 10
104.616008817162
 20
25.73417425571924
 30
0.0
 10
104.616008817162
 20
25.73417425571924
 30
0.0
 10
104.616008817162
 20
25.73417425571924
 30
0.0
 10
105.5580701776035
 20
25.73417425571924
 30
0.0
 10
105.5580701776035
 20
25.73417425571924
 30
0.0
 10
105.5580701776035
 20
25.73417425571924
 30
0.0
 10
105.5580701776035
 20
25.4950846290429
 30
0.0
 10
105.5580701776035
 20
25.4950846290429
 30
0.0
 10
105.5580701776035
 20
25.4950846290429
 30
0.0
 10
105.2350924758614
 20
25.4950846290429
 30
0.0
 10
105.2350924758614
 20
25.4950846290429
 30
0.0
 10
105.2350924758614
 20
25.4950846290429
 30
0.0
 10
105.2350924758614
 20
25.15126409961496
 30
0.0
 10
105.2350924758614
 20
25.15126409961496
 30
0.0
 10
105.2350924758614
 20
25.15126409961496
 30
0.0
 10
104.9658582636891
 20
25.15126409961496
 30
0.0
 10
104.9658582636891
 20
25.15126409961496
 30
0.0
 10
104.9658582636891
 20
25.15126409961496
 30
0.0
 10
104.9658582636891
 20
25.4950846290429
 30
0.0
 10
104.9658582636891
 20
25.4950846290429
 30
0.0
 10
104.9658582636891
 20
25.4950846290429
 30
0.0
 10
104.6025729447695
 20
25.4950846290429
 30
0.0
 10
104.6025729447695
 20
25.4950846290429
 30
0.0
 10
104.5844861934719
 20
25.25565049281803
 30
0.0
 10
104.4859564625938
 20
25.04653319686337
 30
0.0
 10
104.3064669878123
 20
24.86704372208185
 30
0.0
 10
104.3064669878123
 20
24.86704372208185
 30
0.0
 10
104.1316283919358
 20
25.07650552758504
 30
0.0
 10
104.1316283919358
 20
25.07650552758504
 30
0.0
 10
104.3019883636814
 20
25.22602267164488
 30
0.0
 10
104.3872544769414
 20
25.46993543200057
 30
0.0
 10
104.3872544769414
 20
25.80893282774916
 30
0.0
 10
104.3872544769414
 20
25.80893282774916
 30
0.0
 10
104.3872544769414
 20
26.16791177731219
 30
0.0
 10
104.3872544769414
 20
26.16791177731219
 30
0.0
 10
104.3872544769414
 20
26.16791177731219
 30
0.0
 10
104.6025729447695
 20
26.09315320528227
 30
0.0
 10
104.6025729447695
 20
26.09315320528227
 30
0.0
 10
104.8986789017267
 20
26.13277180336264
 30
0.0
 10
105.1408691143398
 20
26.18754882157812
 30
0.0
 10
105.3291435826087
 20
26.25748425992868
 30
0.0
 10
105.3291435826087
 20
26.25748425992868
 30
0.0
 10
105.4905463060926
 20
26.00323621311725
 30
0.0
 10
105.4905463060926
 20
26.00323621311725
 30
0.0
  0
SPLINE
  5
88
330
80
100
AcDbEntity
  8
0
100
AcDbSpline
210
0.0
220
0.0
230
1.0
 70
    11
 71
     3
 72
   104
 73
   100
 74
     0
 42
0.0000000001
 43
0.0000000001
 40
0.0
 40
0.0
 40
0.0
 40
0.0
 40
1.0
 40
1.0
 40
1.0
 40
2.0
 40
2.0
 40
2.0
 40
3.0
 40
3.0
 40
3.0
 40
4.0
 40
4.0
 40
4.0
 40
5.0
 40
5.0
 40
5.0
 40
6.0
 40
6.0
 40
6.0
 40
7.0
 40
7.0
 40
7.0
 40
8.0
 40
8.0
 40
8.0
 40
9.0
 40
9.0
 40
9.0
 40
10.0
 40
10.0
 40
10.0
 40
11.0
 40
11.0
 40
11.0
 40
12.0
 40
12.0
 40
12.0
 40
13.0
 40
13.0
 40
13.0
 40
14.0
 40
14.0
 40
14.0
 40
15.0
 40
15.0
 40
15.0
 40
16.0
 40
16.0
 40
16.0
 40
17.0
 40
17.0
 40
17.0
 40
18.0
 40
18.0
 40
18.0
 40
19.0
 40
19.0
 40
19.0
 40
20.0
 40
20.0
 40
20.0
 40
21.0
 40
21.0
 40
21.0
 40
22.0
 40
22.0
 40
22.0
 40
23.0
 40
23.0
 40
23.0
 40
24.0
 40
24.0
 40
24.0
 40
25.0
 40
25.0
 40
25.0
 40
26.0
 40
26.0
 40
26.0
 40
27.0
 40
27.0
 40
27.0
 40
28.0
 40
28.0
 40
28.0
 40
29.0
 40
29.0
 40
29.0
 40
30.0
 40
30.0
 40
30.0
 40
31.0
 40
31.0
 40
31.0
 40
32.0
 40
32.0
 40
32.0
 40
33.0
 40
33.0
 40
33.0
 40
33.0
 10
106.8362006026312
 20
26.04836696397402
 30
0.0
 10
106.8902886017497
 20
25.97843152562345
 30
0.0
 10
106.867550971547
 20
25.96327310548835
 30
0.0
 10
106.7690212406689
 20
26.00323621311725
 30
0.0
 10
106.4999592832709
 20
25.95328232858112
 30
0.0
 10
106.2215955680627
 20
25.9184868641801
 30
0.0
 10
105.9346191141414
 20
25.89884981991418
 30
0.0
 10
105.9346191141414
 20
25.89884981991418
 30
0.0
 10
105.9346191141414
 20
25.73417425571924
 30
0.0
 10
105.9346191141414
 20
25.73417425571924
 30
0.0
 10
105.9346191141414
 20
25.73417425571924
 30
0.0
 10
107.1052625600292
 20
25.73417425571924
 30
0.0
 10
107.1052625600292
 20
25.73417425571924
 30
0.0
 10
107.1052625600292
 20
25.73417425571924
 30
0.0
 10
107.1052625600292
 20
25.4950846290429
 30
0.0
 10
107.1052625600292
 20
25.4950846290429
 30
0.0
 10
107.1052625600292
 20
25.4950846290429
 30
0.0
 10
106.6343180071956
 20
25.4950846290429
 30
0.0
 10
106.6343180071956
 20
25.4950846290429
 30
0.0
 10
106.6343180071956
 20
25.4950846290429
 30
0.0
 10
106.6343180071956
 20
25.15126409961496
 30
0.0
 10
106.6343180071956
 20
25.15126409961496
 30
0.0
 10
106.6343180071956
 20
25.15126409961496
 30
0.0
 10
106.3652560497976
 20
25.15126409961496
 30
0.0
 10
106.3652560497976
 20
25.15126409961496
 30
0.0
 10
106.3652560497976
 20
25.15126409961496
 30
0.0
 10
106.3652560497976
 20
25.4950846290429
 30
0.0
 10
106.3652560497976
 20
25.4950846290429
 30
0.0
 10
106.3652560497976
 20
25.4950846290429
 30
0.0
 10
105.9077473693564
 20
25.4950846290429
 30
0.0
 10
105.9077473693564
 20
25.4950846290429
 30
0.0
 10
105.8629611280482
 20
25.32524142162008
 30
0.0
 10
105.7685655117523
 20
25.16607801020154
 30
0.0
 10
105.6252495395659
 20
25.0165608661417
 30
0.0
 10
105.6252495395659
 20
25.0165608661417
 30
0.0
 10
106.6074462624106
 20
25.0165608661417
 30
0.0
 10
106.6074462624106
 20
25.0165608661417
 30
0.0
 10
106.6074462624106
 20
25.0165608661417
 30
0.0
 10
106.6074462624106
 20
23.46144476409992
 30
0.0
 10
106.6074462624106
 20
23.46144476409992
 30
0.0
 10
106.6074462624106
 20
23.46144476409992
 30
0.0
 10
106.109629964792
 20
23.46144476409992
 30
0.0
 10
106.109629964792
 20
23.46144476409992
 30
0.0
 10
106.3428629291435
 20
23.3219183969473
 30
0.0
 10
106.6432752554572
 20
23.22717827110293
 30
0.0
 10
107.0112114532819
 20
23.17756889611533
 30
0.0
 10
107.0112114532819
 20
23.17756889611533
 30
0.0
 10
106.9037244741421
 20
22.86337618786055
 30
0.0
 10
106.9037244741421
 20
22.86337618786055
 30
0.0
 10
106.5357882763174
 20
22.92332084930389
 30
0.0
 10
106.2040255810879
 20
23.04286566264206
 30
0.0
 10
105.9077473693564
 20
23.22235513742358
 30
0.0
 10
105.9077473693564
 20
23.22235513742358
 30
0.0
 10
106.0693223476146
 20
23.46144476409992
 30
0.0
 10
106.0693223476146
 20
23.46144476409992
 30
0.0
 10
106.0693223476146
 20
23.46144476409992
 30
0.0
 10
105.1677408591247
 20
23.46144476409992
 30
0.0
 10
105.1677408591247
 20
23.46144476409992
 30
0.0
 10
105.1677408591247
 20
23.46144476409992
 30
0.0
 10
105.3022718378237
 20
23.23716904801015
 30
0.0
 10
105.3022718378237
 20
23.23716904801015
 30
0.0
 10
105.3291435826087
 20
23.16757811920811
 30
0.0
 10
105.2976209589187
 20
23.15276420862153
 30
0.0
 10
105.2080484763022
 20
23.1923828067019
 30
0.0
 10
104.9208997676066
 20
23.06319172600504
 30
0.0
 10
104.6070515689003
 20
22.95846082325344
 30
0.0
 10
104.2661593706349
 20
22.87853460799565
 30
0.0
 10
104.2661593706349
 20
22.87853460799565
 30
0.0
 10
104.1719360091133
 20
23.17756889611533
 30
0.0
 10
104.1719360091133
 20
23.17756889611533
 30
0.0
 10
104.5486572004253
 20
23.23716904801015
 30
0.0
 10
104.85354815087
 20
23.33190917385452
 30
0.0
 10
105.0869533699956
 20
23.46144476409992
 30
0.0
 10
105.0869533699956
 20
23.46144476409992
 30
0.0
 10
104.5757011999846
 20
23.46144476409992
 30
0.0
 10
104.5757011999846
 20
23.46144476409992
 30
0.0
 10
104.5757011999846
 20
23.46144476409992
 30
0.0
 10
104.5757011999846
 20
25.0165608661417
 30
0.0
 10
104.5757011999846
 20
25.0165608661417
 30
0.0
 10
104.5757011999846
 20
25.0165608661417
 30
0.0
 10
105.5849419223885
 20
25.0165608661417
 30
0.0
 10
105.5849419223885
 20
25.0165608661417
 30
0.0
 10
105.5849419223885
 20
25.0165608661417
 30
0.0
 10
105.4368028165227
 20
25.21086425150979
 30
0.0
 10
105.4368028165227
 20
25.21086425150979
 30
0.0
 10
105.6162922913043
 20
25.37037217247685
 30
0.0
 10
105.7058647739208
 20
25.58948024533874
 30
0.0
 10
105.7058647739208
 20
25.8688774891925
 30
0.0
 10
105.7058647739208
 20
25.8688774891925
 30
0.0
 10
105.7058647739208
 20
26.18272568789876
 30
0.0
 10
105.7058647739208
 20
26.18272568789876
 30
0.0
 10
105.7058647739208
 20
26.18272568789876
 30
0.0
 10
105.9614908589263
 20
26.10796711586884
 30
0.0
 10
105.9614908589263
 20
26.10796711586884
 30
0.0
 10
106.239510064586
 20
26.14758571394922
 30
0.0
 10
106.481700277199
 20
26.19753959848534
 30
0.0
 10
106.688406006314
 20
26.25748425992868
 30
0.0
 10
106.688406006314
 20
26.25748425992868
 30
0.0
 10
106.8362006026312
 20
26.04836696397402
 30
0.0
 10
106.8362006026312
 20
26.04836696397402
 30
0.0
  0
POLYLINE
  5
89
330
80
100
AcDbEntity
  8
0
100
AcDb2dPolyline
 66
     1
 10
0.0
 20
0.0
 30
0.0
  0
VERTEX
  5
8A
330
89
100
AcDbEntity
  8
0
100
AcDbVertex
100
AcDb2dVertex
 10
106.3383843050126
 20
24.53803710324049
 30
0.0
  0
VERTEX
  5
8B
330
89
100
AcDbEntity
  8
0
100
AcDbVertex
100
AcDb2dVertex
 10
106.3383843050126
 20
24.77747123946536
 30
0.0
  0
VERTEX
  5
8C
330
89
100
AcDbEntity
  8
0
100
AcDbVertex
100
AcDb2dVertex
 10
104.8447631573826
 20
24.77747123946536
 30
0.0
  0
VERTEX
  5
8D
330
89
100
AcDbEntity
  8
0
100
AcDbVertex
100
AcDb2dVertex
 10
104.8447631573826
 20
24.53803710324049
 30
0.0
  0
VERTEX
  5
8E
330
89
100
AcDbEntity
  8
0
100
AcDbVertex
100
AcDb2dVertex
 10
106.3383843050126
 20
24.53803710324049
 30
0.0
  0
SEQEND
  5
8F
330
89
100
AcDbEntity
  8
0
  0
POLYLINE
  5
90
330
80
100
AcDbEntity
  8
0
100
AcDb2dPolyline
 66
     1
 10
0.0
 20
0.0
 30
0.0
  0
VERTEX
  5
91
330
90
100
AcDbEntity
  8
0
100
AcDbVertex
100
AcDb2dVertex
 10
106.3383843050126
 20
24.11945800178264
 30
0.0
  0
VERTEX
  5
92
330
90
100
AcDbEntity
  8
0
100
AcDbVertex
100
AcDb2dVertex
 10
106.3383843050126
 20
24.35854762845898
 30
0.0
  0
VERTEX
  5
93
330
90
100
AcDbEntity
  8
0
100
AcDbVertex
100
AcDb2dVertex
 10
104.8447631573826
 20
24.35854762845898
 30
0.0
  0
VERTEX
  5
94
330
90
100
AcDbEntity
  8
0
100
AcDbVertex
100
AcDb2dVertex
 10
104.8447631573826
 20
24.11945800178264
 30
0.0
  0
VERTEX
  5
95
330
90
100
AcDbEntity
  8
0
100
AcDbVertex
100
AcDb2dVertex
 10
106.3383843050126
 20
24.11945800178264
 30
0.0
  0
SEQEND
  5
96
330
90
100
AcDbEntity
  8
0
  0
POLYLINE
  5
97
330
80
100
AcDbEntity
  8
0
100
AcDb2dPolyline
 66
     1
 10
0.0
 20
0.0
 30
0.0
  0
VERTEX
  5
98
330
97
100
AcDbEntity
  8
0
100
AcDbVertex
100
AcDb2dVertex
 10
106.3383843050126
 20
23.70087890032478
 30
0.0
  0
VERTEX
  5
99
330
97
100
AcDbEntity
  8
0
100
AcDbVertex
100
AcDb2dVertex
 10
106.3383843050126
 20
23.93996852700112
 30
0.0
  0
VERTEX
  5
9A
330
97
100
AcDbEntity
  8
0
100
AcDbVertex
100
AcDb2dVertex
 10
104.8447631573826
 20
23.93996852700112
 30
0.0
  0
VERTEX
  5
9B
330
97
100
AcDbEntity
  8
0
100
AcDbVertex
100
AcDb2dVertex
 10
104.8447631573826
 20
23.70087890032478
 30
0.0
  0
VERTEX
  5
9C
330
97
100
AcDbEntity
  8
0
100
AcDbVertex
100
AcDb2dVertex
 10
106.3383843050126
 20
23.70087890032478
 30
0.0
  0
SEQEND
  5
9D
330
97
100
AcDbEntity
  8
0
  0
HATCH
  5
9E
330
80
100
AcDbEntity
  8
0
 62
    18
100
AcDbHatch
 10
0.0
 20
0.0
 30
0.0
210
0.0
220
0.0
230
1.0
  2
SOLID
 70
     1
 71
     0
 91
        5
 92
        1
 93
        1
 72
     4
 94
        3
 73
     0
 74
     1
 95
       56
 96
       52
 40
0.0
 40
0.0
 40
0.0
 40
0.0
 40
1.0
 40
1.0
 40
1.0
 40
2.0
 40
2.0
 40
2.0
 40
3.0
 40
3.0
 40
3.0
 40
4.0
 40
4.0
 40
4.0
 40
5.0
 40
5.0
 40
5.0
 40
6.0
 40
6.0
 40
6.0
 40
7.0
 40
7.0
 40
7.0
 40
8.0
 40
8.0
 40
8.0
 40
9.0
 40
9.0
 40
9.0
 40
10.0
 40
10.0
 40
10.0
 40
11.0
 40
11.0
 40
11.0
 40
12.0
 40
12.0
 40
12.0
 40
13.0
 40
13.0
 40
13.0
 40
14.0
 40
14.0
 40
14.0
 40
15.0
 40
15.0
 40
15.0
 40
16.0
 40
16.0
 40
16.0
 40
17.0
 40
17.0
 40
17.0
 40
17.0
 10
105.4905463060926
 20
26.00323621311725
 10
105.4995035543543
 20
25.94363606122242
 10
105.463846816082
 20
25.9336452843152
 10
105.3830593269528
 20
25.97326388239557
 10
105.1139973695548
 20
25.94363606122242
 10
104.858199029775
 20
25.91366373050075
 10
104.616008817162
 20
25.88369139977908
 10
104.616008817162
 20
25.88369139977908
 10
104.616008817162
 20
25.73417425571924
 10
104.616008817162
 20
25.73417425571924
 10
104.616008817162
 20
25.73417425571924
 10
105.5580701776035
 20
25.73417425571924
 10
105.5580701776035
 20
25.73417425571924
 10
105.5580701776035
 20
25.73417425571924
 10
105.5580701776035
 20
25.4950846290429
 10
105.5580701776035
 20
25.4950846290429
 10
105.5580701776035
 20
25.4950846290429
 10
105.2350924758614
 20
25.4950846290429
 10
105.2350924758614
 20
25.4950846290429
 10
105.2350924758614
 20
25.4950846290429
 10
105.2350924758614
 20
25.15126409961496
 10
105.2350924758614
 20
25.15126409961496
 10
105.2350924758614
 20
25.15126409961496
 10
104.9658582636891
 20
25.15126409961496
 10
104.9658582636891
 20
25.15126409961496
 10
104.9658582636891
 20
25.15126409961496
 10
104.9658582636891
 20
25.4950846290429
 10
104.9658582636891
 20
25.4950846290429
 10
104.9658582636891
 20
25.4950846290429
 10
104.6025729447695
 20
25.4950846290429
 10
104.6025729447695
 20
25.4950846290429
 10
104.5844861934719
 20
25.25565049281803
 10
104.4859564625938
 20
25.04653319686337
 10
104.3064669878123
 20
24.86704372208185
 10
104.3064669878123
 20
24.86704372208185
 10
104.1316283919358
 20
25.07650552758504
 10
104.1316283919358
 20
25.07650552758504
 10
104.3019883636814
 20
25.22602267164488
 10
104.3872544769414
 20
25.46993543200057
 10
104.3872544769414
 20
25.80893282774916
 10
104.3872544769414
 20
25.80893282774916
 10
104.3872544769414
 20
26.16791177731219
 10
104.3872544769414
 20
26.16791177731219
 10
104.3872544769414
 20
26.16791177731219
 10
104.6025729447695
 20
26.09315320528227
 10
104.6025729447695
 20
26.09315320528227
 10
104.8986789017267
 20
26.13277180336264
 10
105.1408691143398
 20
26.18754882157812
 10
105.3291435826087
 20
26.25748425992868
 10
105.3291435826087
 20
26.25748425992868
 10
105.4905463060926
 20
26.00323621311725
 10
105.4905463060926
 20
26.00323621311725
 97
        0
 92
        1
 93
        1
 72
     4
 94
        3
 73
     0
 74
     1
 95
      104
 96
      100
 40
0.0
 40
0.0
 40
0.0
 40
0.0
 40
1.0
 40
1.0
 40
1.0
 40
2.0
 40
2.0
 40
2.0
 40
3.0
 40
3.0
 40
3.0
 40
4.0
 40
4.0
 40
4.0
 40
5.0
 40
5.0
 40
5.0
 40
6.0
 40
6.0
 40
6.0
 40
7.0
 40
7.0
 40
7.0
 40
8.0
 40
8.0
 40
8.0
 40
9.0
 40
9.0
 40
9.0
 40
10.0
 40
10.0
 40
10.0
 40
11.0
 40
11.0
 40
11.0
 40
12.0
 40
12.0
 40
12.0
 40
13.0
 40
13.0
 40
13.0
 40
14.0
 40
14.0
 40
14.0
 40
15.0
 40
15.0
 40
15.0
 40
16.0
 40
16.0
 40
16.0
 40
17.0
 40
17.0
 40
17.0
 40
18.0
 40
18.0
 40
18.0
 40
19.0
 40
19.0
 40
19.0
 40
20.0
 40
20.0
 40
20.0
 40
21.0
 40
21.0
 40
21.0
 40
22.0
 40
22.0
 40
22.0
 40
23.0
 40
23.0
 40
23.0
 40
24.0
 40
24.0
 40
24.0
 40
25.0
 40
25.0
 40
25.0
 40
26.0
 40
26.0
 40
26.0
 40
27.0
 40
27.0
 40
27.0
 40
28.0
 40
28.0
 40
28.0
 40
29.0
 40
29.0
 40
29.0
 40
30.0
 40
30.0
 40
30.0
 40
31.0
 40
31.0
 40
31.0
 40
32.0
 40
32.0
 40
32.0
 40
33.0
 40
33.0
 40
33.0
 40
33.0
 10
106.8362006026312
 20
26.04836696397402
 10
106.8902886017497
 20
25.97843152562345
 10
106.867550971547
 20
25.96327310548835
 10
106.7690212406689
 20
26.00323621311725
 10
106.4999592832709
 20
25.95328232858112
 10
106.2215955680627
 20
25.9184868641801
 10
105.9346191141414
 20
25.89884981991418
 10
105.9346191141414
 20
25.89884981991418
 10
105.9346191141414
 20
25.73417425571924
 10
105.9346191141414
 20
25.73417425571924
 10
105.9346191141414
 20
25.73417425571924
 10
107.1052625600292
 20
25.73417425571924
 10
107.1052625600292
 20
25.73417425571924
 10
107.1052625600292
 20
25.73417425571924
 10
107.1052625600292
 20
25.4950846290429
 10
107.1052625600292
 20
25.4950846290429
 10
107.1052625600292
 20
25.4950846290429
 10
106.6343180071956
 20
25.4950846290429
 10
106.6343180071956
 20
25.4950846290429
 10
106.6343180071956
 20
25.4950846290429
 10
106.6343180071956
 20
25.15126409961496
 10
106.6343180071956
 20
25.15126409961496
 10
106.6343180071956
 20
25.15126409961496
 10
106.3652560497976
 20
25.15126409961496
 10
106.3652560497976
 20
25.15126409961496
 10
106.3652560497976
 20
25.15126409961496
 10
106.3652560497976
 20
25.4950846290429
 10
106.3652560497976
 20
25.4950846290429
 10
106.3652560497976
 20
25.4950846290429
 10
105.9077473693564
 20
25.4950846290429
 10
105.9077473693564
 20
25.4950846290429
 10
105.8629611280482
 20
25.32524142162008
 10
105.7685655117523
 20
25.16607801020154
 10
105.6252495395659
 20
25.0165608661417
 10
105.6252495395659
 20
25.0165608661417
 10
106.6074462624106
 20
25.0165608661417
 10
106.6074462624106
 20
25.0165608661417
 10
106.6074462624106
 20
25.0165608661417
 10
106.6074462624106
 20
23.46144476409992
 10
106.6074462624106
 20
23.46144476409992
 10
106.6074462624106
 20
23.46144476409992
 10
106.109629964792
 20
23.46144476409992
 10
106.109629964792
 20
23.46144476409992
 10
106.3428629291435
 20
23.3219183969473
 10
106.6432752554572
 20
23.22717827110293
 10
107.0112114532819
 20
23.17756889611533
 10
107.0112114532819
 20
23.17756889611533
 10
106.9037244741421
 20
22.86337618786055
 10
106.9037244741421
 20
22.86337618786055
 10
106.5357882763174
 20
22.92332084930389
 10
106.2040255810879
 20
23.04286566264206
 10
105.9077473693564
 20
23.22235513742358
 10
105.9077473693564
 20
23.22235513742358
 10
106.0693223476146
 20
23.46144476409992
 10
106.0693223476146
 20
23.46144476409992
 10
106.0693223476146
 20
23.46144476409992
 10
105.1677408591247
 20
23.46144476409992
 10
105.1677408591247
 20
23.46144476409992
 10
105.1677408591247
 20
23.46144476409992
 10
105.3022718378237
 20
23.23716904801015
 10
105.3022718378237
 20
23.23716904801015
 10
105.3291435826087
 20
23.16757811920811
 10
105.2976209589187
 20
23.15276420862153
 10
105.2080484763022
 20
23.1923828067019
 10
104.9208997676066
 20
23.06319172600504
 10
104.6070515689003
 20
22.95846082325344
 10
104.2661593706349
 20
22.87853460799565
 10
104.2661593706349
 20
22.87853460799565
 10
104.1719360091133
 20
23.17756889611533
 10
104.1719360091133
 20
23.17756889611533
 10
104.5486572004253
 20
23.23716904801015
 10
104.85354815087
 20
23.33190917385452
 10
105.0869533699956
 20
23.46144476409992
 10
105.0869533699956
 20
23.46144476409992
 10
104.5757011999846
 20
23.46144476409992
 10
104.5757011999846
 20
23.46144476409992
 10
104.5757011999846
 20
23.46144476409992
 10
104.5757011999846
 20
25.0165608661417
 10
104.5757011999846
 20
25.0165608661417
 10
104.5757011999846
 20
25.0165608661417
 10
105.5849419223885
 20
25.0165608661417
 10
105.5849419223885
 20
25.0165608661417
 10
105.5849419223885
 20
25.0165608661417
 10
105.4368028165227
 20
25.21086425150979
 10
105.4368028165227
 20
25.21086425150979
 10
105.6162922913043
 20
25.37037217247685
 10
105.7058647739208
 20
25.58948024533874
 10
105.7058647739208
 20
25.8688774891925
 10
105.7058647739208
 20
25.8688774891925
 10
105.7058647739208
 20
26.18272568789876
 10
105.7058647739208
 20
26.18272568789876
 10
105.7058647739208
 20
26.18272568789876
 10
105.9614908589263
 20
26.10796711586884
 10
105.9614908589263
 20
26.10796711586884
 10
106.239510064586
 20
26.14758571394922
 10
106.481700277199
 20
26.19753959848534
 10
106.688406006314
 20
26.25748425992868
 10
106.688406006314
 20
26.25748425992868
 10
106.8362006026312
 20
26.04836696397402
 10
106.8362006026312
 20
26.04836696397402
 97
        0
 92
        1
 93
        4
 72
     1
 10
106.3383843050126
 20
24.53803710324049
 11
106.3383843050126
 21
24.77747123946536
 72
     1
 10
106.3383843050126
 20
24.77747123946536
 11
104.8447631573826
 21
24.77747123946536
 72
     1
 10
104.8447631573826
 20
24.77747123946536
 11
104.8447631573826
 21
24.53803710324049
 72
     1
 10
104.8447631573826
 20
24.53803710324049
 11
106.3383843050126
 21
24.53803710324049
 97
        0
 92
        1
 93
        4
 72
     1
 10
106.3383843050126
 20
24.11945800178264
 11
106.3383843050126
 21
24.35854762845898
 72
     1
 10
106.3383843050126
 20
24.35854762845898
 11
104.8447631573826
 21
24.35854762845898
 72
     1
 10
104.8447631573826
 20
24.35854762845898
 11
104.8447631573826
 21
24.11945800178264
 72
     1
 10
104.8447631573826
 20
24.11945800178264
 11
106.3383843050126
 21
24.11945800178264
 97
        0
 92
        1
 93
        4
 72
     1
 10
106.3383843050126
 20
23.70087890032478
 11
106.3383843050126
 21
23.93996852700112
 72
     1
 10
106.3383843050126
 20
23.93996852700112
 11
104.8447631573826
 21
23.93996852700112
 72
     1
 10
104.8447631573826
 20
23.93996852700112
 11
104.8447631573826
 21
23.70087890032478
 72
     1
 10
104.8447631573826
 20
23.70087890032478
 11
106.3383843050126
 21
23.70087890032478
 97
        0
 75
     2
 76
     1
 98
        0
  0
ENDBLK
  5
83
330
80
100
AcDbEntity
  8
0
100
AcDbBlockEnd
  0
BLOCK
  5
A1
330
9F
100
AcDbEntity
  8
0
100
AcDbBlockBegin
  2
BLOCK_4
 70
     0
 71
     0
 10
0.0
 20
0.0
 30
0.0
  3
BLOCK_4
  1

  0
SPLINE
  5
A3
330
9F
100
AcDbEntity
  8
0
100
AcDbSpline
210
0.0
220
0.0
230
1.0
 70
    11
 71
     3
 72
    41
 73
    37
 74
     0
 42
0.0000000001
 43
0.0000000001
 40
0.0
 40
0.0
 40
0.0
 40
0.0
 40
1.0
 40
1.0
 40
1.0
 40
2.0
 40
2.0
 40
2.0
 40
3.0
 40
3.0
 40
3.0
 40
4.0
 40
4.0
 40
4.0
 40
5.0
 40
5.0
 40
5.0
 40
6.0
 40
6.0
 40
6.0
 40
7.0
 40
7.0
 40
7.0
 40
8.0
 40
8.0
 40
8.0
 40
9.0
 40
9.0
 40
9.0
 40
10.0
 40
10.0
 40
10.0
 40
11.0
 40
11.0
 40
11.0
 40
12.0
 40
12.0
 40
12.0
 40
12.0
 10
29.19597845407253
 20
27.77332627343861
 30
0.0
 10
29.15394828915248
 20
27.43122829175331
 30
0.0
 10
29.0418104311076
 20
27.02677408178497
 30
0.0
 10
28.86008164426067
 20
26.56030815308215
 30
0.0
 10
28.86008164426067
 20
26.56030815308215
 30
0.0
 10
28.92312689164075
 20
26.51379936403128
 30
0.0
 10
28.92312689164075
 20
26.51379936403128
 30
0.0
 10
28.9789374385018
 20
26.45144313574825
 30
0.0
 10
28.95792235604177
 20
26.41251355676493
 30
0.0
 10
28.86008164426067
 20
26.3970106270813
 30
0.0
 10
28.86008164426067
 20
26.3970106270813
 30
0.0
 10
28.86008164426067
 20
22.68870984675838
 30
0.0
 10
28.86008164426067
 20
22.68870984675838
 30
0.0
 10
28.86008164426067
 20
22.68870984675838
 30
0.0
 10
28.44029675938298
 20
22.68870984675838
 30
0.0
 10
28.44029675938298
 20
22.68870984675838
 30
0.0
 10
28.44029675938298
 20
22.68870984675838
 30
0.0
 10
28.44029675938298
 20
25.65080294497619
 30
0.0
 10
28.44029675938298
 20
25.65080294497619
 30
0.0
 10
28.3281589013381
 20
25.44857583999202
 30
0.0
 10
28.19535047038172
 20
25.26185166469148
 30
0.0
 10
28.04152695696531
 20
25.09097492862309
 30
0.0
 10
28.04152695696531
 20
25.09097492862309
 30
0.0
 10
27.76850313975926
 20
25.55744085732592
 30
0.0
 10
27.76850313975926
 20
25.55744085732592
 30
0.0
 10
28.27234835447705
 20
26.10142143444687
 30
0.0
 10
28.61513535525941
 20
26.94133571375078
 30
0.0
 10
28.79720865165487
 20
28.0764946761406
 30
0.0
 10
28.79720865165487
 20
28.0764946761406
 30
0.0
 10
29.25902370145261
 20
27.88977050084006
 30
0.0
 10
29.25902370145261
 20
27.88977050084006
 30
0.0
 10
29.31466199353939
 20
27.82775878210556
 30
0.0
 10
29.29381916585363
 20
27.78848469357371
 30
0.0
 10
29.19597845407253
 20
27.77332627343861
 30
0.0
 10
29.19597845407253
 20
27.77332627343861
 30
0.0
 10
29.19597845407253
 20
27.77332627343861
 30
0.0
 10
29.19597845407253
 20
27.77332627343861
 30
0.0
  0
SPLINE
  5
A4
330
9F
100
AcDbEntity
  8
0
100
AcDbSpline
210
0.0
220
0.0
230
1.0
 70
    11
 71
     3
 72
    86
 73
    82
 74
     0
 42
0.0000000001
 43
0.0000000001
 40
0.0
 40
0.0
 40
0.0
 40
0.0
 40
1.0
 40
1.0
 40
1.0
 40
2.0
 40
2.0
 40
2.0
 40
3.0
 40
3.0
 40
3.0
 40
4.0
 40
4.0
 40
4.0
 40
5.0
 40
5.0
 40
5.0
 40
6.0
 40
6.0
 40
6.0
 40
7.0
 40
7.0
 40
7.0
 40
8.0
 40
8.0
 40
8.0
 40
9.0
 40
9.0
 40
9.0
 40
10.0
 40
10.0
 40
10.0
 40
11.0
 40
11.0
 40
11.0
 40
12.0
 40
12.0
 40
12.0
 40
13.0
 40
13.0
 40
13.0
 40
14.0
 40
14.0
 40
14.0
 40
15.0
 40
15.0
 40
15.0
 40
16.0
 40
16.0
 40
16.0
 40
17.0
 40
17.0
 40
17.0
 40
18.0
 40
18.0
 40
18.0
 40
19.0
 40
19.0
 40
19.0
 40
20.0
 40
20.0
 40
20.0
 40
21.0
 40
21.0
 40
21.0
 40
22.0
 40
22.0
 40
22.0
 40
23.0
 40
23.0
 40
23.0
 40
24.0
 40
24.0
 40
24.0
 40
25.0
 40
25.0
 40
25.0
 40
26.0
 40
26.0
 40
26.0
 40
27.0
 40
27.0
 40
27.0
 40
27.0
 10
30.56040852100573
 20
24.29791394791858
 30
0.0
 10
30.26654187611392
 20
23.84695094889937
 30
0.0
 10
29.82574190877621
 20
23.4114908795638
 30
0.0
 10
29.23800861899258
 20
22.99187824946036
 30
0.0
 10
29.23800861899258
 20
22.99187824946036
 30
0.0
 10
29.00701496670658
 20
23.55170626581346
 30
0.0
 10
29.00701496670658
 20
23.55170626581346
 30
0.0
 10
29.60870089320547
 20
23.84695094889937
 30
0.0
 10
30.11960855366802
 20
24.3134168776022
 30
0.0
 10
30.53956569331997
 20
24.95110405192195
 30
0.0
 10
30.53956569331997
 20
24.95110405192195
 30
0.0
 10
29.02803004916661
 20
24.95110405192195
 30
0.0
 10
29.02803004916661
 20
24.95110405192195
 30
0.0
 10
29.02803004916661
 20
24.95110405192195
 30
0.0
 10
29.02803004916661
 20
25.39414333132508
 30
0.0
 10
29.02803004916661
 20
25.39414333132508
 30
0.0
 10
29.02803004916661
 20
25.39414333132508
 30
0.0
 10
30.56040852100573
 20
25.39414333132508
 30
0.0
 10
30.56040852100573
 20
25.39414333132508
 30
0.0
 10
30.56040852100573
 20
25.39414333132508
 30
0.0
 10
30.56040852100573
 20
26.09384222437932
 30
0.0
 10
30.56040852100573
 20
26.09384222437932
 30
0.0
 10
30.56040852100573
 20
26.09384222437932
 30
0.0
 10
29.93064506630206
 20
26.09384222437932
 30
0.0
 10
29.93064506630206
 20
26.09384222437932
 30
0.0
 10
29.93064506630206
 20
26.09384222437932
 30
0.0
 10
29.93064506630206
 20
25.8840359093276
 30
0.0
 10
29.93064506630206
 20
25.8840359093276
 30
0.0
 10
29.93064506630206
 20
25.8840359093276
 30
0.0
 10
29.51086018142437
 20
25.8840359093276
 30
0.0
 10
29.51086018142437
 20
25.8840359093276
 30
0.0
 10
29.51086018142437
 20
25.8840359093276
 30
0.0
 10
29.51086018142437
 20
27.81983506248949
 30
0.0
 10
29.51086018142437
 20
27.81983506248949
 30
0.0
 10
29.51086018142437
 20
27.81983506248949
 30
0.0
 10
31.987883835319
 20
27.81983506248949
 30
0.0
 10
31.987883835319
 20
27.81983506248949
 30
0.0
 10
31.987883835319
 20
27.81983506248949
 30
0.0
 10
31.987883835319
 20
25.9074625586273
 30
0.0
 10
31.987883835319
 20
25.9074625586273
 30
0.0
 10
31.987883835319
 20
25.9074625586273
 30
0.0
 10
31.56809895044131
 20
25.9074625586273
 30
0.0
 10
31.56809895044131
 20
25.9074625586273
 30
0.0
 10
31.56809895044131
 20
25.9074625586273
 30
0.0
 10
31.56809895044131
 20
26.09384222437932
 30
0.0
 10
31.56809895044131
 20
26.09384222437932
 30
0.0
 10
31.56809895044131
 20
26.09384222437932
 30
0.0
 10
30.98036566065769
 20
26.09384222437932
 30
0.0
 10
30.98036566065769
 20
26.09384222437932
 30
0.0
 10
30.98036566065769
 20
26.09384222437932
 30
0.0
 10
30.98036566065769
 20
25.39414333132508
 30
0.0
 10
30.98036566065769
 20
25.39414333132508
 30
0.0
 10
30.98036566065769
 20
25.39414333132508
 30
0.0
 10
32.51274413249681
 20
25.39414333132508
 30
0.0
 10
32.51274413249681
 20
25.39414333132508
 30
0.0
 10
32.51274413249681
 20
25.39414333132508
 30
0.0
 10
32.51274413249681
 20
24.95110405192195
 30
0.0
 10
32.51274413249681
 20
24.95110405192195
 30
0.0
 10
32.51274413249681
 20
24.95110405192195
 30
0.0
 10
31.02222357080347
 20
24.95110405192195
 30
0.0
 10
31.02222357080347
 20
24.95110405192195
 30
0.0
 10
31.41393092747638
 20
24.34476724651797
 30
0.0
 10
31.95291611614372
 20
23.8858805278827
 30
0.0
 10
32.6386623724827
 20
23.57478840556464
 30
0.0
 10
32.6386623724827
 20
23.57478840556464
 30
0.0
 10
32.49172905003679
 20
23.03838703851124
 30
0.0
 10
32.49172905003679
 20
23.03838703851124
 30
0.0
 10
31.90399576025317
 20
23.28712293254627
 30
0.0
 10
31.40015054553538
 20
23.7150037918143
 30
0.0
 10
30.98036566065769
 20
24.32134059721828
 30
0.0
 10
30.98036566065769
 20
24.32134059721828
 30
0.0
 10
30.98036566065769
 20
22.68870984675838
 30
0.0
 10
30.98036566065769
 20
22.68870984675838
 30
0.0
 10
30.98036566065769
 20
22.68870984675838
 30
0.0
 10
30.56040852100573
 20
22.68870984675838
 30
0.0
 10
30.56040852100573
 20
22.68870984675838
 30
0.0
 10
30.56040852100573
 20
22.68870984675838
 30
0.0
 10
30.56040852100573
 20
24.29791394791858
 30
0.0
 10
30.56040852100573
 20
24.29791394791858
 30
0.0
 10
30.56040852100573
 20
24.29791394791858
 30
0.0
 10
30.56040852100573
 20
24.29791394791858
 30
0.0
 10
30.56040852100573
 20
24.29791394791858
 30
0.0
  0
POLYLINE
  5
A5
330
9F
100
AcDbEntity
  8
0
100
AcDb2dPolyline
 66
     1
 10
0.0
 20
0.0
 30
0.0
  0
VERTEX
  5
A6
330
A5
100
AcDbEntity
  8
0
100
AcDbVertex
100
AcDb2dVertex
 10
29.93064506630206
 20
27.37679578308636
 30
0.0
  0
VERTEX
  5
A7
330
A5
100
AcDbEntity
  8
0
100
AcDbVertex
100
AcDb2dVertex
 10
29.93064506630206
 20
26.53722601333097
 30
0.0
  0
VERTEX
  5
A8
330
A5
100
AcDbEntity
  8
0
100
AcDbVertex
100
AcDb2dVertex
 10
31.56809895044131
 20
26.53722601333097
 30
0.0
  0
VERTEX
  5
A9
330
A5
100
AcDbEntity
  8
0
100
AcDbVertex
100
AcDb2dVertex
 10
31.56809895044131
 20
27.37679578308636
 30
0.0
  0
VERTEX
  5
AA
330
A5
100
AcDbEntity
  8
0
100
AcDbVertex
100
AcDb2dVertex
 10
29.93064506630206
 20
27.37679578308636
 30
0.0
  0
SEQEND
  5
AB
330
A5
100
AcDbEntity
  8
0
  0
HATCH
  5
AC
330
9F
100
AcDbEntity
  8
0
 62
    18
100
AcDbHatch
 10
0.0
 20
0.0
 30
0.0
210
0.0
220
0.0
230
1.0
  2
SOLID
 70
     1
 71
     0
 91
        3
 92
        1
 93
        1
 72
     4
 94
        3
 73
     0
 74
     1
 95
       41
 96
       37
 40
0.0
 40
0.0
 40
0.0
 40
0.0
 40
1.0
 40
1.0
 40
1.0
 40
2.0
 40
2.0
 40
2.0
 40
3.0
 40
3.0
 40
3.0
 40
4.0
 40
4.0
 40
4.0
 40
5.0
 40
5.0
 40
5.0
 40
6.0
 40
6.0
 40
6.0
 40
7.0
 40
7.0
 40
7.0
 40
8.0
 40
8.0
 40
8.0
 40
9.0
 40
9.0
 40
9.0
 40
10.0
 40
10.0
 40
10.0
 40
11.0
 40
11.0
 40
11.0
 40
12.0
 40
12.0
 40
12.0
 40
12.0
 10
29.19597845407253
 20
27.77332627343861
 10
29.15394828915248
 20
27.43122829175331
 10
29.0418104311076
 20
27.02677408178497
 10
28.86008164426067
 20
26.56030815308215
 10
28.86008164426067
 20
26.56030815308215
 10
28.92312689164075
 20
26.51379936403128
 10
28.92312689164075
 20
26.51379936403128
 10
28.9789374385018
 20
26.45144313574825
 10
28.95792235604177
 20
26.41251355676493
 10
28.86008164426067
 20
26.3970106270813
 10
28.86008164426067
 20
26.3970106270813
 10
28.86008164426067
 20
22.68870984675838
 10
28.86008164426067
 20
22.68870984675838
 10
28.86008164426067
 20
22.68870984675838
 10
28.44029675938298
 20
22.68870984675838
 10
28.44029675938298
 20
22.68870984675838
 10
28.44029675938298
 20
22.68870984675838
 10
28.44029675938298
 20
25.65080294497619
 10
28.44029675938298
 20
25.65080294497619
 10
28.3281589013381
 20
25.44857583999202
 10
28.19535047038172
 20
25.26185166469148
 10
28.04152695696531
 20
25.09097492862309
 10
28.04152695696531
 20
25.09097492862309
 10
27.76850313975926
 20
25.55744085732592
 10
27.76850313975926
 20
25.55744085732592
 10
28.27234835447705
 20
26.10142143444687
 10
28.61513535525941
 20
26.94133571375078
 10
28.79720865165487
 20
28.0764946761406
 10
28.79720865165487
 20
28.0764946761406
 10
29.25902370145261
 20
27.88977050084006
 10
29.25902370145261
 20
27.88977050084006
 10
29.31466199353939
 20
27.82775878210556
 10
29.29381916585363
 20
27.78848469357371
 10
29.19597845407253
 20
27.77332627343861
 10
29.19597845407253
 20
27.77332627343861
 10
29.19597845407253
 20
27.77332627343861
 10
29.19597845407253
 20
27.77332627343861
 97
        0
 92
        1
 93
        1
 72
     4
 94
        3
 73
     0
 74
     1
 95
       86
 96
       82
 40
0.0
 40
0.0
 40
0.0
 40
0.0
 40
1.0
 40
1.0
 40
1.0
 40
2.0
 40
2.0
 40
2.0
 40
3.0
 40
3.0
 40
3.0
 40
4.0
 40
4.0
 40
4.0
 40
5.0
 40
5.0
 40
5.0
 40
6.0
 40
6.0
 40
6.0
 40
7.0
 40
7.0
 40
7.0
 40
8.0
 40
8.0
 40
8.0
 40
9.0
 40
9.0
 40
9.0
 40
10.0
 40
10.0
 40
10.0
 40
11.0
 40
11.0
 40
11.0
 40
12.0
 40
12.0
 40
12.0
 40
13.0
 40
13.0
 40
13.0
 40
14.0
 40
14.0
 40
14.0
 40
15.0
 40
15.0
 40
15.0
 40
16.0
 40
16.0
 40
16.0
 40
17.0
 40
17.0
 40
17.0
 40
18.0
 40
18.0
 40
18.0
 40
19.0
 40
19.0
 40
19.0
 40
20.0
 40
20.0
 40
20.0
 40
21.0
 40
21.0
 40
21.0
 40
22.0
 40
22.0
 40
22.0
 40
23.0
 40
23.0
 40
23.0
 40
24.0
 40
24.0
 40
24.0
 40
25.0
 40
25.0
 40
25.0
 40
26.0
 40
26.0
 40
26.0
 40
27.0
 40
27.0
 40
27.0
 40
27.0
 10
30.56040852100573
 20
24.29791394791858
 10
30.26654187611392
 20
23.84695094889937
 10
29.82574190877621
 20
23.4114908795638
 10
29.23800861899258
 20
22.99187824946036
 10
29.23800861899258
 20
22.99187824946036
 10
29.00701496670658
 20
23.55170626581346
 10
29.00701496670658
 20
23.55170626581346
 10
29.60870089320547
 20
23.84695094889937
 10
30.11960855366802
 20
24.3134168776022
 10
30.53956569331997
 20
24.95110405192195
 10
30.53956569331997
 20
24.95110405192195
 10
29.02803004916661
 20
24.95110405192195
 10
29.02803004916661
 20
24.95110405192195
 10
29.02803004916661
 20
24.95110405192195
 10
29.02803004916661
 20
25.39414333132508
 10
29.02803004916661
 20
25.39414333132508
 10
29.02803004916661
 20
25.39414333132508
 10
30.56040852100573
 20
25.39414333132508
 10
30.56040852100573
 20
25.39414333132508
 10
30.56040852100573
 20
25.39414333132508
 10
30.56040852100573
 20
26.09384222437932
 10
30.56040852100573
 20
26.09384222437932
 10
30.56040852100573
 20
26.09384222437932
 10
29.93064506630206
 20
26.09384222437932
 10
29.93064506630206
 20
26.09384222437932
 10
29.93064506630206
 20
26.09384222437932
 10
29.93064506630206
 20
25.8840359093276
 10
29.93064506630206
 20
25.8840359093276
 10
29.93064506630206
 20
25.8840359093276
 10
29.51086018142437
 20
25.8840359093276
 10
29.51086018142437
 20
25.8840359093276
 10
29.51086018142437
 20
25.8840359093276
 10
29.51086018142437
 20
27.81983506248949
 10
29.51086018142437
 20
27.81983506248949
 10
29.51086018142437
 20
27.81983506248949
 10
31.987883835319
 20
27.81983506248949
 10
31.987883835319
 20
27.81983506248949
 10
31.987883835319
 20
27.81983506248949
 10
31.987883835319
 20
25.9074625586273
 10
31.987883835319
 20
25.9074625586273
 10
31.987883835319
 20
25.9074625586273
 10
31.56809895044131
 20
25.9074625586273
 10
31.56809895044131
 20
25.9074625586273
 10
31.56809895044131
 20
25.9074625586273
 10
31.56809895044131
 20
26.09384222437932
 10
31.56809895044131
 20
26.09384222437932
 10
31.56809895044131
 20
26.09384222437932
 10
30.98036566065769
 20
26.09384222437932
 10
30.98036566065769
 20
26.09384222437932
 10
30.98036566065769
 20
26.09384222437932
 10
30.98036566065769
 20
25.39414333132508
 10
30.98036566065769
 20
25.39414333132508
 10
30.98036566065769
 20
25.39414333132508
 10
32.51274413249681
 20
25.39414333132508
 10
32.51274413249681
 20
25.39414333132508
 10
32.51274413249681
 20
25.39414333132508
 10
32.51274413249681
 20
24.95110405192195
 10
32.51274413249681
 20
24.95110405192195
 10
32.51274413249681
 20
24.95110405192195
 10
31.02222357080347
 20
24.95110405192195
 10
31.02222357080347
 20
24.95110405192195
 10
31.41393092747638
 20
24.34476724651797
 10
31.95291611614372
 20
23.8858805278827
 10
32.6386623724827
 20
23.57478840556464
 10
32.6386623724827
 20
23.57478840556464
 10
32.49172905003679
 20
23.03838703851124
 10
32.49172905003679
 20
23.03838703851124
 10
31.90399576025317
 20
23.28712293254627
 10
31.40015054553538
 20
23.7150037918143
 10
30.98036566065769
 20
24.32134059721828
 10
30.98036566065769
 20
24.32134059721828
 10
30.98036566065769
 20
22.68870984675838
 10
30.98036566065769
 20
22.68870984675838
 10
30.98036566065769
 20
22.68870984675838
 10
30.56040852100573
 20
22.68870984675838
 10
30.56040852100573
 20
22.68870984675838
 10
30.56040852100573
 20
22.68870984675838
 10
30.56040852100573
 20
24.29791394791858
 10
30.56040852100573
 20
24.29791394791858
 10
30.56040852100573
 20
24.29791394791858
 10
30.56040852100573
 20
24.29791394791858
 10
30.56040852100573
 20
24.29791394791858
 97
        0
 92
        1
 93
        4
 72
     1
 10
29.93064506630206
 20
27.37679578308636
 11
29.93064506630206
 21
26.53722601333097
 72
     1
 10
29.93064506630206
 20
26.53722601333097
 11
31.56809895044131
 21
26.53722601333097
 72
     1
 10
31.56809895044131
 20
26.53722601333097
 11
31.56809895044131
 21
27.37679578308636
 72
     1
 10
31.56809895044131
 20
27.37679578308636
 11
29.93064506630206
 21
27.37679578308636
 97
        0
 75
     2
 76
     1
 98
        0
  0
SPLINE
  5
AD
330
9F
100
AcDbEntity
  8
0
100
AcDbSpline
210
0.0
220
0.0
230
1.0
 70
    11
 71
     3
 72
    68
 73
    64
 74
     0
 42
0.0000000001
 43
0.0000000001
 40
0.0
 40
0.0
 40
0.0
 40
0.0
 40
1.0
 40
1.0
 40
1.0
 40
2.0
 40
2.0
 40
2.0
 40
3.0
 40
3.0
 40
3.0
 40
4.0
 40
4.0
 40
4.0
 40
5.0
 40
5.0
 40
5.0
 40
6.0
 40
6.0
 40
6.0
 40
7.0
 40
7.0
 40
7.0
 40
8.0
 40
8.0
 40
8.0
 40
9.0
 40
9.0
 40
9.0
 40
10.0
 40
10.0
 40
10.0
 40
11.0
 40
11.0
 40
11.0
 40
12.0
 40
12.0
 40
12.0
 40
13.0
 40
13.0
 40
13.0
 40
14.0
 40
14.0
 40
14.0
 40
15.0
 40
15.0
 40
15.0
 40
16.0
 40
16.0
 40
16.0
 40
17.0
 40
17.0
 40
17.0
 40
18.0
 40
18.0
 40
18.0
 40
19.0
 40
19.0
 40
19.0
 40
20.0
 40
20.0
 40
20.0
 40
21.0
 40
21.0
 40
21.0
 40
21.0
 10
35.64054632355514
 20
26.60716145168155
 30
0.0
 10
35.72443439862098
 20
26.56030815308215
 30
0.0
 10
35.71719969810195
 20
26.52137857409882
 30
0.0
 10
35.61953124109512
 20
26.49037271473157
 30
0.0
 10
35.56337618468554
 20
26.33499890834681
 30
0.0
 10
35.47259791864921
 20
26.11726887367902
 30
0.0
 10
35.34667967866333
 20
25.83752712027673
 30
0.0
 10
35.34667967866333
 20
25.83752712027673
 30
0.0
 10
37.86573349747801
 20
25.83752712027673
 30
0.0
 10
37.86573349747801
 20
25.83752712027673
 30
0.0
 10
37.86573349747801
 20
25.83752712027673
 30
0.0
 10
37.86573349747801
 20
25.39414333132508
 30
0.0
 10
37.86573349747801
 20
25.39414333132508
 30
0.0
 10
37.86573349747801
 20
25.39414333132508
 30
0.0
 10
36.83702798558241
 20
25.39414333132508
 30
0.0
 10
36.83702798558241
 20
25.39414333132508
 30
0.0
 10
36.73901501902705
 20
24.89632703370647
 30
0.0
 10
36.5431613406906
 20
24.4457085442358
 30
0.0
 10
36.24929469579879
 20
24.04125433426746
 30
0.0
 10
36.71110974559653
 20
23.82352429959968
 30
0.0
 10
37.15190971293425
 20
23.53585882658131
 30
0.0
 10
37.5718668525862
 20
23.17825791521238
 30
0.0
 10
37.5718668525862
 20
23.17825791521238
 30
0.0
 10
37.1939398778543
 20
22.73521863580925
 30
0.0
 10
37.1939398778543
 20
22.73521863580925
 30
0.0
 10
36.76003010148708
 20
23.12416991609396
 30
0.0
 10
36.34007296183512
 20
23.42699380924742
 30
0.0
 10
35.93441296844696
 20
23.64472384391521
 30
0.0
 10
35.38853758880911
 20
23.14725205584513
 30
0.0
 10
34.57687309248426
 20
22.8365044430756
 30
0.0
 10
33.49941947947237
 20
22.71179198650955
 30
0.0
 10
33.49941947947237
 20
22.71179198650955
 30
0.0
 10
33.41535914963227
 20
23.27162000286265
 30
0.0
 10
33.41535914963227
 20
23.27162000286265
 30
0.0
 10
34.28300644759244
 20
23.3026258622299
 30
0.0
 10
34.97564289490192
 20
23.50485296721407
 30
0.0
 10
35.49361300110924
 20
23.87795680826662
 30
0.0
 10
35.12946640831833
 20
24.04917805388354
 30
0.0
 10
34.8145846809665
 20
24.18904893058468
 30
0.0
 10
34.54896781905373
 20
24.29791394791858
 30
0.0
 10
34.49281276264416
 20
24.20455186026831
 30
0.0
 10
34.42993977003835
 20
24.11153428216656
 30
0.0
 10
34.36000433168778
 20
24.01817219451629
 30
0.0
 10
34.36000433168778
 20
24.01817219451629
 30
0.0
 10
34.00309243941589
 20
24.29791394791858
 30
0.0
 10
34.00309243941589
 20
24.29791394791858
 30
0.0
 10
34.19894611775235
 20
24.59315863100449
 30
0.0
 10
34.41581487854882
 20
24.9586832619895
 30
0.0
 10
34.65387097657959
 20
25.39414333132508
 30
0.0
 10
34.65387097657959
 20
25.39414333132508
 30
0.0
 10
33.24741074472634
 20
25.39414333132508
 30
0.0
 10
33.24741074472634
 20
25.39414333132508
 30
0.0
 10
33.24741074472634
 20
25.39414333132508
 30
0.0
 10
33.24741074472634
 20
25.83752712027673
 30
0.0
 10
33.24741074472634
 20
25.83752712027673
 30
0.0
 10
33.24741074472634
 20
25.83752712027673
 30
0.0
 10
34.84283446394554
 20
25.83752712027673
 30
0.0
 10
34.84283446394554
 20
25.83752712027673
 30
0.0
 10
35.01078286885147
 20
26.22578938146439
 30
0.0
 10
35.12946640831833
 20
26.53722601333097
 30
0.0
 10
35.19974635621742
 20
26.77045897768239
 30
0.0
 10
35.19974635621742
 20
26.77045897768239
 30
0.0
 10
35.64054632355514
 20
26.60716145168155
 30
0.0
 10
35.64054632355514
 20
26.60716145168155
 30
0.0
  0
SPLINE
  5
AE
330
9F
100
AcDbEntity
  8
0
100
AcDbSpline
210
0.0
220
0.0
230
1.0
 70
    11
 71
     3
 72
    44
 73
    40
 74
     0
 42
0.0000000001
 43
0.0000000001
 40
0.0
 40
0.0
 40
0.0
 40
0.0
 40
1.0
 40
1.0
 40
1.0
 40
2.0
 40
2.0
 40
2.0
 40
3.0
 40
3.0
 40
3.0
 40
4.0
 40
4.0
 40
4.0
 40
5.0
 40
5.0
 40
5.0
 40
6.0
 40
6.0
 40
6.0
 40
7.0
 40
7.0
 40
7.0
 40
8.0
 40
8.0
 40
8.0
 40
9.0
 40
9.0
 40
9.0
 40
10.0
 40
10.0
 40
10.0
 40
11.0
 40
11.0
 40
11.0
 40
12.0
 40
12.0
 40
12.0
 40
13.0
 40
13.0
 40
13.0
 40
13.0
 10
37.73964300271787
 20
26.23371310108046
 30
0.0
 10
37.73964300271787
 20
26.23371310108046
 30
0.0
 10
37.31985811784018
 20
26.23371310108046
 30
0.0
 10
37.31985811784018
 20
26.23371310108046
 30
0.0
 10
37.31985811784018
 20
26.23371310108046
 30
0.0
 10
37.31985811784018
 20
26.9568386434344
 30
0.0
 10
37.31985811784018
 20
26.9568386434344
 30
0.0
 10
37.31985811784018
 20
26.9568386434344
 30
0.0
 10
33.79328612436418
 20
26.9568386434344
 30
0.0
 10
33.79328612436418
 20
26.9568386434344
 30
0.0
 10
33.79328612436418
 20
26.9568386434344
 30
0.0
 10
33.79328612436418
 20
26.23371310108046
 30
0.0
 10
33.79328612436418
 20
26.23371310108046
 30
0.0
 10
33.79328612436418
 20
26.23371310108046
 30
0.0
 10
33.37332898471222
 20
26.23371310108046
 30
0.0
 10
33.37332898471222
 20
26.23371310108046
 30
0.0
 10
33.37332898471222
 20
26.23371310108046
 30
0.0
 10
33.37332898471222
 20
27.40022243238606
 30
0.0
 10
33.37332898471222
 20
27.40022243238606
 30
0.0
 10
33.37332898471222
 20
27.40022243238606
 30
0.0
 10
35.32566459620331
 20
27.40022243238606
 30
0.0
 10
35.32566459620331
 20
27.40022243238606
 30
0.0
 10
35.32566459620331
 20
27.40022243238606
 30
0.0
 10
35.32566459620331
 20
28.0764946761406
 30
0.0
 10
35.32566459620331
 20
28.0764946761406
 30
0.0
 10
35.32566459620331
 20
28.0764946761406
 30
0.0
 10
35.72443439862098
 20
28.0764946761406
 30
0.0
 10
35.72443439862098
 20
28.0764946761406
 30
0.0
 10
35.8364000018916
 20
28.06099174645697
 30
0.0
 10
35.8432901928621
 20
28.01413844785758
 30
0.0
 10
35.745449481081
 20
27.93662379943946
 30
0.0
 10
35.745449481081
 20
27.93662379943946
 30
0.0
 10
35.745449481081
 20
27.40022243238606
 30
0.0
 10
35.745449481081
 20
27.40022243238606
 30
0.0
 10
35.745449481081
 20
27.40022243238606
 30
0.0
 10
37.73964300271787
 20
27.40022243238606
 30
0.0
 10
37.73964300271787
 20
27.40022243238606
 30
0.0
 10
37.73964300271787
 20
27.40022243238606
 30
0.0
 10
37.73964300271787
 20
26.23371310108046
 30
0.0
 10
37.73964300271787
 20
26.23371310108046
 30
0.0
  0
SPLINE
  5
AF
330
9F
100
AcDbEntity
  8
0
100
AcDbSpline
210
0.0
220
0.0
230
1.0
 70
    11
 71
     3
 72
    20
 73
    16
 74
     0
 42
0.0000000001
 43
0.0000000001
 40
0.0
 40
0.0
 40
0.0
 40
0.0
 40
1.0
 40
1.0
 40
1.0
 40
2.0
 40
2.0
 40
2.0
 40
3.0
 40
3.0
 40
3.0
 40
4.0
 40
4.0
 40
4.0
 40
5.0
 40
5.0
 40
5.0
 40
5.0
 10
35.8295098109211
 20
24.2514051588677
 30
0.0
 10
36.10925156432339
 20
24.62450899992026
 30
0.0
 10
36.29132486071884
 20
25.00519205104037
 30
0.0
 10
36.37521293578467
 20
25.39414333132508
 30
0.0
 10
36.37521293578467
 20
25.39414333132508
 30
0.0
 10
35.15771619129738
 20
25.39414333132508
 30
0.0
 10
35.15771619129738
 20
25.39414333132508
 30
0.0
 10
35.07382811623155
 20
25.20776366557306
 30
0.0
 10
34.94050292095238
 20
24.96626247205705
 30
0.0
 10
34.75894638887971
 20
24.67101778897113
 30
0.0
 10
35.05281303377152
 20
24.57800021086939
 30
0.0
 10
35.40955267126914
 20
24.43778482461972
 30
0.0
 10
35.8295098109211
 20
24.2514051588677
 30
0.0
 10
35.8295098109211
 20
24.2514051588677
 30
0.0
 10
35.8295098109211
 20
24.2514051588677
 30
0.0
 10
35.8295098109211
 20
24.2514051588677
 30
0.0
  0
HATCH
  5
B0
330
9F
100
AcDbEntity
  8
0
 62
    18
100
AcDbHatch
 10
0.0
 20
0.0
 30
0.0
210
0.0
220
0.0
230
1.0
  2
SOLID
 70
     1
 71
     0
 91
        3
 92
        1
 93
        1
 72
     4
 94
        3
 73
     0
 74
     1
 95
       68
 96
       64
 40
0.0
 40
0.0
 40
0.0
 40
0.0
 40
1.0
 40
1.0
 40
1.0
 40
2.0
 40
2.0
 40
2.0
 40
3.0
 40
3.0
 40
3.0
 40
4.0
 40
4.0
 40
4.0
 40
5.0
 40
5.0
 40
5.0
 40
6.0
 40
6.0
 40
6.0
 40
7.0
 40
7.0
 40
7.0
 40
8.0
 40
8.0
 40
8.0
 40
9.0
 40
9.0
 40
9.0
 40
10.0
 40
10.0
 40
10.0
 40
11.0
 40
11.0
 40
11.0
 40
12.0
 40
12.0
 40
12.0
 40
13.0
 40
13.0
 40
13.0
 40
14.0
 40
14.0
 40
14.0
 40
15.0
 40
15.0
 40
15.0
 40
16.0
 40
16.0
 40
16.0
 40
17.0
 40
17.0
 40
17.0
 40
18.0
 40
18.0
 40
18.0
 40
19.0
 40
19.0
 40
19.0
 40
20.0
 40
20.0
 40
20.0
 40
21.0
 40
21.0
 40
21.0
 40
21.0
 10
35.64054632355514
 20
26.60716145168155
 10
35.72443439862098
 20
26.56030815308215
 10
35.71719969810195
 20
26.52137857409882
 10
35.61953124109512
 20
26.49037271473157
 10
35.56337618468554
 20
26.33499890834681
 10
35.47259791864921
 20
26.11726887367902
 10
35.34667967866333
 20
25.83752712027673
 10
35.34667967866333
 20
25.83752712027673
 10
37.86573349747801
 20
25.83752712027673
 10
37.86573349747801
 20
25.83752712027673
 10
37.86573349747801
 20
25.83752712027673
 10
37.86573349747801
 20
25.39414333132508
 10
37.86573349747801
 20
25.39414333132508
 10
37.86573349747801
 20
25.39414333132508
 10
36.83702798558241
 20
25.39414333132508
 10
36.83702798558241
 20
25.39414333132508
 10
36.73901501902705
 20
24.89632703370647
 10
36.5431613406906
 20
24.4457085442358
 10
36.24929469579879
 20
24.04125433426746
 10
36.71110974559653
 20
23.82352429959968
 10
37.15190971293425
 20
23.53585882658131
 10
37.5718668525862
 20
23.17825791521238
 10
37.5718668525862
 20
23.17825791521238
 10
37.1939398778543
 20
22.73521863580925
 10
37.1939398778543
 20
22.73521863580925
 10
36.76003010148708
 20
23.12416991609396
 10
36.34007296183512
 20
23.42699380924742
 10
35.93441296844696
 20
23.64472384391521
 10
35.38853758880911
 20
23.14725205584513
 10
34.57687309248426
 20
22.8365044430756
 10
33.49941947947237
 20
22.71179198650955
 10
33.49941947947237
 20
22.71179198650955
 10
33.41535914963227
 20
23.27162000286265
 10
33.41535914963227
 20
23.27162000286265
 10
34.28300644759244
 20
23.3026258622299
 10
34.97564289490192
 20
23.50485296721407
 10
35.49361300110924
 20
23.87795680826662
 10
35.12946640831833
 20
24.04917805388354
 10
34.8145846809665
 20
24.18904893058468
 10
34.54896781905373
 20
24.29791394791858
 10
34.49281276264416
 20
24.20455186026831
 10
34.42993977003835
 20
24.11153428216656
 10
34.36000433168778
 20
24.01817219451629
 10
34.36000433168778
 20
24.01817219451629
 10
34.00309243941589
 20
24.29791394791858
 10
34.00309243941589
 20
24.29791394791858
 10
34.19894611775235
 20
24.59315863100449
 10
34.41581487854882
 20
24.9586832619895
 10
34.65387097657959
 20
25.39414333132508
 10
34.65387097657959
 20
25.39414333132508
 10
33.24741074472634
 20
25.39414333132508
 10
33.24741074472634
 20
25.39414333132508
 10
33.24741074472634
 20
25.39414333132508
 10
33.24741074472634
 20
25.83752712027673
 10
33.24741074472634
 20
25.83752712027673
 10
33.24741074472634
 20
25.83752712027673
 10
34.84283446394554
 20
25.83752712027673
 10
34.84283446394554
 20
25.83752712027673
 10
35.01078286885147
 20
26.22578938146439
 10
35.12946640831833
 20
26.53722601333097
 10
35.19974635621742
 20
26.77045897768239
 10
35.19974635621742
 20
26.77045897768239
 10
35.64054632355514
 20
26.60716145168155
 10
35.64054632355514
 20
26.60716145168155
 97
        0
 92
        1
 93
        1
 72
     4
 94
        3
 73
     0
 74
     1
 95
       44
 96
       40
 40
0.0
 40
0.0
 40
0.0
 40
0.0
 40
1.0
 40
1.0
 40
1.0
 40
2.0
 40
2.0
 40
2.0
 40
3.0
 40
3.0
 40
3.0
 40
4.0
 40
4.0
 40
4.0
 40
5.0
 40
5.0
 40
5.0
 40
6.0
 40
6.0
 40
6.0
 40
7.0
 40
7.0
 40
7.0
 40
8.0
 40
8.0
 40
8.0
 40
9.0
 40
9.0
 40
9.0
 40
10.0
 40
10.0
 40
10.0
 40
11.0
 40
11.0
 40
11.0
 40
12.0
 40
12.0
 40
12.0
 40
13.0
 40
13.0
 40
13.0
 40
13.0
 10
37.73964300271787
 20
26.23371310108046
 10
37.73964300271787
 20
26.23371310108046
 10
37.31985811784018
 20
26.23371310108046
 10
37.31985811784018
 20
26.23371310108046
 10
37.31985811784018
 20
26.23371310108046
 10
37.31985811784018
 20
26.9568386434344
 10
37.31985811784018
 20
26.9568386434344
 10
37.31985811784018
 20
26.9568386434344
 10
33.79328612436418
 20
26.9568386434344
 10
33.79328612436418
 20
26.9568386434344
 10
33.79328612436418
 20
26.9568386434344
 10
33.79328612436418
 20
26.23371310108046
 10
33.79328612436418
 20
26.23371310108046
 10
33.79328612436418
 20
26.23371310108046
 10
33.37332898471222
 20
26.23371310108046
 10
33.37332898471222
 20
26.23371310108046
 10
33.37332898471222
 20
26.23371310108046
 10
33.37332898471222
 20
27.40022243238606
 10
33.37332898471222
 20
27.40022243238606
 10
33.37332898471222
 20
27.40022243238606
 10
35.32566459620331
 20
27.40022243238606
 10
35.32566459620331
 20
27.40022243238606
 10
35.32566459620331
 20
27.40022243238606
 10
35.32566459620331
 20
28.0764946761406
 10
35.32566459620331
 20
28.0764946761406
 10
35.32566459620331
 20
28.0764946761406
 10
35.72443439862098
 20
28.0764946761406
 10
35.72443439862098
 20
28.0764946761406
 10
35.8364000018916
 20
28.06099174645697
 10
35.8432901928621
 20
28.01413844785758
 10
35.745449481081
 20
27.93662379943946
 10
35.745449481081
 20
27.93662379943946
 10
35.745449481081
 20
27.40022243238606
 10
35.745449481081
 20
27.40022243238606
 10
35.745449481081
 20
27.40022243238606
 10
37.73964300271787
 20
27.40022243238606
 10
37.73964300271787
 20
27.40022243238606
 10
37.73964300271787
 20
27.40022243238606
 10
37.73964300271787
 20
26.23371310108046
 10
37.73964300271787
 20
26.23371310108046
 97
        0
 92
        1
 93
        1
 72
     4
 94
        3
 73
     0
 74
     1
 95
       20
 96
       16
 40
0.0
 40
0.0
 40
0.0
 40
0.0
 40
1.0
 40
1.0
 40
1.0
 40
2.0
 40
2.0
 40
2.0
 40
3.0
 40
3.0
 40
3.0
 40
4.0
 40
4.0
 40
4.0
 40
5.0
 40
5.0
 40
5.0
 40
5.0
 10
35.8295098109211
 20
24.2514051588677
 10
36.10925156432339
 20
24.62450899992026
 10
36.29132486071884
 20
25.00519205104037
 10
36.37521293578467
 20
25.39414333132508
 10
36.37521293578467
 20
25.39414333132508
 10
35.15771619129738
 20
25.39414333132508
 10
35.15771619129738
 20
25.39414333132508
 10
35.07382811623155
 20
25.20776366557306
 10
34.94050292095238
 20
24.96626247205705
 10
34.75894638887971
 20
24.67101778897113
 10
35.05281303377152
 20
24.57800021086939
 10
35.40955267126914
 20
24.43778482461972
 10
35.8295098109211
 20
24.2514051588677
 10
35.8295098109211
 20
24.2514051588677
 10
35.8295098109211
 20
24.2514051588677
 10
35.8295098109211
 20
24.2514051588677
 97
        0
 75
     2
 76
     1
 98
        0
  0
SPLINE
  5
B1
330
9F
100
AcDbEntity
  8
0
100
AcDbSpline
210
0.0
220
0.0
230
1.0
 70
    11
 71
     3
 72
    47
 73
    43
 74
     0
 42
0.0000000001
 43
0.0000000001
 40
0.0
 40
0.0
 40
0.0
 40
0.0
 40
1.0
 40
1.0
 40
1.0
 40
2.0
 40
2.0
 40
2.0
 40
3.0
 40
3.0
 40
3.0
 40
4.0
 40
4.0
 40
4.0
 40
5.0
 40
5.0
 40
5.0
 40
6.0
 40
6.0
 40
6.0
 40
7.0
 40
7.0
 40
7.0
 40
8.0
 40
8.0
 40
8.0
 40
9.0
 40
9.0
 40
9.0
 40
10.0
 40
10.0
 40
10.0
 40
11.0
 40
11.0
 40
11.0
 40
12.0
 40
12.0
 40
12.0
 40
13.0
 40
13.0
 40
13.0
 40
14.0
 40
14.0
 40
14.0
 40
14.0
 10
40.69949678887026
 20
22.80515407415982
 30
0.0
 10
40.26558701250305
 20
22.80515407415982
 30
0.0
 10
39.86681721008538
 20
22.99980196907644
 30
0.0
 10
39.503015126843
 20
23.38840873981262
 30
0.0
 10
39.20914848195119
 20
23.07731661749456
 30
0.0
 10
38.97109238392042
 20
22.85993109237529
 30
0.0
 10
38.7893635970735
 20
22.73521863580925
 30
0.0
 10
38.7893635970735
 20
22.73521863580925
 30
0.0
 10
38.55836994478749
 20
23.27162000286265
 30
0.0
 10
38.55836994478749
 20
23.27162000286265
 30
0.0
 10
38.55836994478749
 20
23.27162000286265
 30
0.0
 10
39.31405163947704
 20
23.73808593156548
 30
0.0
 10
39.31405163947704
 20
23.73808593156548
 30
0.0
 10
39.31405163947704
 20
23.73808593156548
 30
0.0
 10
39.31405163947704
 20
25.20776366557306
 30
0.0
 10
39.31405163947704
 20
25.20776366557306
 30
0.0
 10
39.31405163947704
 20
25.20776366557306
 30
0.0
 10
38.62141519216757
 20
25.20776366557306
 30
0.0
 10
38.62141519216757
 20
25.20776366557306
 30
0.0
 10
38.62141519216757
 20
25.20776366557306
 30
0.0
 10
38.62141519216757
 20
25.65080294497619
 30
0.0
 10
38.62141519216757
 20
25.65080294497619
 30
0.0
 10
38.62141519216757
 20
25.65080294497619
 30
0.0
 10
39.734008779129
 20
25.65080294497619
 30
0.0
 10
39.734008779129
 20
25.65080294497619
 30
0.0
 10
39.734008779129
 20
25.65080294497619
 30
0.0
 10
39.734008779129
 20
23.73808593156548
 30
0.0
 10
39.734008779129
 20
23.73808593156548
 30
0.0
 10
39.99962564104176
 20
23.4114908795638
 30
0.0
 10
40.36377223383267
 20
23.24819335356295
 30
0.0
 10
40.82558728363041
 20
23.24819335356295
 30
0.0
 10
40.82558728363041
 20
23.24819335356295
 30
0.0
 10
43.36548393013085
 20
23.24819335356295
 30
0.0
 10
43.36548393013085
 20
23.24819335356295
 30
0.0
 10
43.36548393013085
 20
23.24819335356295
 30
0.0
 10
43.28159585506502
 20
22.80515407415982
 30
0.0
 10
43.28159585506502
 20
22.80515407415982
 30
0.0
 10
43.28159585506502
 20
22.80515407415982
 30
0.0
 10
40.69949678887026
 20
22.80515407415982
 30
0.0
 10
40.69949678887026
 20
22.80515407415982
 30
0.0
 10
40.69949678887026
 20
22.80515407415982
 30
0.0
 10
40.69949678887026
 20
22.80515407415982
 30
0.0
 10
40.69949678887026
 20
22.80515407415982
 30
0.0
  0
SPLINE
  5
B2
330
9F
100
AcDbEntity
  8
0
100
AcDbSpline
210
0.0
220
0.0
230
1.0
 70
    11
 71
     3
 72
    17
 73
    13
 74
     0
 42
0.0000000001
 43
0.0000000001
 40
0.0
 40
0.0
 40
0.0
 40
0.0
 40
1.0
 40
1.0
 40
1.0
 40
2.0
 40
2.0
 40
2.0
 40
3.0
 40
3.0
 40
3.0
 40
4.0
 40
4.0
 40
4.0
 40
4.0
 10
39.39811196931714
 20
26.65367024073242
 30
0.0
 10
39.21603867292168
 20
26.94891492381833
 30
0.0
 10
38.97815482966519
 20
27.25208332652031
 30
0.0
 10
38.68428818477337
 20
27.5635199583869
 30
0.0
 10
38.68428818477337
 20
27.5635199583869
 30
0.0
 10
39.02018499458524
 20
27.86668836108888
 30
0.0
 10
39.02018499458524
 20
27.86668836108888
 30
0.0
 10
39.34195691290757
 20
27.5552517292223
 30
0.0
 10
39.5939656476536
 20
27.26793076575246
 30
0.0
 10
39.77586668927479
 20
27.0036919420338
 30
0.0
 10
39.77586668927479
 20
27.0036919420338
 30
0.0
 10
39.39811196931714
 20
26.65367024073242
 30
0.0
 10
39.39811196931714
 20
26.65367024073242
 30
0.0
  0
SPLINE
  5
B3
330
9F
100
AcDbEntity
  8
0
100
AcDbSpline
210
0.0
220
0.0
230
1.0
 70
    11
 71
     3
 72
    83
 73
    79
 74
     0
 42
0.0000000001
 43
0.0000000001
 40
0.0
 40
0.0
 40
0.0
 40
0.0
 40
1.0
 40
1.0
 40
1.0
 40
2.0
 40
2.0
 40
2.0
 40
3.0
 40
3.0
 40
3.0
 40
4.0
 40
4.0
 40
4.0
 40
5.0
 40
5.0
 40
5.0
 40
6.0
 40
6.0
 40
6.0
 40
7.0
 40
7.0
 40
7.0
 40
8.0
 40
8.0
 40
8.0
 40
9.0
 40
9.0
 40
9.0
 40
10.0
 40
10.0
 40
10.0
 40
11.0
 40
11.0
 40
11.0
 40
12.0
 40
12.0
 40
12.0
 40
13.0
 40
13.0
 40
13.0
 40
14.0
 40
14.0
 40
14.0
 40
15.0
 40
15.0
 40
15.0
 40
16.0
 40
16.0
 40
16.0
 40
17.0
 40
17.0
 40
17.0
 40
18.0
 40
18.0
 40
18.0
 40
19.0
 40
19.0
 40
19.0
 40
20.0
 40
20.0
 40
20.0
 40
21.0
 40
21.0
 40
21.0
 40
22.0
 40
22.0
 40
22.0
 40
23.0
 40
23.0
 40
23.0
 40
24.0
 40
24.0
 40
24.0
 40
25.0
 40
25.0
 40
25.0
 40
26.0
 40
26.0
 40
26.0
 40
26.0
 10
41.83310545829173
 20
26.93375650368323
 30
0.0
 10
41.83310545829173
 20
26.93375650368323
 30
0.0
 10
41.60228406077999
 20
26.49037271473157
 30
0.0
 10
41.60228406077999
 20
26.49037271473157
 30
0.0
 10
41.60228406077999
 20
26.49037271473157
 30
0.0
 10
42.7567355578872
 20
26.49037271473157
 30
0.0
 10
42.7567355578872
 20
26.49037271473157
 30
0.0
 10
42.7567355578872
 20
26.49037271473157
 30
0.0
 10
42.7567355578872
 20
23.57478840556464
 30
0.0
 10
42.7567355578872
 20
23.57478840556464
 30
0.0
 10
42.7567355578872
 20
23.57478840556464
 30
0.0
 10
42.39999592038959
 20
23.57478840556464
 30
0.0
 10
42.39999592038959
 20
23.57478840556464
 30
0.0
 10
42.39999592038959
 20
23.57478840556464
 30
0.0
 10
42.39999592038959
 20
23.73808593156548
 30
0.0
 10
42.39999592038959
 20
23.73808593156548
 30
0.0
 10
42.39999592038959
 20
23.73808593156548
 30
0.0
 10
40.74152695379031
 20
23.73808593156548
 30
0.0
 10
40.74152695379031
 20
23.73808593156548
 30
0.0
 10
40.74152695379031
 20
23.73808593156548
 30
0.0
 10
40.74152695379031
 20
23.48177082746289
 30
0.0
 10
40.74152695379031
 20
23.48177082746289
 30
0.0
 10
40.74152695379031
 20
23.48177082746289
 30
0.0
 10
40.38478731629269
 20
23.48177082746289
 30
0.0
 10
40.38478731629269
 20
23.48177082746289
 30
0.0
 10
40.38478731629269
 20
23.48177082746289
 30
0.0
 10
40.38478731629269
 20
26.49037271473157
 30
0.0
 10
40.38478731629269
 20
26.49037271473157
 30
0.0
 10
40.38478731629269
 20
26.49037271473157
 30
0.0
 10
41.20334200358806
 20
26.49037271473157
 30
0.0
 10
41.20334200358806
 20
26.49037271473157
 30
0.0
 10
41.20334200358806
 20
26.49037271473157
 30
0.0
 10
41.35027532603396
 20
26.93375650368323
 30
0.0
 10
41.35027532603396
 20
26.93375650368323
 30
0.0
 10
41.35027532603396
 20
26.93375650368323
 30
0.0
 10
39.92280001172069
 20
26.93375650368323
 30
0.0
 10
39.92280001172069
 20
26.93375650368323
 30
0.0
 10
39.92280001172069
 20
26.93375650368323
 30
0.0
 10
39.92280001172069
 20
27.30686034473579
 30
0.0
 10
39.92280001172069
 20
27.30686034473579
 30
0.0
 10
39.92280001172069
 20
27.30686034473579
 30
0.0
 10
40.84660236609044
 20
27.30686034473579
 30
0.0
 10
40.84660236609044
 20
27.30686034473579
 30
0.0
 10
40.76254203625034
 20
27.43122829175331
 30
0.0
 10
40.62938909574543
 20
27.59452581775415
 30
0.0
 10
40.44766030889851
 20
27.79675292273831
 30
0.0
 10
40.44766030889851
 20
27.79675292273831
 30
0.0
 10
40.78355711871036
 20
28.0764946761406
 30
0.0
 10
40.78355711871036
 20
28.0764946761406
 30
0.0
 10
40.93738063212677
 20
27.93662379943946
 30
0.0
 10
41.08431395457267
 20
27.76540255382254
 30
0.0
 10
41.22435708604808
 20
27.5635199583869
 30
0.0
 10
41.22435708604808
 20
27.5635199583869
 30
0.0
 10
40.90947535869624
 20
27.30686034473579
 30
0.0
 10
40.90947535869624
 20
27.30686034473579
 30
0.0
 10
40.90947535869624
 20
27.30686034473579
 30
0.0
 10
41.74921738322589
 20
27.30686034473579
 30
0.0
 10
41.74921738322589
 20
27.30686034473579
 30
0.0
 10
41.74921738322589
 20
27.30686034473579
 30
0.0
 10
42.02206894565768
 20
28.0999213254403
 30
0.0
 10
42.02206894565768
 20
28.0999213254403
 30
0.0
 10
42.02206894565768
 20
28.0999213254403
 30
0.0
 10
42.48388399545542
 20
28.00655923779003
 30
0.0
 10
42.48388399545542
 20
28.00655923779003
 30
0.0
 10
42.53969454231647
 20
27.94420300950701
 30
0.0
 10
42.51867945985644
 20
27.90527343052368
 30
0.0
 10
42.42083874807535
 20
27.88977050084006
 30
0.0
 10
42.42083874807535
 20
27.88977050084006
 30
0.0
 10
42.10595702072352
 20
27.30686034473579
 30
0.0
 10
42.10595702072352
 20
27.30686034473579
 30
0.0
 10
42.10595702072352
 20
27.30686034473579
 30
0.0
 10
43.23956569014497
 20
27.30686034473579
 30
0.0
 10
43.23956569014497
 20
27.30686034473579
 30
0.0
 10
43.23956569014497
 20
27.30686034473579
 30
0.0
 10
43.23956569014497
 20
26.93375650368323
 30
0.0
 10
43.23956569014497
 20
26.93375650368323
 30
0.0
 10
43.23956569014497
 20
26.93375650368323
 30
0.0
 10
41.83310545829173
 20
26.93375650368323
 30
0.0
 10
41.83310545829173
 20
26.93375650368323
 30
0.0
  0
POLYLINE
  5
B4
330
9F
100
AcDbEntity
  8
0
100
AcDb2dPolyline
 66
     1
 10
0.0
 20
0.0
 30
0.0
  0
VERTEX
  5
B5
330
B4
100
AcDbEntity
  8
0
100
AcDbVertex
100
AcDb2dVertex
 10
42.39999592038959
 20
26.11726887367902
 30
0.0
  0
VERTEX
  5
B6
330
B4
100
AcDbEntity
  8
0
100
AcDbVertex
100
AcDb2dVertex
 10
40.74152695379031
 20
26.11726887367902
 30
0.0
  0
VERTEX
  5
B7
330
B4
100
AcDbEntity
  8
0
100
AcDbVertex
100
AcDb2dVertex
 10
40.74152695379031
 20
25.69731173402706
 30
0.0
  0
VERTEX
  5
B8
330
B4
100
AcDbEntity
  8
0
100
AcDbVertex
100
AcDb2dVertex
 10
42.39999592038959
 20
25.69731173402706
 30
0.0
  0
VERTEX
  5
B9
330
B4
100
AcDbEntity
  8
0
100
AcDbVertex
100
AcDb2dVertex
 10
42.39999592038959
 20
26.11726887367902
 30
0.0
  0
SEQEND
  5
BA
330
B4
100
AcDbEntity
  8
0
  0
POLYLINE
  5
BB
330
9F
100
AcDbEntity
  8
0
100
AcDb2dPolyline
 66
     1
 10
0.0
 20
0.0
 30
0.0
  0
VERTEX
  5
BC
330
BB
100
AcDbEntity
  8
0
100
AcDbVertex
100
AcDb2dVertex
 10
42.39999592038959
 20
25.32420789297451
 30
0.0
  0
VERTEX
  5
BD
330
BB
100
AcDbEntity
  8
0
100
AcDbVertex
100
AcDb2dVertex
 10
40.74152695379031
 20
25.32420789297451
 30
0.0
  0
VERTEX
  5
BE
330
BB
100
AcDbEntity
  8
0
100
AcDbVertex
100
AcDb2dVertex
 10
40.74152695379031
 20
24.92767740262225
 30
0.0
  0
VERTEX
  5
BF
330
BB
100
AcDbEntity
  8
0
100
AcDbVertex
100
AcDb2dVertex
 10
42.39999592038959
 20
24.92767740262225
 30
0.0
  0
VERTEX
  5
C0
330
BB
100
AcDbEntity
  8
0
100
AcDbVertex
100
AcDb2dVertex
 10
42.39999592038959
 20
25.32420789297451
 30
0.0
  0
SEQEND
  5
C1
330
BB
100
AcDbEntity
  8
0
  0
POLYLINE
  5
C2
330
9F
100
AcDbEntity
  8
0
100
AcDb2dPolyline
 66
     1
 10
0.0
 20
0.0
 30
0.0
  0
VERTEX
  5
C3
330
C2
100
AcDbEntity
  8
0
100
AcDbVertex
100
AcDb2dVertex
 10
42.39999592038959
 20
24.55457356156969
 30
0.0
  0
VERTEX
  5
C4
330
C2
100
AcDbEntity
  8
0
100
AcDbVertex
100
AcDb2dVertex
 10
40.74152695379031
 20
24.55457356156969
 30
0.0
  0
VERTEX
  5
C5
330
C2
100
AcDbEntity
  8
0
100
AcDbVertex
100
AcDb2dVertex
 10
40.74152695379031
 20
24.11153428216656
 30
0.0
  0
VERTEX
  5
C6
330
C2
100
AcDbEntity
  8
0
100
AcDbVertex
100
AcDb2dVertex
 10
42.39999592038959
 20
24.11153428216656
 30
0.0
  0
VERTEX
  5
C7
330
C2
100
AcDbEntity
  8
0
100
AcDbVertex
100
AcDb2dVertex
 10
42.39999592038959
 20
24.55457356156969
 30
0.0
  0
SEQEND
  5
C8
330
C2
100
AcDbEntity
  8
0
  0
HATCH
  5
C9
330
9F
100
AcDbEntity
  8
0
 62
    18
100
AcDbHatch
 10
0.0
 20
0.0
 30
0.0
210
0.0
220
0.0
230
1.0
  2
SOLID
 70
     1
 71
     0
 91
        6
 92
        1
 93
        1
 72
     4
 94
        3
 73
     0
 74
     1
 95
       47
 96
       43
 40
0.0
 40
0.0
 40
0.0
 40
0.0
 40
1.0
 40
1.0
 40
1.0
 40
2.0
 40
2.0
 40
2.0
 40
3.0
 40
3.0
 40
3.0
 40
4.0
 40
4.0
 40
4.0
 40
5.0
 40
5.0
 40
5.0
 40
6.0
 40
6.0
 40
6.0
 40
7.0
 40
7.0
 40
7.0
 40
8.0
 40
8.0
 40
8.0
 40
9.0
 40
9.0
 40
9.0
 40
10.0
 40
10.0
 40
10.0
 40
11.0
 40
11.0
 40
11.0
 40
12.0
 40
12.0
 40
12.0
 40
13.0
 40
13.0
 40
13.0
 40
14.0
 40
14.0
 40
14.0
 40
14.0
 10
40.69949678887026
 20
22.80515407415982
 10
40.26558701250305
 20
22.80515407415982
 10
39.86681721008538
 20
22.99980196907644
 10
39.503015126843
 20
23.38840873981262
 10
39.20914848195119
 20
23.07731661749456
 10
38.97109238392042
 20
22.85993109237529
 10
38.7893635970735
 20
22.73521863580925
 10
38.7893635970735
 20
22.73521863580925
 10
38.55836994478749
 20
23.27162000286265
 10
38.55836994478749
 20
23.27162000286265
 10
38.55836994478749
 20
23.27162000286265
 10
39.31405163947704
 20
23.73808593156548
 10
39.31405163947704
 20
23.73808593156548
 10
39.31405163947704
 20
23.73808593156548
 10
39.31405163947704
 20
25.20776366557306
 10
39.31405163947704
 20
25.20776366557306
 10
39.31405163947704
 20
25.20776366557306
 10
38.62141519216757
 20
25.20776366557306
 10
38.62141519216757
 20
25.20776366557306
 10
38.62141519216757
 20
25.20776366557306
 10
38.62141519216757
 20
25.65080294497619
 10
38.62141519216757
 20
25.65080294497619
 10
38.62141519216757
 20
25.65080294497619
 10
39.734008779129
 20
25.65080294497619
 10
39.734008779129
 20
25.65080294497619
 10
39.734008779129
 20
25.65080294497619
 10
39.734008779129
 20
23.73808593156548
 10
39.734008779129
 20
23.73808593156548
 10
39.99962564104176
 20
23.4114908795638
 10
40.36377223383267
 20
23.24819335356295
 10
40.82558728363041
 20
23.24819335356295
 10
40.82558728363041
 20
23.24819335356295
 10
43.36548393013085
 20
23.24819335356295
 10
43.36548393013085
 20
23.24819335356295
 10
43.36548393013085
 20
23.24819335356295
 10
43.28159585506502
 20
22.80515407415982
 10
43.28159585506502
 20
22.80515407415982
 10
43.28159585506502
 20
22.80515407415982
 10
40.69949678887026
 20
22.80515407415982
 10
40.69949678887026
 20
22.80515407415982
 10
40.69949678887026
 20
22.80515407415982
 10
40.69949678887026
 20
22.80515407415982
 10
40.69949678887026
 20
22.80515407415982
 97
        0
 92
        1
 93
        1
 72
     4
 94
        3
 73
     0
 74
     1
 95
       17
 96
       13
 40
0.0
 40
0.0
 40
0.0
 40
0.0
 40
1.0
 40
1.0
 40
1.0
 40
2.0
 40
2.0
 40
2.0
 40
3.0
 40
3.0
 40
3.0
 40
4.0
 40
4.0
 40
4.0
 40
4.0
 10
39.39811196931714
 20
26.65367024073242
 10
39.21603867292168
 20
26.94891492381833
 10
38.97815482966519
 20
27.25208332652031
 10
38.68428818477337
 20
27.5635199583869
 10
38.68428818477337
 20
27.5635199583869
 10
39.02018499458524
 20
27.86668836108888
 10
39.02018499458524
 20
27.86668836108888
 10
39.34195691290757
 20
27.5552517292223
 10
39.5939656476536
 20
27.26793076575246
 10
39.77586668927479
 20
27.0036919420338
 10
39.77586668927479
 20
27.0036919420338
 10
39.39811196931714
 20
26.65367024073242
 10
39.39811196931714
 20
26.65367024073242
 97
        0
 92
        1
 93
        1
 72
     4
 94
        3
 73
     0
 74
     1
 95
       83
 96
       79
 40
0.0
 40
0.0
 40
0.0
 40
0.0
 40
1.0
 40
1.0
 40
1.0
 40
2.0
 40
2.0
 40
2.0
 40
3.0
 40
3.0
 40
3.0
 40
4.0
 40
4.0
 40
4.0
 40
5.0
 40
5.0
 40
5.0
 40
6.0
 40
6.0
 40
6.0
 40
7.0
 40
7.0
 40
7.0
 40
8.0
 40
8.0
 40
8.0
 40
9.0
 40
9.0
 40
9.0
 40
10.0
 40
10.0
 40
10.0
 40
11.0
 40
11.0
 40
11.0
 40
12.0
 40
12.0
 40
12.0
 40
13.0
 40
13.0
 40
13.0
 40
14.0
 40
14.0
 40
14.0
 40
15.0
 40
15.0
 40
15.0
 40
16.0
 40
16.0
 40
16.0
 40
17.0
 40
17.0
 40
17.0
 40
18.0
 40
18.0
 40
18.0
 40
19.0
 40
19.0
 40
19.0
 40
20.0
 40
20.0
 40
20.0
 40
21.0
 40
21.0
 40
21.0
 40
22.0
 40
22.0
 40
22.0
 40
23.0
 40
23.0
 40
23.0
 40
24.0
 40
24.0
 40
24.0
 40
25.0
 40
25.0
 40
25.0
 40
26.0
 40
26.0
 40
26.0
 40
26.0
 10
41.83310545829173
 20
26.93375650368323
 10
41.83310545829173
 20
26.93375650368323
 10
41.60228406077999
 20
26.49037271473157
 10
41.60228406077999
 20
26.49037271473157
 10
41.60228406077999
 20
26.49037271473157
 10
42.7567355578872
 20
26.49037271473157
 10
42.7567355578872
 20
26.49037271473157
 10
42.7567355578872
 20
26.49037271473157
 10
42.7567355578872
 20
23.57478840556464
 10
42.7567355578872
 20
23.57478840556464
 10
42.7567355578872
 20
23.57478840556464
 10
42.39999592038959
 20
23.57478840556464
 10
42.39999592038959
 20
23.57478840556464
 10
42.39999592038959
 20
23.57478840556464
 10
42.39999592038959
 20
23.73808593156548
 10
42.39999592038959
 20
23.73808593156548
 10
42.39999592038959
 20
23.73808593156548
 10
40.74152695379031
 20
23.73808593156548
 10
40.74152695379031
 20
23.73808593156548
 10
40.74152695379031
 20
23.73808593156548
 10
40.74152695379031
 20
23.48177082746289
 10
40.74152695379031
 20
23.48177082746289
 10
40.74152695379031
 20
23.48177082746289
 10
40.38478731629269
 20
23.48177082746289
 10
40.38478731629269
 20
23.48177082746289
 10
40.38478731629269
 20
23.48177082746289
 10
40.38478731629269
 20
26.49037271473157
 10
40.38478731629269
 20
26.49037271473157
 10
40.38478731629269
 20
26.49037271473157
 10
41.20334200358806
 20
26.49037271473157
 10
41.20334200358806
 20
26.49037271473157
 10
41.20334200358806
 20
26.49037271473157
 10
41.35027532603396
 20
26.93375650368323
 10
41.35027532603396
 20
26.93375650368323
 10
41.35027532603396
 20
26.93375650368323
 10
39.92280001172069
 20
26.93375650368323
 10
39.92280001172069
 20
26.93375650368323
 10
39.92280001172069
 20
26.93375650368323
 10
39.92280001172069
 20
27.30686034473579
 10
39.92280001172069
 20
27.30686034473579
 10
39.92280001172069
 20
27.30686034473579
 10
40.84660236609044
 20
27.30686034473579
 10
40.84660236609044
 20
27.30686034473579
 10
40.76254203625034
 20
27.43122829175331
 10
40.62938909574543
 20
27.59452581775415
 10
40.44766030889851
 20
27.79675292273831
 10
40.44766030889851
 20
27.79675292273831
 10
40.78355711871036
 20
28.0764946761406
 10
40.78355711871036
 20
28.0764946761406
 10
40.93738063212677
 20
27.93662379943946
 10
41.08431395457267
 20
27.76540255382254
 10
41.22435708604808
 20
27.5635199583869
 10
41.22435708604808
 20
27.5635199583869
 10
40.90947535869624
 20
27.30686034473579
 10
40.90947535869624
 20
27.30686034473579
 10
40.90947535869624
 20
27.30686034473579
 10
41.74921738322589
 20
27.30686034473579
 10
41.74921738322589
 20
27.30686034473579
 10
41.74921738322589
 20
27.30686034473579
 10
42.02206894565768
 20
28.0999213254403
 10
42.02206894565768
 20
28.0999213254403
 10
42.02206894565768
 20
28.0999213254403
 10
42.48388399545542
 20
28.00655923779003
 10
42.48388399545542
 20
28.00655923779003
 10
42.53969454231647
 20
27.94420300950701
 10
42.51867945985644
 20
27.90527343052368
 10
42.42083874807535
 20
27.88977050084006
 10
42.42083874807535
 20
27.88977050084006
 10
42.10595702072352
 20
27.30686034473579
 10
42.10595702072352
 20
27.30686034473579
 10
42.10595702072352
 20
27.30686034473579
 10
43.23956569014497
 20
27.30686034473579
 10
43.23956569014497
 20
27.30686034473579
 10
43.23956569014497
 20
27.30686034473579
 10
43.23956569014497
 20
26.93375650368323
 10
43.23956569014497
 20
26.93375650368323
 10
43.23956569014497
 20
26.93375650368323
 10
41.83310545829173
 20
26.93375650368323
 10
41.83310545829173
 20
26.93375650368323
 97
        0
 92
        1
 93
        4
 72
     1
 10
42.39999592038959
 20
26.11726887367902
 11
40.74152695379031
 21
26.11726887367902
 72
     1
 10
40.74152695379031
 20
26.11726887367902
 11
40.74152695379031
 21
25.69731173402706
 72
     1
 10
40.74152695379031
 20
25.69731173402706
 11
42.39999592038959
 21
25.69731173402706
 72
     1
 10
42.39999592038959
 20
25.69731173402706
 11
42.39999592038959
 21
26.11726887367902
 97
        0
 92
        1
 93
        4
 72
     1
 10
42.39999592038959
 20
25.32420789297451
 11
40.74152695379031
 21
25.32420789297451
 72
     1
 10
40.74152695379031
 20
25.32420789297451
 11
40.74152695379031
 21
24.92767740262225
 72
     1
 10
40.74152695379031
 20
24.92767740262225
 11
42.39999592038959
 21
24.92767740262225
 72
     1
 10
42.39999592038959
 20
24.92767740262225
 11
42.39999592038959
 21
25.32420789297451
 97
        0
 92
        1
 93
        4
 72
     1
 10
42.39999592038959
 20
24.55457356156969
 11
40.74152695379031
 21
24.55457356156969
 72
     1
 10
40.74152695379031
 20
24.55457356156969
 11
40.74152695379031
 21
24.11153428216656
 72
     1
 10
40.74152695379031
 20
24.11153428216656
 11
42.39999592038959
 21
24.11153428216656
 72
     1
 10
42.39999592038959
 20
24.11153428216656
 11
42.39999592038959
 21
24.55457356156969
 97
        0
 75
     2
 76
     1
 98
        0
  0
SPLINE
  5
CA
330
9F
100
AcDbEntity
  8
0
100
AcDbSpline
210
0.0
220
0.0
230
1.0
 70
    11
 71
     3
 72
    74
 73
    70
 74
     0
 42
0.0000000001
 43
0.0000000001
 40
0.0
 40
0.0
 40
0.0
 40
0.0
 40
1.0
 40
1.0
 40
1.0
 40
2.0
 40
2.0
 40
2.0
 40
3.0
 40
3.0
 40
3.0
 40
4.0
 40
4.0
 40
4.0
 40
5.0
 40
5.0
 40
5.0
 40
6.0
 40
6.0
 40
6.0
 40
7.0
 40
7.0
 40
7.0
 40
8.0
 40
8.0
 40
8.0
 40
9.0
 40
9.0
 40
9.0
 40
10.0
 40
10.0
 40
10.0
 40
11.0
 40
11.0
 40
11.0
 40
12.0
 40
12.0
 40
12.0
 40
13.0
 40
13.0
 40
13.0
 40
14.0
 40
14.0
 40
14.0
 40
15.0
 40
15.0
 40
15.0
 40
16.0
 40
16.0
 40
16.0
 40
17.0
 40
17.0
 40
17.0
 40
18.0
 40
18.0
 40
18.0
 40
19.0
 40
19.0
 40
19.0
 40
20.0
 40
20.0
 40
20.0
 40
21.0
 40
21.0
 40
21.0
 40
22.0
 40
22.0
 40
22.0
 40
23.0
 40
23.0
 40
23.0
 40
23.0
 10
45.8006496738797
 20
27.72681748438774
 30
0.0
 10
45.8006496738797
 20
27.72681748438774
 30
0.0
 10
45.8006496738797
 20
26.00048013672905
 30
0.0
 10
45.8006496738797
 20
26.00048013672905
 30
0.0
 10
45.8006496738797
 20
26.00048013672905
 30
0.0
 10
45.27578937670189
 20
26.00048013672905
 30
0.0
 10
45.27578937670189
 20
26.00048013672905
 30
0.0
 10
45.27578937670189
 20
26.00048013672905
 30
0.0
 10
45.27578937670189
 20
25.13748371767396
 30
0.0
 10
45.27578937670189
 20
25.13748371767396
 30
0.0
 10
45.27578937670189
 20
25.13748371767396
 30
0.0
 10
45.75861950895965
 20
25.13748371767396
 30
0.0
 10
45.75861950895965
 20
25.13748371767396
 30
0.0
 10
45.75861950895965
 20
25.13748371767396
 30
0.0
 10
45.75861950895965
 20
24.69444443827084
 30
0.0
 10
45.75861950895965
 20
24.69444443827084
 30
0.0
 10
45.75861950895965
 20
24.69444443827084
 30
0.0
 10
45.27578937670189
 20
24.69444443827084
 30
0.0
 10
45.27578937670189
 20
24.69444443827084
 30
0.0
 10
45.27578937670189
 20
24.69444443827084
 30
0.0
 10
45.27578937670189
 20
23.62164170416403
 30
0.0
 10
45.27578937670189
 20
23.62164170416403
 30
0.0
 10
45.27578937670189
 20
23.62164170416403
 30
0.0
 10
46.01045598893142
 20
23.87795680826662
 30
0.0
 10
46.01045598893142
 20
23.87795680826662
 30
0.0
 10
46.01045598893142
 20
23.87795680826662
 30
0.0
 10
46.09451631877151
 20
23.45834417816319
 30
0.0
 10
46.09451631877151
 20
23.45834417816319
 30
0.0
 10
46.09451631877151
 20
23.45834417816319
 30
0.0
 10
44.16319578974046
 20
22.85200737275922
 30
0.0
 10
44.16319578974046
 20
22.85200737275922
 30
0.0
 10
44.14907089825093
 20
22.7276394257417
 30
0.0
 10
44.11410317907564
 20
22.69663356637446
 30
0.0
 10
44.0582926322146
 20
22.75864528510895
 30
0.0
 10
44.0582926322146
 20
22.75864528510895
 30
0.0
 10
43.89034422730867
 20
23.27162000286265
 30
0.0
 10
43.89034422730867
 20
23.27162000286265
 30
0.0
 10
43.89034422730867
 20
23.27162000286265
 30
0.0
 10
44.14218070728043
 20
23.31847330146205
 30
0.0
 10
44.14218070728043
 20
23.31847330146205
 30
0.0
 10
44.14218070728043
 20
23.31847330146205
 30
0.0
 10
44.14218070728043
 20
25.48750541897535
 30
0.0
 10
44.14218070728043
 20
25.48750541897535
 30
0.0
 10
44.14218070728043
 20
25.48750541897535
 30
0.0
 10
44.54112276447236
 20
25.48750541897535
 30
0.0
 10
44.54112276447236
 20
25.48750541897535
 30
0.0
 10
44.65291611296872
 20
25.47200248929172
 30
0.0
 10
44.65980630393922
 20
25.42514919069232
 30
0.0
 10
44.56213784693239
 20
25.3476345422742
 30
0.0
 10
44.56213784693239
 20
25.3476345422742
 30
0.0
 10
44.56213784693239
 20
23.43491752886349
 30
0.0
 10
44.56213784693239
 20
23.43491752886349
 30
0.0
 10
44.56213784693239
 20
23.43491752886349
 30
0.0
 10
44.85600449182419
 20
23.50485296721407
 30
0.0
 10
44.85600449182419
 20
23.50485296721407
 30
0.0
 10
44.85600449182419
 20
23.50485296721407
 30
0.0
 10
44.85600449182419
 20
26.00048013672905
 30
0.0
 10
44.85600449182419
 20
26.00048013672905
 30
0.0
 10
44.85600449182419
 20
26.00048013672905
 30
0.0
 10
44.47807751709229
 20
26.00048013672905
 30
0.0
 10
44.47807751709229
 20
26.00048013672905
 30
0.0
 10
44.47807751709229
 20
26.00048013672905
 30
0.0
 10
44.12133787959467
 20
26.00048013672905
 30
0.0
 10
44.12133787959467
 20
26.00048013672905
 30
0.0
 10
44.12133787959467
 20
26.00048013672905
 30
0.0
 10
44.12133787959467
 20
27.72681748438774
 30
0.0
 10
44.12133787959467
 20
27.72681748438774
 30
0.0
 10
44.12133787959467
 20
27.72681748438774
 30
0.0
 10
45.8006496738797
 20
27.72681748438774
 30
0.0
 10
45.8006496738797
 20
27.72681748438774
 30
0.0
  0
POLYLINE
  5
CB
330
9F
100
AcDbEntity
  8
0
100
AcDb2dPolyline
 66
     1
 10
0.0
 20
0.0
 30
0.0
  0
VERTEX
  5
CC
330
CB
100
AcDbEntity
  8
0
100
AcDbVertex
100
AcDb2dVertex
 10
45.38086478900201
 20
26.37392848733013
 30
0.0
  0
VERTEX
  5
CD
330
CB
100
AcDbEntity
  8
0
100
AcDbVertex
100
AcDb2dVertex
 10
45.38086478900201
 20
27.35336913378666
 30
0.0
  0
VERTEX
  5
CE
330
CB
100
AcDbEntity
  8
0
100
AcDbVertex
100
AcDb2dVertex
 10
44.54112276447236
 20
27.35336913378666
 30
0.0
  0
VERTEX
  5
CF
330
CB
100
AcDbEntity
  8
0
100
AcDbVertex
100
AcDb2dVertex
 10
44.54112276447236
 20
26.37392848733013
 30
0.0
  0
VERTEX
  5
D0
330
CB
100
AcDbEntity
  8
0
100
AcDbVertex
100
AcDb2dVertex
 10
45.38086478900201
 20
26.37392848733013
 30
0.0
  0
SEQEND
  5
D1
330
CB
100
AcDbEntity
  8
0
  0
SPLINE
  5
D2
330
9F
100
AcDbEntity
  8
0
100
AcDbSpline
210
0.0
220
0.0
230
1.0
 70
    11
 71
     3
 72
    62
 73
    58
 74
     0
 42
0.0000000001
 43
0.0000000001
 40
0.0
 40
0.0
 40
0.0
 40
0.0
 40
1.0
 40
1.0
 40
1.0
 40
2.0
 40
2.0
 40
2.0
 40
3.0
 40
3.0
 40
3.0
 40
4.0
 40
4.0
 40
4.0
 40
5.0
 40
5.0
 40
5.0
 40
6.0
 40
6.0
 40
6.0
 40
7.0
 40
7.0
 40
7.0
 40
8.0
 40
8.0
 40
8.0
 40
9.0
 40
9.0
 40
9.0
 40
10.0
 40
10.0
 40
10.0
 40
11.0
 40
11.0
 40
11.0
 40
12.0
 40
12.0
 40
12.0
 40
13.0
 40
13.0
 40
13.0
 40
14.0
 40
14.0
 40
14.0
 40
15.0
 40
15.0
 40
15.0
 40
16.0
 40
16.0
 40
16.0
 40
17.0
 40
17.0
 40
17.0
 40
18.0
 40
18.0
 40
18.0
 40
19.0
 40
19.0
 40
19.0
 40
19.0
 10
47.33302814571883
 20
25.62737629567649
 30
0.0
 10
46.84296331294204
 20
25.12955999805789
 30
0.0
 10
46.38838296366333
 20
24.79538573598866
 30
0.0
 10
45.96859807878563
 20
24.62450899992026
 30
0.0
 10
45.96859807878563
 20
24.62450899992026
 30
0.0
 10
45.77963459141968
 20
25.09097492862309
 30
0.0
 10
45.77963459141968
 20
25.09097492862309
 30
0.0
 10
46.17116969331832
 20
25.23084580532423
 30
0.0
 10
46.5983615334893
 20
25.52609048841014
 30
0.0
 10
47.06017658328704
 20
25.97739799697787
 30
0.0
 10
46.94803872524216
 20
26.10142143444687
 30
0.0
 10
46.80093314802199
 20
26.32707518873073
 30
0.0
 10
46.61937661594933
 20
26.65367024073242
 30
0.0
 10
46.47916122969966
 20
26.29572481981496
 30
0.0
 10
46.33911809822425
 20
26.03940971571237
 30
0.0
 10
46.19941947629737
 20
25.8840359093276
 30
0.0
 10
46.19941947629737
 20
25.8840359093276
 30
0.0
 10
45.88453774894553
 20
26.23371310108046
 30
0.0
 10
45.88453774894553
 20
26.23371310108046
 30
0.0
 10
46.2204345587574
 20
26.73118488915054
 30
0.0
 10
46.47916122969966
 20
27.35336913378666
 30
0.0
 10
46.66123452609511
 20
28.0999213254403
 30
0.0
 10
46.66123452609511
 20
28.0999213254403
 30
0.0
 10
47.10203449343283
 20
27.96005044873916
 30
0.0
 10
47.10203449343283
 20
27.96005044873916
 30
0.0
 10
47.15784504029387
 20
27.89769422045613
 30
0.0
 10
47.13682995783385
 20
27.85842013192428
 30
0.0
 10
47.03916150082702
 20
27.84326171178919
 30
0.0
 10
47.03916150082702
 20
27.84326171178919
 30
0.0
 10
46.93425834330116
 20
27.5635199583869
 30
0.0
 10
46.93425834330116
 20
27.5635199583869
 30
0.0
 10
46.93425834330116
 20
27.5635199583869
 30
0.0
 10
48.00482176534255
 20
27.5635199583869
 30
0.0
 10
48.00482176534255
 20
27.5635199583869
 30
0.0
 10
48.00482176534255
 20
27.5635199583869
 30
0.0
 10
48.06769475794836
 20
27.67996418578834
 30
0.0
 10
48.06769475794836
 20
27.67996418578834
 30
0.0
 10
48.06769475794836
 20
27.67996418578834
 30
0.0
 10
48.40359156776022
 20
27.37679578308636
 30
0.0
 10
48.40359156776022
 20
27.37679578308636
 30
0.0
 10
48.45940211462126
 20
27.33028699403549
 30
0.0
 10
48.43149684119074
 20
27.28343369543609
 30
0.0
 10
48.31970349269438
 20
27.23692490638522
 30
0.0
 10
48.12350530480941
 20
26.73910860876661
 30
0.0
 10
47.89268390729767
 20
26.31915146911466
 30
0.0
 10
47.62689479061064
 20
25.97739799697787
 30
0.0
 10
48.10249022234938
 20
25.57294378700954
 30
0.0
 10
48.50866698006033
 20
25.30870496329088
 30
0.0
 10
48.84439153509793
 20
25.18433701627336
 30
0.0
 10
48.84439153509793
 20
25.18433701627336
 30
0.0
 10
48.67644313019201
 20
24.67101778897113
 30
0.0
 10
48.67644313019201
 20
24.67101778897113
 30
0.0
 10
48.3407185751544
 20
24.79538573598866
 30
0.0
 10
47.89268390729767
 20
25.11440157792279
 30
0.0
 10
47.33302814571883
 20
25.62737629567649
 30
0.0
 10
47.33302814571883
 20
25.62737629567649
 30
0.0
 10
47.33302814571883
 20
25.62737629567649
 30
0.0
 10
47.33302814571883
 20
25.62737629567649
 30
0.0
  0
POLYLINE
  5
D3
330
9F
100
AcDbEntity
  8
0
100
AcDb2dPolyline
 66
     1
 10
0.0
 20
0.0
 30
0.0
  0
VERTEX
  5
D4
330
D3
100
AcDbEntity
  8
0
100
AcDbVertex
100
AcDb2dVertex
 10
48.29868841023436
 20
22.78172742486013
 30
0.0
  0
VERTEX
  5
D5
330
D3
100
AcDbEntity
  8
0
100
AcDbVertex
100
AcDb2dVertex
 10
47.87890352535666
 20
22.78172742486013
 30
0.0
  0
VERTEX
  5
D6
330
D3
100
AcDbEntity
  8
0
100
AcDbVertex
100
AcDb2dVertex
 10
47.87890352535666
 20
23.03838703851124
 30
0.0
  0
VERTEX
  5
D7
330
D3
100
AcDbEntity
  8
0
100
AcDbVertex
100
AcDb2dVertex
 10
46.82918293100104
 20
23.03838703851124
 30
0.0
  0
VERTEX
  5
D8
330
D3
100
AcDbEntity
  8
0
100
AcDbVertex
100
AcDb2dVertex
 10
46.82918293100104
 20
22.71179198650955
 30
0.0
  0
VERTEX
  5
D9
330
D3
100
AcDbEntity
  8
0
100
AcDbVertex
100
AcDb2dVertex
 10
46.40939804612335
 20
22.71179198650955
 30
0.0
  0
VERTEX
  5
DA
330
D3
100
AcDbEntity
  8
0
100
AcDbVertex
100
AcDb2dVertex
 10
46.40939804612335
 20
24.83431531497198
 30
0.0
  0
VERTEX
  5
DB
330
D3
100
AcDbEntity
  8
0
100
AcDbVertex
100
AcDb2dVertex
 10
48.29868841023436
 20
24.83431531497198
 30
0.0
  0
VERTEX
  5
DC
330
D3
100
AcDbEntity
  8
0
100
AcDbVertex
100
AcDb2dVertex
 10
48.29868841023436
 20
22.78172742486013
 30
0.0
  0
SEQEND
  5
DD
330
D3
100
AcDbEntity
  8
0
  0
SPLINE
  5
DE
330
9F
100
AcDbEntity
  8
0
100
AcDbSpline
210
0.0
220
0.0
230
1.0
 70
    11
 71
     3
 72
    14
 73
    10
 74
     0
 42
0.0000000001
 43
0.0000000001
 40
0.0
 40
0.0
 40
0.0
 40
0.0
 40
1.0
 40
1.0
 40
1.0
 40
2.0
 40
2.0
 40
2.0
 40
3.0
 40
3.0
 40
3.0
 40
3.0
 10
46.80816784854102
 20
27.12013616943524
 30
0.0
 10
46.87810328689159
 20
26.90240613476746
 30
0.0
 10
47.05294188276802
 20
26.62231987181664
 30
0.0
 10
47.33302814571883
 20
26.28056639967986
 30
0.0
 10
47.58486462569059
 20
26.65367024073242
 30
0.0
 10
47.7455783300775
 20
26.93375650368323
 30
0.0
 10
47.8158582779766
 20
27.12013616943524
 30
0.0
 10
47.8158582779766
 20
27.12013616943524
 30
0.0
 10
46.80816784854102
 20
27.12013616943524
 30
0.0
 10
46.80816784854102
 20
27.12013616943524
 30
0.0
  0
POLYLINE
  5
DF
330
9F
100
AcDbEntity
  8
0
100
AcDb2dPolyline
 66
     1
 10
0.0
 20
0.0
 30
0.0
  0
VERTEX
  5
E0
330
DF
100
AcDbEntity
  8
0
100
AcDbVertex
100
AcDb2dVertex
 10
47.87890352535666
 20
23.4114908795638
 30
0.0
  0
VERTEX
  5
E1
330
DF
100
AcDbEntity
  8
0
100
AcDbVertex
100
AcDb2dVertex
 10
47.87890352535666
 20
24.46121147391942
 30
0.0
  0
VERTEX
  5
E2
330
DF
100
AcDbEntity
  8
0
100
AcDbVertex
100
AcDb2dVertex
 10
46.82918293100104
 20
24.46121147391942
 30
0.0
  0
VERTEX
  5
E3
330
DF
100
AcDbEntity
  8
0
100
AcDbVertex
100
AcDb2dVertex
 10
46.82918293100104
 20
23.4114908795638
 30
0.0
  0
VERTEX
  5
E4
330
DF
100
AcDbEntity
  8
0
100
AcDbVertex
100
AcDb2dVertex
 10
47.87890352535666
 20
23.4114908795638
 30
0.0
  0
SEQEND
  5
E5
330
DF
100
AcDbEntity
  8
0
  0
HATCH
  5
E6
330
9F
100
AcDbEntity
  8
0
 62
    18
100
AcDbHatch
 10
0.0
 20
0.0
 30
0.0
210
0.0
220
0.0
230
1.0
  2
SOLID
 70
     1
 71
     0
 91
        6
 92
        1
 93
        1
 72
     4
 94
        3
 73
     0
 74
     1
 95
       74
 96
       70
 40
0.0
 40
0.0
 40
0.0
 40
0.0
 40
1.0
 40
1.0
 40
1.0
 40
2.0
 40
2.0
 40
2.0
 40
3.0
 40
3.0
 40
3.0
 40
4.0
 40
4.0
 40
4.0
 40
5.0
 40
5.0
 40
5.0
 40
6.0
 40
6.0
 40
6.0
 40
7.0
 40
7.0
 40
7.0
 40
8.0
 40
8.0
 40
8.0
 40
9.0
 40
9.0
 40
9.0
 40
10.0
 40
10.0
 40
10.0
 40
11.0
 40
11.0
 40
11.0
 40
12.0
 40
12.0
 40
12.0
 40
13.0
 40
13.0
 40
13.0
 40
14.0
 40
14.0
 40
14.0
 40
15.0
 40
15.0
 40
15.0
 40
16.0
 40
16.0
 40
16.0
 40
17.0
 40
17.0
 40
17.0
 40
18.0
 40
18.0
 40
18.0
 40
19.0
 40
19.0
 40
19.0
 40
20.0
 40
20.0
 40
20.0
 40
21.0
 40
21.0
 40
21.0
 40
22.0
 40
22.0
 40
22.0
 40
23.0
 40
23.0
 40
23.0
 40
23.0
 10
45.8006496738797
 20
27.72681748438774
 10
45.8006496738797
 20
27.72681748438774
 10
45.8006496738797
 20
26.00048013672905
 10
45.8006496738797
 20
26.00048013672905
 10
45.8006496738797
 20
26.00048013672905
 10
45.27578937670189
 20
26.00048013672905
 10
45.27578937670189
 20
26.00048013672905
 10
45.27578937670189
 20
26.00048013672905
 10
45.27578937670189
 20
25.13748371767396
 10
45.27578937670189
 20
25.13748371767396
 10
45.27578937670189
 20
25.13748371767396
 10
45.75861950895965
 20
25.13748371767396
 10
45.75861950895965
 20
25.13748371767396
 10
45.75861950895965
 20
25.13748371767396
 10
45.75861950895965
 20
24.69444443827084
 10
45.75861950895965
 20
24.69444443827084
 10
45.75861950895965
 20
24.69444443827084
 10
45.27578937670189
 20
24.69444443827084
 10
45.27578937670189
 20
24.69444443827084
 10
45.27578937670189
 20
24.69444443827084
 10
45.27578937670189
 20
23.62164170416403
 10
45.27578937670189
 20
23.62164170416403
 10
45.27578937670189
 20
23.62164170416403
 10
46.01045598893142
 20
23.87795680826662
 10
46.01045598893142
 20
23.87795680826662
 10
46.01045598893142
 20
23.87795680826662
 10
46.09451631877151
 20
23.45834417816319
 10
46.09451631877151
 20
23.45834417816319
 10
46.09451631877151
 20
23.45834417816319
 10
44.16319578974046
 20
22.85200737275922
 10
44.16319578974046
 20
22.85200737275922
 10
44.14907089825093
 20
22.7276394257417
 10
44.11410317907564
 20
22.69663356637446
 10
44.0582926322146
 20
22.75864528510895
 10
44.0582926322146
 20
22.75864528510895
 10
43.89034422730867
 20
23.27162000286265
 10
43.89034422730867
 20
23.27162000286265
 10
43.89034422730867
 20
23.27162000286265
 10
44.14218070728043
 20
23.31847330146205
 10
44.14218070728043
 20
23.31847330146205
 10
44.14218070728043
 20
23.31847330146205
 10
44.14218070728043
 20
25.48750541897535
 10
44.14218070728043
 20
25.48750541897535
 10
44.14218070728043
 20
25.48750541897535
 10
44.54112276447236
 20
25.48750541897535
 10
44.54112276447236
 20
25.48750541897535
 10
44.65291611296872
 20
25.47200248929172
 10
44.65980630393922
 20
25.42514919069232
 10
44.56213784693239
 20
25.3476345422742
 10
44.56213784693239
 20
25.3476345422742
 10
44.56213784693239
 20
23.43491752886349
 10
44.56213784693239
 20
23.43491752886349
 10
44.56213784693239
 20
23.43491752886349
 10
44.85600449182419
 20
23.50485296721407
 10
44.85600449182419
 20
23.50485296721407
 10
44.85600449182419
 20
23.50485296721407
 10
44.85600449182419
 20
26.00048013672905
 10
44.85600449182419
 20
26.00048013672905
 10
44.85600449182419
 20
26.00048013672905
 10
44.47807751709229
 20
26.00048013672905
 10
44.47807751709229
 20
26.00048013672905
 10
44.47807751709229
 20
26.00048013672905
 10
44.12133787959467
 20
26.00048013672905
 10
44.12133787959467
 20
26.00048013672905
 10
44.12133787959467
 20
26.00048013672905
 10
44.12133787959467
 20
27.72681748438774
 10
44.12133787959467
 20
27.72681748438774
 10
44.12133787959467
 20
27.72681748438774
 10
45.8006496738797
 20
27.72681748438774
 10
45.8006496738797
 20
27.72681748438774
 97
        0
 92
        1
 93
        4
 72
     1
 10
45.38086478900201
 20
26.37392848733013
 11
45.38086478900201
 21
27.35336913378666
 72
     1
 10
45.38086478900201
 20
27.35336913378666
 11
44.54112276447236
 21
27.35336913378666
 72
     1
 10
44.54112276447236
 20
27.35336913378666
 11
44.54112276447236
 21
26.37392848733013
 72
     1
 10
44.54112276447236
 20
26.37392848733013
 11
45.38086478900201
 21
26.37392848733013
 97
        0
 92
        1
 93
        1
 72
     4
 94
        3
 73
     0
 74
     1
 95
       62
 96
       58
 40
0.0
 40
0.0
 40
0.0
 40
0.0
 40
1.0
 40
1.0
 40
1.0
 40
2.0
 40
2.0
 40
2.0
 40
3.0
 40
3.0
 40
3.0
 40
4.0
 40
4.0
 40
4.0
 40
5.0
 40
5.0
 40
5.0
 40
6.0
 40
6.0
 40
6.0
 40
7.0
 40
7.0
 40
7.0
 40
8.0
 40
8.0
 40
8.0
 40
9.0
 40
9.0
 40
9.0
 40
10.0
 40
10.0
 40
10.0
 40
11.0
 40
11.0
 40
11.0
 40
12.0
 40
12.0
 40
12.0
 40
13.0
 40
13.0
 40
13.0
 40
14.0
 40
14.0
 40
14.0
 40
15.0
 40
15.0
 40
15.0
 40
16.0
 40
16.0
 40
16.0
 40
17.0
 40
17.0
 40
17.0
 40
18.0
 40
18.0
 40
18.0
 40
19.0
 40
19.0
 40
19.0
 40
19.0
 10
47.33302814571883
 20
25.62737629567649
 10
46.84296331294204
 20
25.12955999805789
 10
46.38838296366333
 20
24.79538573598866
 10
45.96859807878563
 20
24.62450899992026
 10
45.96859807878563
 20
24.62450899992026
 10
45.77963459141968
 20
25.09097492862309
 10
45.77963459141968
 20
25.09097492862309
 10
46.17116969331832
 20
25.23084580532423
 10
46.5983615334893
 20
25.52609048841014
 10
47.06017658328704
 20
25.97739799697787
 10
46.94803872524216
 20
26.10142143444687
 10
46.80093314802199
 20
26.32707518873073
 10
46.61937661594933
 20
26.65367024073242
 10
46.47916122969966
 20
26.29572481981496
 10
46.33911809822425
 20
26.03940971571237
 10
46.19941947629737
 20
25.8840359093276
 10
46.19941947629737
 20
25.8840359093276
 10
45.88453774894553
 20
26.23371310108046
 10
45.88453774894553
 20
26.23371310108046
 10
46.2204345587574
 20
26.73118488915054
 10
46.47916122969966
 20
27.35336913378666
 10
46.66123452609511
 20
28.0999213254403
 10
46.66123452609511
 20
28.0999213254403
 10
47.10203449343283
 20
27.96005044873916
 10
47.10203449343283
 20
27.96005044873916
 10
47.15784504029387
 20
27.89769422045613
 10
47.13682995783385
 20
27.85842013192428
 10
47.03916150082702
 20
27.84326171178919
 10
47.03916150082702
 20
27.84326171178919
 10
46.93425834330116
 20
27.5635199583869
 10
46.93425834330116
 20
27.5635199583869
 10
46.93425834330116
 20
27.5635199583869
 10
48.00482176534255
 20
27.5635199583869
 10
48.00482176534255
 20
27.5635199583869
 10
48.00482176534255
 20
27.5635199583869
 10
48.06769475794836
 20
27.67996418578834
 10
48.06769475794836
 20
27.67996418578834
 10
48.06769475794836
 20
27.67996418578834
 10
48.40359156776022
 20
27.37679578308636
 10
48.40359156776022
 20
27.37679578308636
 10
48.45940211462126
 20
27.33028699403549
 10
48.43149684119074
 20
27.28343369543609
 10
48.31970349269438
 20
27.23692490638522
 10
48.12350530480941
 20
26.73910860876661
 10
47.89268390729767
 20
26.31915146911466
 10
47.62689479061064
 20
25.97739799697787
 10
48.10249022234938
 20
25.57294378700954
 10
48.50866698006033
 20
25.30870496329088
 10
48.84439153509793
 20
25.18433701627336
 10
48.84439153509793
 20
25.18433701627336
 10
48.67644313019201
 20
24.67101778897113
 10
48.67644313019201
 20
24.67101778897113
 10
48.3407185751544
 20
24.79538573598866
 10
47.89268390729767
 20
25.11440157792279
 10
47.33302814571883
 20
25.62737629567649
 10
47.33302814571883
 20
25.62737629567649
 10
47.33302814571883
 20
25.62737629567649
 10
47.33302814571883
 20
25.62737629567649
 97
        0
 92
        1
 93
        8
 72
     1
 10
48.29868841023436
 20
22.78172742486013
 11
47.87890352535666
 21
22.78172742486013
 72
     1
 10
47.87890352535666
 20
22.78172742486013
 11
47.87890352535666
 21
23.03838703851124
 72
     1
 10
47.87890352535666
 20
23.03838703851124
 11
46.82918293100104
 21
23.03838703851124
 72
     1
 10
46.82918293100104
 20
23.03838703851124
 11
46.82918293100104
 21
22.71179198650955
 72
     1
 10
46.82918293100104
 20
22.71179198650955
 11
46.40939804612335
 21
22.71179198650955
 72
     1
 10
46.40939804612335
 20
22.71179198650955
 11
46.40939804612335
 21
24.83431531497198
 72
     1
 10
46.40939804612335
 20
24.83431531497198
 11
48.29868841023436
 21
24.83431531497198
 72
     1
 10
48.29868841023436
 20
24.83431531497198
 11
48.29868841023436
 21
22.78172742486013
 97
        0
 92
        1
 93
        1
 72
     4
 94
        3
 73
     0
 74
     1
 95
       14
 96
       10
 40
0.0
 40
0.0
 40
0.0
 40
0.0
 40
1.0
 40
1.0
 40
1.0
 40
2.0
 40
2.0
 40
2.0
 40
3.0
 40
3.0
 40
3.0
 40
3.0
 10
46.80816784854102
 20
27.12013616943524
 10
46.87810328689159
 20
26.90240613476746
 10
47.05294188276802
 20
26.62231987181664
 10
47.33302814571883
 20
26.28056639967986
 10
47.58486462569059
 20
26.65367024073242
 10
47.7455783300775
 20
26.93375650368323
 10
47.8158582779766
 20
27.12013616943524
 10
47.8158582779766
 20
27.12013616943524
 10
46.80816784854102
 20
27.12013616943524
 10
46.80816784854102
 20
27.12013616943524
 97
        0
 92
        1
 93
        4
 72
     1
 10
47.87890352535666
 20
23.4114908795638
 11
47.87890352535666
 21
24.46121147391942
 72
     1
 10
47.87890352535666
 20
24.46121147391942
 11
46.82918293100104
 21
24.46121147391942
 72
     1
 10
46.82918293100104
 20
24.46121147391942
 11
46.82918293100104
 21
23.4114908795638
 72
     1
 10
46.82918293100104
 20
23.4114908795638
 11
47.87890352535666
 21
23.4114908795638
 97
        0
 75
     2
 76
     1
 98
        0
  0
SPLINE
  5
E7
330
9F
100
AcDbEntity
  8
0
100
AcDbSpline
210
0.0
220
0.0
230
1.0
 70
    11
 71
     3
 72
    29
 73
    25
 74
     0
 42
0.0000000001
 43
0.0000000001
 40
0.0
 40
0.0
 40
0.0
 40
0.0
 40
1.0
 40
1.0
 40
1.0
 40
2.0
 40
2.0
 40
2.0
 40
3.0
 40
3.0
 40
3.0
 40
4.0
 40
4.0
 40
4.0
 40
5.0
 40
5.0
 40
5.0
 40
6.0
 40
6.0
 40
6.0
 40
7.0
 40
7.0
 40
7.0
 40
8.0
 40
8.0
 40
8.0
 40
8.0
 10
49.24333359228986
 20
25.97739799697787
 30
0.0
 10
50.29288193187123
 20
26.36566025816553
 30
0.0
 10
51.04132892604175
 20
27.0188503621689
 30
0.0
 10
51.4893635938985
 20
27.93662379943946
 30
0.0
 10
51.4893635938985
 20
27.93662379943946
 30
0.0
 10
51.93033581601048
 20
27.86668836108888
 30
0.0
 10
51.93033581601048
 20
27.86668836108888
 30
0.0
 10
51.98597410809726
 20
27.81983506248949
 30
0.0
 10
51.96495902563723
 20
27.76540255382254
 30
0.0
 10
51.8672905686304
 20
27.70339083508804
 30
0.0
 10
52.34288600036914
 20
26.98784450280165
 30
0.0
 10
53.07066242162817
 20
26.45144313574825
 30
0.0
 10
54.05044757763322
 20
26.09384222437932
 30
0.0
 10
54.05044757763322
 20
26.09384222437932
 30
0.0
 10
53.88249917272729
 20
25.51093206827505
 30
0.0
 10
53.88249917272729
 20
25.51093206827505
 30
0.0
 10
52.91683890821177
 20
25.8991943294627
 30
0.0
 10
52.16115721352222
 20
26.49037271473157
 30
0.0
 10
51.61545408865864
 20
27.28343369543609
 30
0.0
 10
51.12538925588185
 20
26.4438639256807
 30
0.0
 10
50.41156547133809
 20
25.82925889111213
 30
0.0
 10
49.4741549898016
 20
25.44099662992447
 30
0.0
 10
49.4741549898016
 20
25.44099662992447
 30
0.0
 10
49.24333359228986
 20
25.97739799697787
 30
0.0
 10
49.24333359228986
 20
25.97739799697787
 30
0.0
  0
SPLINE
  5
E8
330
9F
100
AcDbEntity
  8
0
100
AcDbSpline
210
0.0
220
0.0
230
1.0
 70
    11
 71
     3
 72
    59
 73
    55
 74
     0
 42
0.0000000001
 43
0.0000000001
 40
0.0
 40
0.0
 40
0.0
 40
0.0
 40
1.0
 40
1.0
 40
1.0
 40
2.0
 40
2.0
 40
2.0
 40
3.0
 40
3.0
 40
3.0
 40
4.0
 40
4.0
 40
4.0
 40
5.0
 40
5.0
 40
5.0
 40
6.0
 40
6.0
 40
6.0
 40
7.0
 40
7.0
 40
7.0
 40
8.0
 40
8.0
 40
8.0
 40
9.0
 40
9.0
 40
9.0
 40
10.0
 40
10.0
 40
10.0
 40
11.0
 40
11.0
 40
11.0
 40
12.0
 40
12.0
 40
12.0
 40
13.0
 40
13.0
 40
13.0
 40
14.0
 40
14.0
 40
14.0
 40
15.0
 40
15.0
 40
15.0
 40
16.0
 40
16.0
 40
16.0
 40
17.0
 40
17.0
 40
17.0
 40
18.0
 40
18.0
 40
18.0
 40
18.0
 10
50.25085176695118
 20
25.51093206827505
 30
0.0
 10
50.25085176695118
 20
25.51093206827505
 30
0.0
 10
50.71266681674892
 20
25.51093206827505
 30
0.0
 10
50.71266681674892
 20
25.51093206827505
 30
0.0
 10
50.85253769345006
 20
25.4950846290429
 30
0.0
 10
50.85960013919482
 20
25.44857583999202
 30
0.0
 10
50.73368189920895
 20
25.37071668202538
 30
0.0
 10
50.73368189920895
 20
25.37071668202538
 30
0.0
 10
50.73368189920895
 20
23.31847330146205
 30
0.0
 10
50.73368189920895
 20
23.31847330146205
 30
0.0
 10
50.73368189920895
 20
23.31847330146205
 30
0.0
 10
51.4893635938985
 20
23.31847330146205
 30
0.0
 10
51.4893635938985
 20
23.31847330146205
 30
0.0
 10
51.4893635938985
 20
23.31847330146205
 30
0.0
 10
51.4893635938985
 20
26.28056639967986
 30
0.0
 10
51.4893635938985
 20
26.28056639967986
 30
0.0
 10
51.4893635938985
 20
26.28056639967986
 30
0.0
 10
51.95117864369624
 20
26.28056639967986
 30
0.0
 10
51.95117864369624
 20
26.28056639967986
 30
0.0
 10
52.09104952039738
 20
26.26471896044771
 30
0.0
 10
52.09811196614214
 20
26.21821017139684
 30
0.0
 10
51.97219372615626
 20
26.14069552297872
 30
0.0
 10
51.97219372615626
 20
26.14069552297872
 30
0.0
 10
51.97219372615626
 20
25.13748371767396
 30
0.0
 10
51.97219372615626
 20
25.13748371767396
 30
0.0
 10
51.97219372615626
 20
25.13748371767396
 30
0.0
 10
53.25273571802362
 20
25.13748371767396
 30
0.0
 10
53.25273571802362
 20
25.13748371767396
 30
0.0
 10
53.25273571802362
 20
25.13748371767396
 30
0.0
 10
53.25273571802362
 20
24.69444443827084
 30
0.0
 10
53.25273571802362
 20
24.69444443827084
 30
0.0
 10
53.25273571802362
 20
24.69444443827084
 30
0.0
 10
51.97219372615626
 20
24.69444443827084
 30
0.0
 10
51.97219372615626
 20
24.69444443827084
 30
0.0
 10
51.97219372615626
 20
24.69444443827084
 30
0.0
 10
51.97219372615626
 20
23.31847330146205
 30
0.0
 10
51.97219372615626
 20
23.31847330146205
 30
0.0
 10
51.97219372615626
 20
23.31847330146205
 30
0.0
 10
53.94554442010737
 20
23.31847330146205
 30
0.0
 10
53.94554442010737
 20
23.31847330146205
 30
0.0
 10
53.94554442010737
 20
23.31847330146205
 30
0.0
 10
53.94554442010737
 20
22.8750895125104
 30
0.0
 10
53.94554442010737
 20
22.8750895125104
 30
0.0
 10
53.94554442010737
 20
22.8750895125104
 30
0.0
 10
49.39026691473577
 20
22.8750895125104
 30
0.0
 10
49.39026691473577
 20
22.8750895125104
 30
0.0
 10
49.39026691473577
 20
22.8750895125104
 30
0.0
 10
49.39026691473577
 20
23.31847330146205
 30
0.0
 10
49.39026691473577
 20
23.31847330146205
 30
0.0
 10
49.39026691473577
 20
23.31847330146205
 30
0.0
 10
50.25085176695118
 20
23.31847330146205
 30
0.0
 10
50.25085176695118
 20
23.31847330146205
 30
0.0
 10
50.25085176695118
 20
23.31847330146205
 30
0.0
 10
50.25085176695118
 20
25.51093206827505
 30
0.0
 10
50.25085176695118
 20
25.51093206827505
 30
0.0
  0
HATCH
  5
E9
330
9F
100
AcDbEntity
  8
0
 62
    18
100
AcDbHatch
 10
0.0
 20
0.0
 30
0.0
210
0.0
220
0.0
230
1.0
  2
SOLID
 70
     1
 71
     0
 91
        2
 92
        1
 93
        1
 72
     4
 94
        3
 73
     0
 74
     1
 95
       29
 96
       25
 40
0.0
 40
0.0
 40
0.0
 40
0.0
 40
1.0
 40
1.0
 40
1.0
 40
2.0
 40
2.0
 40
2.0
 40
3.0
 40
3.0
 40
3.0
 40
4.0
 40
4.0
 40
4.0
 40
5.0
 40
5.0
 40
5.0
 40
6.0
 40
6.0
 40
6.0
 40
7.0
 40
7.0
 40
7.0
 40
8.0
 40
8.0
 40
8.0
 40
8.0
 10
49.24333359228986
 20
25.97739799697787
 10
50.29288193187123
 20
26.36566025816553
 10
51.04132892604175
 20
27.0188503621689
 10
51.4893635938985
 20
27.93662379943946
 10
51.4893635938985
 20
27.93662379943946
 10
51.93033581601048
 20
27.86668836108888
 10
51.93033581601048
 20
27.86668836108888
 10
51.98597410809726
 20
27.81983506248949
 10
51.96495902563723
 20
27.76540255382254
 10
51.8672905686304
 20
27.70339083508804
 10
52.34288600036914
 20
26.98784450280165
 10
53.07066242162817
 20
26.45144313574825
 10
54.05044757763322
 20
26.09384222437932
 10
54.05044757763322
 20
26.09384222437932
 10
53.88249917272729
 20
25.51093206827505
 10
53.88249917272729
 20
25.51093206827505
 10
52.91683890821177
 20
25.8991943294627
 10
52.16115721352222
 20
26.49037271473157
 10
51.61545408865864
 20
27.28343369543609
 10
51.12538925588185
 20
26.4438639256807
 10
50.41156547133809
 20
25.82925889111213
 10
49.4741549898016
 20
25.44099662992447
 10
49.4741549898016
 20
25.44099662992447
 10
49.24333359228986
 20
25.97739799697787
 10
49.24333359228986
 20
25.97739799697787
 97
        0
 92
        1
 93
        1
 72
     4
 94
        3
 73
     0
 74
     1
 95
       59
 96
       55
 40
0.0
 40
0.0
 40
0.0
 40
0.0
 40
1.0
 40
1.0
 40
1.0
 40
2.0
 40
2.0
 40
2.0
 40
3.0
 40
3.0
 40
3.0
 40
4.0
 40
4.0
 40
4.0
 40
5.0
 40
5.0
 40
5.0
 40
6.0
 40
6.0
 40
6.0
 40
7.0
 40
7.0
 40
7.0
 40
8.0
 40
8.0
 40
8.0
 40
9.0
 40
9.0
 40
9.0
 40
10.0
 40
10.0
 40
10.0
 40
11.0
 40
11.0
 40
11.0
 40
12.0
 40
12.0
 40
12.0
 40
13.0
 40
13.0
 40
13.0
 40
14.0
 40
14.0
 40
14.0
 40
15.0
 40
15.0
 40
15.0
 40
16.0
 40
16.0
 40
16.0
 40
17.0
 40
17.0
 40
17.0
 40
18.0
 40
18.0
 40
18.0
 40
18.0
 10
50.25085176695118
 20
25.51093206827505
 10
50.25085176695118
 20
25.51093206827505
 10
50.71266681674892
 20
25.51093206827505
 10
50.71266681674892
 20
25.51093206827505
 10
50.85253769345006
 20
25.4950846290429
 10
50.85960013919482
 20
25.44857583999202
 10
50.73368189920895
 20
25.37071668202538
 10
50.73368189920895
 20
25.37071668202538
 10
50.73368189920895
 20
23.31847330146205
 10
50.73368189920895
 20
23.31847330146205
 10
50.73368189920895
 20
23.31847330146205
 10
51.4893635938985
 20
23.31847330146205
 10
51.4893635938985
 20
23.31847330146205
 10
51.4893635938985
 20
23.31847330146205
 10
51.4893635938985
 20
26.28056639967986
 10
51.4893635938985
 20
26.28056639967986
 10
51.4893635938985
 20
26.28056639967986
 10
51.95117864369624
 20
26.28056639967986
 10
51.95117864369624
 20
26.28056639967986
 10
52.09104952039738
 20
26.26471896044771
 10
52.09811196614214
 20
26.21821017139684
 10
51.97219372615626
 20
26.14069552297872
 10
51.97219372615626
 20
26.14069552297872
 10
51.97219372615626
 20
25.13748371767396
 10
51.97219372615626
 20
25.13748371767396
 10
51.97219372615626
 20
25.13748371767396
 10
53.25273571802362
 20
25.13748371767396
 10
53.25273571802362
 20
25.13748371767396
 10
53.25273571802362
 20
25.13748371767396
 10
53.25273571802362
 20
24.69444443827084
 10
53.25273571802362
 20
24.69444443827084
 10
53.25273571802362
 20
24.69444443827084
 10
51.97219372615626
 20
24.69444443827084
 10
51.97219372615626
 20
24.69444443827084
 10
51.97219372615626
 20
24.69444443827084
 10
51.97219372615626
 20
23.31847330146205
 10
51.97219372615626
 20
23.31847330146205
 10
51.97219372615626
 20
23.31847330146205
 10
53.94554442010737
 20
23.31847330146205
 10
53.94554442010737
 20
23.31847330146205
 10
53.94554442010737
 20
23.31847330146205
 10
53.94554442010737
 20
22.8750895125104
 10
53.94554442010737
 20
22.8750895125104
 10
53.94554442010737
 20
22.8750895125104
 10
49.39026691473577
 20
22.8750895125104
 10
49.39026691473577
 20
22.8750895125104
 10
49.39026691473577
 20
22.8750895125104
 10
49.39026691473577
 20
23.31847330146205
 10
49.39026691473577
 20
23.31847330146205
 10
49.39026691473577
 20
23.31847330146205
 10
50.25085176695118
 20
23.31847330146205
 10
50.25085176695118
 20
23.31847330146205
 10
50.25085176695118
 20
23.31847330146205
 10
50.25085176695118
 20
25.51093206827505
 10
50.25085176695118
 20
25.51093206827505
 97
        0
 75
     2
 76
     1
 98
        0
  0
POLYLINE
  5
EA
330
9F
100
AcDbEntity
  8
0
100
AcDb2dPolyline
 66
     1
 10
0.0
 20
0.0
 30
0.0
  0
VERTEX
  5
EB
330
EA
100
AcDbEntity
  8
0
100
AcDbVertex
100
AcDb2dVertex
 10
59.38242186015439
 20
27.26000704613639
 30
0.0
  0
VERTEX
  5
EC
330
EA
100
AcDbEntity
  8
0
100
AcDbVertex
100
AcDb2dVertex
 10
57.19926485115158
 20
27.26000704613639
 30
0.0
  0
VERTEX
  5
ED
330
EA
100
AcDbEntity
  8
0
100
AcDbVertex
100
AcDb2dVertex
 10
57.19926485115158
 20
26.56030815308215
 30
0.0
  0
VERTEX
  5
EE
330
EA
100
AcDbEntity
  8
0
100
AcDbVertex
100
AcDb2dVertex
 10
58.20678302581289
 20
26.56030815308215
 30
0.0
  0
VERTEX
  5
EF
330
EA
100
AcDbEntity
  8
0
100
AcDbVertex
100
AcDb2dVertex
 10
58.20678302581289
 20
24.01817219451629
 30
0.0
  0
VERTEX
  5
F0
330
EA
100
AcDbEntity
  8
0
100
AcDbVertex
100
AcDb2dVertex
 10
55.83483478421838
 20
24.01817219451629
 30
0.0
  0
VERTEX
  5
F1
330
EA
100
AcDbEntity
  8
0
100
AcDbVertex
100
AcDb2dVertex
 10
55.83483478421838
 20
26.56030815308215
 30
0.0
  0
VERTEX
  5
F2
330
EA
100
AcDbEntity
  8
0
100
AcDbVertex
100
AcDb2dVertex
 10
56.84235295887969
 20
26.56030815308215
 30
0.0
  0
VERTEX
  5
F3
330
EA
100
AcDbEntity
  8
0
100
AcDbVertex
100
AcDb2dVertex
 10
56.84235295887969
 20
27.26000704613639
 30
0.0
  0
VERTEX
  5
F4
330
EA
100
AcDbEntity
  8
0
100
AcDbVertex
100
AcDb2dVertex
 10
54.70122611479692
 20
27.26000704613639
 30
0.0
  0
VERTEX
  5
F5
330
EA
100
AcDbEntity
  8
0
100
AcDbVertex
100
AcDb2dVertex
 10
54.70122611479692
 20
27.70339083508804
 30
0.0
  0
VERTEX
  5
F6
330
EA
100
AcDbEntity
  8
0
100
AcDbVertex
100
AcDb2dVertex
 10
59.38242186015439
 20
27.70339083508804
 30
0.0
  0
VERTEX
  5
F7
330
EA
100
AcDbEntity
  8
0
100
AcDbVertex
100
AcDb2dVertex
 10
59.38242186015439
 20
27.26000704613639
 30
0.0
  0
SEQEND
  5
F8
330
EA
100
AcDbEntity
  8
0
  0
SPLINE
  5
F9
330
9F
100
AcDbEntity
  8
0
100
AcDbSpline
210
0.0
220
0.0
230
1.0
 70
    11
 71
     3
 72
    47
 73
    43
 74
     0
 42
0.0000000001
 43
0.0000000001
 40
0.0
 40
0.0
 40
0.0
 40
0.0
 40
1.0
 40
1.0
 40
1.0
 40
2.0
 40
2.0
 40
2.0
 40
3.0
 40
3.0
 40
3.0
 40
4.0
 40
4.0
 40
4.0
 40
5.0
 40
5.0
 40
5.0
 40
6.0
 40
6.0
 40
6.0
 40
7.0
 40
7.0
 40
7.0
 40
8.0
 40
8.0
 40
8.0
 40
9.0
 40
9.0
 40
9.0
 40
10.0
 40
10.0
 40
10.0
 40
11.0
 40
11.0
 40
11.0
 40
12.0
 40
12.0
 40
12.0
 40
13.0
 40
13.0
 40
13.0
 40
14.0
 40
14.0
 40
14.0
 40
14.0
 10
58.71062824053068
 20
23.50485296721407
 30
0.0
 10
58.71062824053068
 20
23.50485296721407
 30
0.0
 10
58.71062824053068
 20
26.74703232838269
 30
0.0
 10
58.71062824053068
 20
26.74703232838269
 30
0.0
 10
58.71062824053068
 20
26.74703232838269
 30
0.0
 10
59.10957029772261
 20
26.74703232838269
 30
0.0
 10
59.10957029772261
 20
26.74703232838269
 30
0.0
 10
59.22136364621897
 20
26.73118488915054
 30
0.0
 10
59.22825383718947
 20
26.68467610009967
 30
0.0
 10
59.13058538018264
 20
26.60716145168155
 30
0.0
 10
59.13058538018264
 20
26.60716145168155
 30
0.0
 10
59.13058538018264
 20
22.78172742486013
 30
0.0
 10
59.13058538018264
 20
22.78172742486013
 30
0.0
 10
59.13058538018264
 20
22.78172742486013
 30
0.0
 10
58.71062824053068
 20
22.78172742486013
 30
0.0
 10
58.71062824053068
 20
22.78172742486013
 30
0.0
 10
58.71062824053068
 20
22.78172742486013
 30
0.0
 10
58.71062824053068
 20
23.06181368781094
 30
0.0
 10
58.71062824053068
 20
23.06181368781094
 30
0.0
 10
58.71062824053068
 20
23.06181368781094
 30
0.0
 10
55.33098956950059
 20
23.06181368781094
 30
0.0
 10
55.33098956950059
 20
23.06181368781094
 30
0.0
 10
55.33098956950059
 20
23.06181368781094
 30
0.0
 10
55.33098956950059
 20
22.75864528510895
 30
0.0
 10
55.33098956950059
 20
22.75864528510895
 30
0.0
 10
55.33098956950059
 20
22.75864528510895
 30
0.0
 10
54.91103242984863
 20
22.75864528510895
 30
0.0
 10
54.91103242984863
 20
22.75864528510895
 30
0.0
 10
54.91103242984863
 20
22.75864528510895
 30
0.0
 10
54.91103242984863
 20
26.77045897768239
 30
0.0
 10
54.91103242984863
 20
26.77045897768239
 30
0.0
 10
54.91103242984863
 20
26.77045897768239
 30
0.0
 10
55.30997448704056
 20
26.77045897768239
 30
0.0
 10
55.30997448704056
 20
26.77045897768239
 30
0.0
 10
55.42176783553692
 20
26.75461153845024
 30
0.0
 10
55.42865802650742
 20
26.70810274939937
 30
0.0
 10
55.33098956950059
 20
26.63024359143272
 30
0.0
 10
55.33098956950059
 20
26.63024359143272
 30
0.0
 10
55.33098956950059
 20
23.50485296721407
 30
0.0
 10
55.33098956950059
 20
23.50485296721407
 30
0.0
 10
55.33098956950059
 20
23.50485296721407
 30
0.0
 10
58.71062824053068
 20
23.50485296721407
 30
0.0
 10
58.71062824053068
 20
23.50485296721407
 30
0.0
  0
POLYLINE
  5
FA
330
9F
100
AcDbEntity
  8
0
100
AcDb2dPolyline
 66
     1
 10
0.0
 20
0.0
 30
0.0
  0
VERTEX
  5
FB
330
FA
100
AcDbEntity
  8
0
100
AcDbVertex
100
AcDb2dVertex
 10
56.84235295887969
 20
25.51093206827505
 30
0.0
  0
VERTEX
  5
FC
330
FA
100
AcDbEntity
  8
0
100
AcDbVertex
100
AcDb2dVertex
 10
56.84235295887969
 20
26.18720431202959
 30
0.0
  0
VERTEX
  5
FD
330
FA
100
AcDbEntity
  8
0
100
AcDbVertex
100
AcDb2dVertex
 10
56.191574421716
 20
26.18720431202959
 30
0.0
  0
VERTEX
  5
FE
330
FA
100
AcDbEntity
  8
0
100
AcDbVertex
100
AcDb2dVertex
 10
56.191574421716
 20
25.51093206827505
 30
0.0
  0
VERTEX
  5
FF
330
FA
100
AcDbEntity
  8
0
100
AcDbVertex
100
AcDb2dVertex
 10
56.84235295887969
 20
25.51093206827505
 30
0.0
  0
SEQEND
  5
100
330
FA
100
AcDbEntity
  8
0
  0
POLYLINE
  5
101
330
9F
100
AcDbEntity
  8
0
100
AcDb2dPolyline
 66
     1
 10
0.0
 20
0.0
 30
0.0
  0
VERTEX
  5
102
330
101
100
AcDbEntity
  8
0
100
AcDbVertex
100
AcDb2dVertex
 10
56.84235295887969
 20
24.39127603556885
 30
0.0
  0
VERTEX
  5
103
330
101
100
AcDbEntity
  8
0
100
AcDbVertex
100
AcDb2dVertex
 10
56.84235295887969
 20
25.13748371767396
 30
0.0
  0
VERTEX
  5
104
330
101
100
AcDbEntity
  8
0
100
AcDbVertex
100
AcDb2dVertex
 10
56.191574421716
 20
25.13748371767396
 30
0.0
  0
VERTEX
  5
105
330
101
100
AcDbEntity
  8
0
100
AcDbVertex
100
AcDb2dVertex
 10
56.191574421716
 20
24.39127603556885
 30
0.0
  0
VERTEX
  5
106
330
101
100
AcDbEntity
  8
0
100
AcDbVertex
100
AcDb2dVertex
 10
56.84235295887969
 20
24.39127603556885
 30
0.0
  0
SEQEND
  5
107
330
101
100
AcDbEntity
  8
0
  0
POLYLINE
  5
108
330
9F
100
AcDbEntity
  8
0
100
AcDb2dPolyline
 66
     1
 10
0.0
 20
0.0
 30
0.0
  0
VERTEX
  5
109
330
108
100
AcDbEntity
  8
0
100
AcDbVertex
100
AcDb2dVertex
 10
57.85004338831527
 20
25.51093206827505
 30
0.0
  0
VERTEX
  5
10A
330
108
100
AcDbEntity
  8
0
100
AcDbVertex
100
AcDb2dVertex
 10
57.85004338831527
 20
26.18720431202959
 30
0.0
  0
VERTEX
  5
10B
330
108
100
AcDbEntity
  8
0
100
AcDbVertex
100
AcDb2dVertex
 10
57.19926485115158
 20
26.18720431202959
 30
0.0
  0
VERTEX
  5
10C
330
108
100
AcDbEntity
  8
0
100
AcDbVertex
100
AcDb2dVertex
 10
57.19926485115158
 20
25.51093206827505
 30
0.0
  0
VERTEX
  5
10D
330
108
100
AcDbEntity
  8
0
100
AcDbVertex
100
AcDb2dVertex
 10
57.85004338831527
 20
25.51093206827505
 30
0.0
  0
SEQEND
  5
10E
330
108
100
AcDbEntity
  8
0
  0
POLYLINE
  5
10F
330
9F
100
AcDbEntity
  8
0
100
AcDb2dPolyline
 66
     1
 10
0.0
 20
0.0
 30
0.0
  0
VERTEX
  5
110
330
10F
100
AcDbEntity
  8
0
100
AcDbVertex
100
AcDb2dVertex
 10
57.85004338831527
 20
25.13748371767396
 30
0.0
  0
VERTEX
  5
111
330
10F
100
AcDbEntity
  8
0
100
AcDbVertex
100
AcDb2dVertex
 10
57.19926485115158
 20
25.13748371767396
 30
0.0
  0
VERTEX
  5
112
330
10F
100
AcDbEntity
  8
0
100
AcDbVertex
100
AcDb2dVertex
 10
57.19926485115158
 20
24.39127603556885
 30
0.0
  0
VERTEX
  5
113
330
10F
100
AcDbEntity
  8
0
100
AcDbVertex
100
AcDb2dVertex
 10
57.85004338831527
 20
24.39127603556885
 30
0.0
  0
VERTEX
  5
114
330
10F
100
AcDbEntity
  8
0
100
AcDbVertex
100
AcDb2dVertex
 10
57.85004338831527
 20
25.13748371767396
 30
0.0
  0
SEQEND
  5
115
330
10F
100
AcDbEntity
  8
0
  0
HATCH
  5
116
330
9F
100
AcDbEntity
  8
0
 62
    18
100
AcDbHatch
 10
0.0
 20
0.0
 30
0.0
210
0.0
220
0.0
230
1.0
  2
SOLID
 70
     1
 71
     0
 91
        6
 92
        1
 93
       12
 72
     1
 10
59.38242186015439
 20
27.26000704613639
 11
57.19926485115158
 21
27.26000704613639
 72
     1
 10
57.19926485115158
 20
27.26000704613639
 11
57.19926485115158
 21
26.56030815308215
 72
     1
 10
57.19926485115158
 20
26.56030815308215
 11
58.20678302581289
 21
26.56030815308215
 72
     1
 10
58.20678302581289
 20
26.56030815308215
 11
58.20678302581289
 21
24.01817219451629
 72
     1
 10
58.20678302581289
 20
24.01817219451629
 11
55.83483478421838
 21
24.01817219451629
 72
     1
 10
55.83483478421838
 20
24.01817219451629
 11
55.83483478421838
 21
26.56030815308215
 72
     1
 10
55.83483478421838
 20
26.56030815308215
 11
56.84235295887969
 21
26.56030815308215
 72
     1
 10
56.84235295887969
 20
26.56030815308215
 11
56.84235295887969
 21
27.26000704613639
 72
     1
 10
56.84235295887969
 20
27.26000704613639
 11
54.70122611479692
 21
27.26000704613639
 72
     1
 10
54.70122611479692
 20
27.26000704613639
 11
54.70122611479692
 21
27.70339083508804
 72
     1
 10
54.70122611479692
 20
27.70339083508804
 11
59.38242186015439
 21
27.70339083508804
 72
     1
 10
59.38242186015439
 20
27.70339083508804
 11
59.38242186015439
 21
27.26000704613639
 97
        0
 92
        1
 93
        1
 72
     4
 94
        3
 73
     0
 74
     1
 95
       47
 96
       43
 40
0.0
 40
0.0
 40
0.0
 40
0.0
 40
1.0
 40
1.0
 40
1.0
 40
2.0
 40
2.0
 40
2.0
 40
3.0
 40
3.0
 40
3.0
 40
4.0
 40
4.0
 40
4.0
 40
5.0
 40
5.0
 40
5.0
 40
6.0
 40
6.0
 40
6.0
 40
7.0
 40
7.0
 40
7.0
 40
8.0
 40
8.0
 40
8.0
 40
9.0
 40
9.0
 40
9.0
 40
10.0
 40
10.0
 40
10.0
 40
11.0
 40
11.0
 40
11.0
 40
12.0
 40
12.0
 40
12.0
 40
13.0
 40
13.0
 40
13.0
 40
14.0
 40
14.0
 40
14.0
 40
14.0
 10
58.71062824053068
 20
23.50485296721407
 10
58.71062824053068
 20
23.50485296721407
 10
58.71062824053068
 20
26.74703232838269
 10
58.71062824053068
 20
26.74703232838269
 10
58.71062824053068
 20
26.74703232838269
 10
59.10957029772261
 20
26.74703232838269
 10
59.10957029772261
 20
26.74703232838269
 10
59.22136364621897
 20
26.73118488915054
 10
59.22825383718947
 20
26.68467610009967
 10
59.13058538018264
 20
26.60716145168155
 10
59.13058538018264
 20
26.60716145168155
 10
59.13058538018264
 20
22.78172742486013
 10
59.13058538018264
 20
22.78172742486013
 10
59.13058538018264
 20
22.78172742486013
 10
58.71062824053068
 20
22.78172742486013
 10
58.71062824053068
 20
22.78172742486013
 10
58.71062824053068
 20
22.78172742486013
 10
58.71062824053068
 20
23.06181368781094
 10
58.71062824053068
 20
23.06181368781094
 10
58.71062824053068
 20
23.06181368781094
 10
55.33098956950059
 20
23.06181368781094
 10
55.33098956950059
 20
23.06181368781094
 10
55.33098956950059
 20
23.06181368781094
 10
55.33098956950059
 20
22.75864528510895
 10
55.33098956950059
 20
22.75864528510895
 10
55.33098956950059
 20
22.75864528510895
 10
54.91103242984863
 20
22.75864528510895
 10
54.91103242984863
 20
22.75864528510895
 10
54.91103242984863
 20
22.75864528510895
 10
54.91103242984863
 20
26.77045897768239
 10
54.91103242984863
 20
26.77045897768239
 10
54.91103242984863
 20
26.77045897768239
 10
55.30997448704056
 20
26.77045897768239
 10
55.30997448704056
 20
26.77045897768239
 10
55.42176783553692
 20
26.75461153845024
 10
55.42865802650742
 20
26.70810274939937
 10
55.33098956950059
 20
26.63024359143272
 10
55.33098956950059
 20
26.63024359143272
 10
55.33098956950059
 20
23.50485296721407
 10
55.33098956950059
 20
23.50485296721407
 10
55.33098956950059
 20
23.50485296721407
 10
58.71062824053068
 20
23.50485296721407
 10
58.71062824053068
 20
23.50485296721407
 97
        0
 92
        1
 93
        4
 72
     1
 10
56.84235295887969
 20
25.51093206827505
 11
56.84235295887969
 21
26.18720431202959
 72
     1
 10
56.84235295887969
 20
26.18720431202959
 11
56.191574421716
 21
26.18720431202959
 72
     1
 10
56.191574421716
 20
26.18720431202959
 11
56.191574421716
 21
25.51093206827505
 72
     1
 10
56.191574421716
 20
25.51093206827505
 11
56.84235295887969
 21
25.51093206827505
 97
        0
 92
        1
 93
        4
 72
     1
 10
56.84235295887969
 20
24.39127603556885
 11
56.84235295887969
 21
25.13748371767396
 72
     1
 10
56.84235295887969
 20
25.13748371767396
 11
56.191574421716
 21
25.13748371767396
 72
     1
 10
56.191574421716
 20
25.13748371767396
 11
56.191574421716
 21
24.39127603556885
 72
     1
 10
56.191574421716
 20
24.39127603556885
 11
56.84235295887969
 21
24.39127603556885
 97
        0
 92
        1
 93
        4
 72
     1
 10
57.85004338831527
 20
25.51093206827505
 11
57.85004338831527
 21
26.18720431202959
 72
     1
 10
57.85004338831527
 20
26.18720431202959
 11
57.19926485115158
 21
26.18720431202959
 72
     1
 10
57.19926485115158
 20
26.18720431202959
 11
57.19926485115158
 21
25.51093206827505
 72
     1
 10
57.19926485115158
 20
25.51093206827505
 11
57.85004338831527
 21
25.51093206827505
 97
        0
 92
        1
 93
        4
 72
     1
 10
57.85004338831527
 20
25.13748371767396
 11
57.19926485115158
 21
25.13748371767396
 72
     1
 10
57.19926485115158
 20
25.13748371767396
 11
57.19926485115158
 21
24.39127603556885
 72
     1
 10
57.19926485115158
 20
24.39127603556885
 11
57.85004338831527
 21
24.39127603556885
 72
     1
 10
57.85004338831527
 20
24.39127603556885
 11
57.85004338831527
 21
25.13748371767396
 97
        0
 75
     2
 76
     1
 98
        0
  0
SPLINE
  5
117
330
9F
100
AcDbEntity
  8
0
100
AcDbSpline
210
0.0
220
0.0
230
1.0
 70
    11
 71
     3
 72
    65
 73
    61
 74
     0
 42
0.0000000001
 43
0.0000000001
 40
0.0
 40
0.0
 40
0.0
 40
0.0
 40
1.0
 40
1.0
 40
1.0
 40
2.0
 40
2.0
 40
2.0
 40
3.0
 40
3.0
 40
3.0
 40
4.0
 40
4.0
 40
4.0
 40
5.0
 40
5.0
 40
5.0
 40
6.0
 40
6.0
 40
6.0
 40
7.0
 40
7.0
 40
7.0
 40
8.0
 40
8.0
 40
8.0
 40
9.0
 40
9.0
 40
9.0
 40
10.0
 40
10.0
 40
10.0
 40
11.0
 40
11.0
 40
11.0
 40
12.0
 40
12.0
 40
12.0
 40
13.0
 40
13.0
 40
13.0
 40
14.0
 40
14.0
 40
14.0
 40
15.0
 40
15.0
 40
15.0
 40
16.0
 40
16.0
 40
16.0
 40
17.0
 40
17.0
 40
17.0
 40
18.0
 40
18.0
 40
18.0
 40
19.0
 40
19.0
 40
19.0
 40
20.0
 40
20.0
 40
20.0
 40
20.0
 10
61.18765189442531
 20
22.66528319745868
 30
0.0
 10
61.18765189442531
 20
22.66528319745868
 30
0.0
 10
60.76786700954762
 20
22.66528319745868
 30
0.0
 10
60.76786700954762
 20
22.66528319745868
 30
0.0
 10
60.76786700954762
 20
22.66528319745868
 30
0.0
 10
60.76786700954762
 20
25.04446613957222
 30
0.0
 10
60.76786700954762
 20
25.04446613957222
 30
0.0
 10
60.62782387807221
 20
24.63966742005536
 30
0.0
 10
60.42473549921674
 20
24.27448729861888
 30
0.0
 10
60.15911863730398
 20
23.94823675616572
 30
0.0
 10
60.15911863730398
 20
23.94823675616572
 30
0.0
 10
59.88626707487219
 20
24.43778482461972
 30
0.0
 10
59.88626707487219
 20
24.43778482461972
 30
0.0
 10
60.31983234169088
 20
24.9352566126898
 30
0.0
 10
60.60680879561219
 20
25.58844671669317
 30
0.0
 10
60.7468519270876
 20
26.3970106270813
 30
0.0
 10
60.7468519270876
 20
26.3970106270813
 30
0.0
 10
60.05421547977812
 20
26.3970106270813
 30
0.0
 10
60.05421547977812
 20
26.3970106270813
 30
0.0
 10
60.05421547977812
 20
26.3970106270813
 30
0.0
 10
60.05421547977812
 20
26.91032985438353
 30
0.0
 10
60.05421547977812
 20
26.91032985438353
 30
0.0
 10
60.05421547977812
 20
26.91032985438353
 30
0.0
 10
60.76786700954762
 20
26.91032985438353
 30
0.0
 10
60.76786700954762
 20
26.91032985438353
 30
0.0
 10
60.76786700954762
 20
26.91032985438353
 30
0.0
 10
60.76786700954762
 20
28.0530680268409
 30
0.0
 10
60.76786700954762
 20
28.0530680268409
 30
0.0
 10
60.76786700954762
 20
28.0530680268409
 30
0.0
 10
61.16663681196529
 20
28.0530680268409
 30
0.0
 10
61.16663681196529
 20
28.0530680268409
 30
0.0
 10
61.27860241523591
 20
28.02171765792513
 30
0.0
 10
61.28549260620641
 20
27.97520886887425
 30
0.0
 10
61.18765189442531
 20
27.91319715013976
 30
0.0
 10
61.18765189442531
 20
27.91319715013976
 30
0.0
 10
61.18765189442531
 20
26.91032985438353
 30
0.0
 10
61.18765189442531
 20
26.91032985438353
 30
0.0
 10
61.18765189442531
 20
26.91032985438353
 30
0.0
 10
61.7755574389832
 20
26.91032985438353
 30
0.0
 10
61.7755574389832
 20
26.91032985438353
 30
0.0
 10
61.7755574389832
 20
26.91032985438353
 30
0.0
 10
61.7755574389832
 20
26.3970106270813
 30
0.0
 10
61.7755574389832
 20
26.3970106270813
 30
0.0
 10
61.7755574389832
 20
26.3970106270813
 30
0.0
 10
61.18765189442531
 20
26.3970106270813
 30
0.0
 10
61.18765189442531
 20
26.3970106270813
 30
0.0
 10
61.18765189442531
 20
26.3970106270813
 30
0.0
 10
61.18765189442531
 20
25.72073838332676
 30
0.0
 10
61.18765189442531
 20
25.72073838332676
 30
0.0
 10
61.46756590260186
 20
25.5185112783426
 30
0.0
 10
61.7052774910841
 20
25.27769910392363
 30
0.0
 10
61.90147567896908
 20
24.99761284097282
 30
0.0
 10
61.90147567896908
 20
24.99761284097282
 30
0.0
 10
61.58659395161725
 20
24.55457356156969
 30
0.0
 10
61.58659395161725
 20
24.55457356156969
 30
0.0
 10
61.43242592865231
 20
24.83431531497198
 30
0.0
 10
61.29961749769593
 20
25.03619791040762
 30
0.0
 10
61.18765189442531
 20
25.16091036697366
 30
0.0
 10
61.18765189442531
 20
25.16091036697366
 30
0.0
 10
61.18765189442531
 20
22.66528319745868
 30
0.0
 10
61.18765189442531
 20
22.66528319745868
 30
0.0
  0
SPLINE
  5
118
330
9F
100
AcDbEntity
  8
0
100
AcDbSpline
210
0.0
220
0.0
230
1.0
 70
    11
 71
     3
 72
   101
 73
    97
 74
     0
 42
0.0000000001
 43
0.0000000001
 40
0.0
 40
0.0
 40
0.0
 40
0.0
 40
1.0
 40
1.0
 40
1.0
 40
2.0
 40
2.0
 40
2.0
 40
3.0
 40
3.0
 40
3.0
 40
4.0
 40
4.0
 40
4.0
 40
5.0
 40
5.0
 40
5.0
 40
6.0
 40
6.0
 40
6.0
 40
7.0
 40
7.0
 40
7.0
 40
8.0
 40
8.0
 40
8.0
 40
9.0
 40
9.0
 40
9.0
 40
10.0
 40
10.0
 40
10.0
 40
11.0
 40
11.0
 40
11.0
 40
12.0
 40
12.0
 40
12.0
 40
13.0
 40
13.0
 40
13.0
 40
14.0
 40
14.0
 40
14.0
 40
15.0
 40
15.0
 40
15.0
 40
16.0
 40
16.0
 40
16.0
 40
17.0
 40
17.0
 40
17.0
 40
18.0
 40
18.0
 40
18.0
 40
19.0
 40
19.0
 40
19.0
 40
20.0
 40
20.0
 40
20.0
 40
21.0
 40
21.0
 40
21.0
 40
22.0
 40
22.0
 40
22.0
 40
23.0
 40
23.0
 40
23.0
 40
24.0
 40
24.0
 40
24.0
 40
25.0
 40
25.0
 40
25.0
 40
26.0
 40
26.0
 40
26.0
 40
27.0
 40
27.0
 40
27.0
 40
28.0
 40
28.0
 40
28.0
 40
29.0
 40
29.0
 40
29.0
 40
30.0
 40
30.0
 40
30.0
 40
31.0
 40
31.0
 40
31.0
 40
32.0
 40
32.0
 40
32.0
 40
32.0
 10
63.43385415080821
 20
27.0036919420338
 30
0.0
 10
63.43385415080821
 20
27.0036919420338
 30
0.0
 10
64.39951441532374
 20
27.0036919420338
 30
0.0
 10
64.39951441532374
 20
27.0036919420338
 30
0.0
 10
64.39951441532374
 20
27.0036919420338
 30
0.0
 10
64.39951441532374
 20
26.49037271473157
 30
0.0
 10
64.39951441532374
 20
26.49037271473157
 30
0.0
 10
64.39951441532374
 20
26.49037271473157
 30
0.0
 10
63.43385415080821
 20
26.49037271473157
 30
0.0
 10
63.43385415080821
 20
26.49037271473157
 30
0.0
 10
63.43385415080821
 20
26.49037271473157
 30
0.0
 10
63.43385415080821
 20
25.76724717237763
 30
0.0
 10
63.43385415080821
 20
25.76724717237763
 30
0.0
 10
63.43385415080821
 20
25.76724717237763
 30
0.0
 10
64.75625405282136
 20
25.76724717237763
 30
0.0
 10
64.75625405282136
 20
25.76724717237763
 30
0.0
 10
64.75625405282136
 20
25.76724717237763
 30
0.0
 10
64.75625405282136
 20
25.25427245462393
 30
0.0
 10
64.75625405282136
 20
25.25427245462393
 30
0.0
 10
64.75625405282136
 20
25.25427245462393
 30
0.0
 10
63.47588431572825
 20
25.25427245462393
 30
0.0
 10
63.47588431572825
 20
25.25427245462393
 30
0.0
 10
63.72772079570002
 20
24.75645615700533
 30
0.0
 10
64.20331622743876
 20
24.27448729861888
 30
0.0
 10
64.90318737526727
 20
23.80802136991605
 30
0.0
 10
64.90318737526727
 20
23.80802136991605
 30
0.0
 10
64.6513508952955
 20
23.27162000286265
 30
0.0
 10
64.6513508952955
 20
23.27162000286265
 30
0.0
 10
64.10564777043193
 20
23.7067355626497
 30
0.0
 10
63.69947101272097
 20
24.14219563198528
 30
0.0
 10
63.43385415080821
 20
24.57800021086939
 30
0.0
 10
63.43385415080821
 20
24.57800021086939
 30
0.0
 10
63.43385415080821
 20
22.66528319745868
 30
0.0
 10
63.43385415080821
 20
22.66528319745868
 30
0.0
 10
63.43385415080821
 20
22.66528319745868
 30
0.0
 10
63.01406926593052
 20
22.66528319745868
 30
0.0
 10
63.01406926593052
 20
22.66528319745868
 30
0.0
 10
63.01406926593052
 20
22.66528319745868
 30
0.0
 10
63.01406926593052
 20
24.53114691226999
 30
0.0
 10
63.01406926593052
 20
24.53114691226999
 30
0.0
 10
62.72003036626444
 20
23.97131889591689
 30
0.0
 10
62.31402586332775
 20
23.49692924759799
 30
0.0
 10
61.79640026666896
 20
23.10832247686181
 30
0.0
 10
61.79640026666896
 20
23.10832247686181
 30
0.0
 10
61.56557886915722
 20
23.57478840556464
 30
0.0
 10
61.56557886915722
 20
23.57478840556464
 30
0.0
 10
62.16709254088184
 20
24.04125433426746
 30
0.0
 10
62.6430324821691
 20
24.60108235062057
 30
0.0
 10
62.99305418347049
 20
25.25427245462393
 30
0.0
 10
62.99305418347049
 20
25.25427245462393
 30
0.0
 10
61.7755574389832
 20
25.25427245462393
 30
0.0
 10
61.7755574389832
 20
25.25427245462393
 30
0.0
 10
61.7755574389832
 20
25.25427245462393
 30
0.0
 10
61.7755574389832
 20
25.76724717237763
 30
0.0
 10
61.7755574389832
 20
25.76724717237763
 30
0.0
 10
61.7755574389832
 20
25.76724717237763
 30
0.0
 10
63.01406926593052
 20
25.76724717237763
 30
0.0
 10
63.01406926593052
 20
25.76724717237763
 30
0.0
 10
63.01406926593052
 20
25.76724717237763
 30
0.0
 10
63.01406926593052
 20
26.49037271473157
 30
0.0
 10
63.01406926593052
 20
26.49037271473157
 30
0.0
 10
63.01406926593052
 20
26.49037271473157
 30
0.0
 10
62.42616372137263
 20
26.49037271473157
 30
0.0
 10
62.42616372137263
 20
26.49037271473157
 30
0.0
 10
62.3422756463068
 20
26.27264268006379
 30
0.0
 10
62.22324759729141
 20
26.06249185546354
 30
0.0
 10
62.06942408387501
 20
25.8606092600279
 30
0.0
 10
62.06942408387501
 20
25.8606092600279
 30
0.0
 10
61.73352727406315
 20
26.25713975038016
 30
0.0
 10
61.73352727406315
 20
26.25713975038016
 30
0.0
 10
61.98536375403491
 20
26.55238443346607
 30
0.0
 10
62.18810762334186
 20
26.9954237128692
 30
0.0
 10
62.3422756463068
 20
27.58660209813807
 30
0.0
 10
62.3422756463068
 20
27.58660209813807
 30
0.0
 10
62.76206053118449
 20
27.47015787073663
 30
0.0
 10
62.76206053118449
 20
27.47015787073663
 30
0.0
 10
62.84612086102458
 20
27.42330457213723
 30
0.0
 10
62.83199596953506
 20
27.38437499315391
 30
0.0
 10
62.72003036626444
 20
27.35336913378666
 30
0.0
 10
62.72003036626444
 20
27.35336913378666
 30
0.0
 10
62.61512720873858
 20
27.0036919420338
 30
0.0
 10
62.61512720873858
 20
27.0036919420338
 30
0.0
 10
62.61512720873858
 20
27.0036919420338
 30
0.0
 10
63.01406926593052
 20
27.0036919420338
 30
0.0
 10
63.01406926593052
 20
27.0036919420338
 30
0.0
 10
63.01406926593052
 20
27.0036919420338
 30
0.0
 10
63.01406926593052
 20
28.0530680268409
 30
0.0
 10
63.01406926593052
 20
28.0530680268409
 30
0.0
 10
63.01406926593052
 20
28.0530680268409
 30
0.0
 10
63.41283906834818
 20
28.0530680268409
 30
0.0
 10
63.41283906834818
 20
28.0530680268409
 30
0.0
 10
63.52463241684454
 20
28.03756509715728
 30
0.0
 10
63.53152260781504
 20
27.99071179855788
 30
0.0
 10
63.43385415080821
 20
27.91319715013976
 30
0.0
 10
63.43385415080821
 20
27.91319715013976
 30
0.0
 10
63.43385415080821
 20
27.0036919420338
 30
0.0
 10
63.43385415080821
 20
27.0036919420338
 30
0.0
  0
HATCH
  5
119
330
9F
100
AcDbEntity
  8
0
 62
    18
100
AcDbHatch
 10
0.0
 20
0.0
 30
0.0
210
0.0
220
0.0
230
1.0
  2
SOLID
 70
     1
 71
     0
 91
        2
 92
        1
 93
        1
 72
     4
 94
        3
 73
     0
 74
     1
 95
       65
 96
       61
 40
0.0
 40
0.0
 40
0.0
 40
0.0
 40
1.0
 40
1.0
 40
1.0
 40
2.0
 40
2.0
 40
2.0
 40
3.0
 40
3.0
 40
3.0
 40
4.0
 40
4.0
 40
4.0
 40
5.0
 40
5.0
 40
5.0
 40
6.0
 40
6.0
 40
6.0
 40
7.0
 40
7.0
 40
7.0
 40
8.0
 40
8.0
 40
8.0
 40
9.0
 40
9.0
 40
9.0
 40
10.0
 40
10.0
 40
10.0
 40
11.0
 40
11.0
 40
11.0
 40
12.0
 40
12.0
 40
12.0
 40
13.0
 40
13.0
 40
13.0
 40
14.0
 40
14.0
 40
14.0
 40
15.0
 40
15.0
 40
15.0
 40
16.0
 40
16.0
 40
16.0
 40
17.0
 40
17.0
 40
17.0
 40
18.0
 40
18.0
 40
18.0
 40
19.0
 40
19.0
 40
19.0
 40
20.0
 40
20.0
 40
20.0
 40
20.0
 10
61.18765189442531
 20
22.66528319745868
 10
61.18765189442531
 20
22.66528319745868
 10
60.76786700954762
 20
22.66528319745868
 10
60.76786700954762
 20
22.66528319745868
 10
60.76786700954762
 20
22.66528319745868
 10
60.76786700954762
 20
25.04446613957222
 10
60.76786700954762
 20
25.04446613957222
 10
60.62782387807221
 20
24.63966742005536
 10
60.42473549921674
 20
24.27448729861888
 10
60.15911863730398
 20
23.94823675616572
 10
60.15911863730398
 20
23.94823675616572
 10
59.88626707487219
 20
24.43778482461972
 10
59.88626707487219
 20
24.43778482461972
 10
60.31983234169088
 20
24.9352566126898
 10
60.60680879561219
 20
25.58844671669317
 10
60.7468519270876
 20
26.3970106270813
 10
60.7468519270876
 20
26.3970106270813
 10
60.05421547977812
 20
26.3970106270813
 10
60.05421547977812
 20
26.3970106270813
 10
60.05421547977812
 20
26.3970106270813
 10
60.05421547977812
 20
26.91032985438353
 10
60.05421547977812
 20
26.91032985438353
 10
60.05421547977812
 20
26.91032985438353
 10
60.76786700954762
 20
26.91032985438353
 10
60.76786700954762
 20
26.91032985438353
 10
60.76786700954762
 20
26.91032985438353
 10
60.76786700954762
 20
28.0530680268409
 10
60.76786700954762
 20
28.0530680268409
 10
60.76786700954762
 20
28.0530680268409
 10
61.16663681196529
 20
28.0530680268409
 10
61.16663681196529
 20
28.0530680268409
 10
61.27860241523591
 20
28.02171765792513
 10
61.28549260620641
 20
27.97520886887425
 10
61.18765189442531
 20
27.91319715013976
 10
61.18765189442531
 20
27.91319715013976
 10
61.18765189442531
 20
26.91032985438353
 10
61.18765189442531
 20
26.91032985438353
 10
61.18765189442531
 20
26.91032985438353
 10
61.7755574389832
 20
26.91032985438353
 10
61.7755574389832
 20
26.91032985438353
 10
61.7755574389832
 20
26.91032985438353
 10
61.7755574389832
 20
26.3970106270813
 10
61.7755574389832
 20
26.3970106270813
 10
61.7755574389832
 20
26.3970106270813
 10
61.18765189442531
 20
26.3970106270813
 10
61.18765189442531
 20
26.3970106270813
 10
61.18765189442531
 20
26.3970106270813
 10
61.18765189442531
 20
25.72073838332676
 10
61.18765189442531
 20
25.72073838332676
 10
61.46756590260186
 20
25.5185112783426
 10
61.7052774910841
 20
25.27769910392363
 10
61.90147567896908
 20
24.99761284097282
 10
61.90147567896908
 20
24.99761284097282
 10
61.58659395161725
 20
24.55457356156969
 10
61.58659395161725
 20
24.55457356156969
 10
61.43242592865231
 20
24.83431531497198
 10
61.29961749769593
 20
25.03619791040762
 10
61.18765189442531
 20
25.16091036697366
 10
61.18765189442531
 20
25.16091036697366
 10
61.18765189442531
 20
22.66528319745868
 10
61.18765189442531
 20
22.66528319745868
 97
        0
 92
        1
 93
        1
 72
     4
 94
        3
 73
     0
 74
     1
 95
      101
 96
       97
 40
0.0
 40
0.0
 40
0.0
 40
0.0
 40
1.0
 40
1.0
 40
1.0
 40
2.0
 40
2.0
 40
2.0
 40
3.0
 40
3.0
 40
3.0
 40
4.0
 40
4.0
 40
4.0
 40
5.0
 40
5.0
 40
5.0
 40
6.0
 40
6.0
 40
6.0
 40
7.0
 40
7.0
 40
7.0
 40
8.0
 40
8.0
 40
8.0
 40
9.0
 40
9.0
 40
9.0
 40
10.0
 40
10.0
 40
10.0
 40
11.0
 40
11.0
 40
11.0
 40
12.0
 40
12.0
 40
12.0
 40
13.0
 40
13.0
 40
13.0
 40
14.0
 40
14.0
 40
14.0
 40
15.0
 40
15.0
 40
15.0
 40
16.0
 40
16.0
 40
16.0
 40
17.0
 40
17.0
 40
17.0
 40
18.0
 40
18.0
 40
18.0
 40
19.0
 40
19.0
 40
19.0
 40
20.0
 40
20.0
 40
20.0
 40
21.0
 40
21.0
 40
21.0
 40
22.0
 40
22.0
 40
22.0
 40
23.0
 40
23.0
 40
23.0
 40
24.0
 40
24.0
 40
24.0
 40
25.0
 40
25.0
 40
25.0
 40
26.0
 40
26.0
 40
26.0
 40
27.0
 40
27.0
 40
27.0
 40
28.0
 40
28.0
 40
28.0
 40
29.0
 40
29.0
 40
29.0
 40
30.0
 40
30.0
 40
30.0
 40
31.0
 40
31.0
 40
31.0
 40
32.0
 40
32.0
 40
32.0
 40
32.0
 10
63.43385415080821
 20
27.0036919420338
 10
63.43385415080821
 20
27.0036919420338
 10
64.39951441532374
 20
27.0036919420338
 10
64.39951441532374
 20
27.0036919420338
 10
64.39951441532374
 20
27.0036919420338
 10
64.39951441532374
 20
26.49037271473157
 10
64.39951441532374
 20
26.49037271473157
 10
64.39951441532374
 20
26.49037271473157
 10
63.43385415080821
 20
26.49037271473157
 10
63.43385415080821
 20
26.49037271473157
 10
63.43385415080821
 20
26.49037271473157
 10
63.43385415080821
 20
25.76724717237763
 10
63.43385415080821
 20
25.76724717237763
 10
63.43385415080821
 20
25.76724717237763
 10
64.75625405282136
 20
25.76724717237763
 10
64.75625405282136
 20
25.76724717237763
 10
64.75625405282136
 20
25.76724717237763
 10
64.75625405282136
 20
25.25427245462393
 10
64.75625405282136
 20
25.25427245462393
 10
64.75625405282136
 20
25.25427245462393
 10
63.47588431572825
 20
25.25427245462393
 10
63.47588431572825
 20
25.25427245462393
 10
63.72772079570002
 20
24.75645615700533
 10
64.20331622743876
 20
24.27448729861888
 10
64.90318737526727
 20
23.80802136991605
 10
64.90318737526727
 20
23.80802136991605
 10
64.6513508952955
 20
23.27162000286265
 10
64.6513508952955
 20
23.27162000286265
 10
64.10564777043193
 20
23.7067355626497
 10
63.69947101272097
 20
24.14219563198528
 10
63.43385415080821
 20
24.57800021086939
 10
63.43385415080821
 20
24.57800021086939
 10
63.43385415080821
 20
22.66528319745868
 10
63.43385415080821
 20
22.66528319745868
 10
63.43385415080821
 20
22.66528319745868
 10
63.01406926593052
 20
22.66528319745868
 10
63.01406926593052
 20
22.66528319745868
 10
63.01406926593052
 20
22.66528319745868
 10
63.01406926593052
 20
24.53114691226999
 10
63.01406926593052
 20
24.53114691226999
 10
62.72003036626444
 20
23.97131889591689
 10
62.31402586332775
 20
23.49692924759799
 10
61.79640026666896
 20
23.10832247686181
 10
61.79640026666896
 20
23.10832247686181
 10
61.56557886915722
 20
23.57478840556464
 10
61.56557886915722
 20
23.57478840556464
 10
62.16709254088184
 20
24.04125433426746
 10
62.6430324821691
 20
24.60108235062057
 10
62.99305418347049
 20
25.25427245462393
 10
62.99305418347049
 20
25.25427245462393
 10
61.7755574389832
 20
25.25427245462393
 10
61.7755574389832
 20
25.25427245462393
 10
61.7755574389832
 20
25.25427245462393
 10
61.7755574389832
 20
25.76724717237763
 10
61.7755574389832
 20
25.76724717237763
 10
61.7755574389832
 20
25.76724717237763
 10
63.01406926593052
 20
25.76724717237763
 10
63.01406926593052
 20
25.76724717237763
 10
63.01406926593052
 20
25.76724717237763
 10
63.01406926593052
 20
26.49037271473157
 10
63.01406926593052
 20
26.49037271473157
 10
63.01406926593052
 20
26.49037271473157
 10
62.42616372137263
 20
26.49037271473157
 10
62.42616372137263
 20
26.49037271473157
 10
62.3422756463068
 20
26.27264268006379
 10
62.22324759729141
 20
26.06249185546354
 10
62.06942408387501
 20
25.8606092600279
 10
62.06942408387501
 20
25.8606092600279
 10
61.73352727406315
 20
26.25713975038016
 10
61.73352727406315
 20
26.25713975038016
 10
61.98536375403491
 20
26.55238443346607
 10
62.18810762334186
 20
26.9954237128692
 10
62.3422756463068
 20
27.58660209813807
 10
62.3422756463068
 20
27.58660209813807
 10
62.76206053118449
 20
27.47015787073663
 10
62.76206053118449
 20
27.47015787073663
 10
62.84612086102458
 20
27.42330457213723
 10
62.83199596953506
 20
27.38437499315391
 10
62.72003036626444
 20
27.35336913378666
 10
62.72003036626444
 20
27.35336913378666
 10
62.61512720873858
 20
27.0036919420338
 10
62.61512720873858
 20
27.0036919420338
 10
62.61512720873858
 20
27.0036919420338
 10
63.01406926593052
 20
27.0036919420338
 10
63.01406926593052
 20
27.0036919420338
 10
63.01406926593052
 20
27.0036919420338
 10
63.01406926593052
 20
28.0530680268409
 10
63.01406926593052
 20
28.0530680268409
 10
63.01406926593052
 20
28.0530680268409
 10
63.41283906834818
 20
28.0530680268409
 10
63.41283906834818
 20
28.0530680268409
 10
63.52463241684454
 20
28.03756509715728
 10
63.53152260781504
 20
27.99071179855788
 10
63.43385415080821
 20
27.91319715013976
 10
63.43385415080821
 20
27.91319715013976
 10
63.43385415080821
 20
27.0036919420338
 10
63.43385415080821
 20
27.0036919420338
 97
        0
 75
     2
 76
     1
 98
        0
  0
SPLINE
  5
11A
330
9F
100
AcDbEntity
  8
0
100
AcDbSpline
210
0.0
220
0.0
230
1.0
 70
    11
 71
     3
 72
    65
 73
    61
 74
     0
 42
0.0000000001
 43
0.0000000001
 40
0.0
 40
0.0
 40
0.0
 40
0.0
 40
1.0
 40
1.0
 40
1.0
 40
2.0
 40
2.0
 40
2.0
 40
3.0
 40
3.0
 40
3.0
 40
4.0
 40
4.0
 40
4.0
 40
5.0
 40
5.0
 40
5.0
 40
6.0
 40
6.0
 40
6.0
 40
7.0
 40
7.0
 40
7.0
 40
8.0
 40
8.0
 40
8.0
 40
9.0
 40
9.0
 40
9.0
 40
10.0
 40
10.0
 40
10.0
 40
11.0
 40
11.0
 40
11.0
 40
12.0
 40
12.0
 40
12.0
 40
13.0
 40
13.0
 40
13.0
 40
14.0
 40
14.0
 40
14.0
 40
15.0
 40
15.0
 40
15.0
 40
16.0
 40
16.0
 40
16.0
 40
17.0
 40
17.0
 40
17.0
 40
18.0
 40
18.0
 40
18.0
 40
19.0
 40
19.0
 40
19.0
 40
20.0
 40
20.0
 40
20.0
 40
20.0
 10
69.01766491330115
 20
24.06468098356716
 30
0.0
 10
69.19939370014806
 20
23.69157714251461
 30
0.0
 10
69.3604519140835
 20
23.50485296721407
 30
0.0
 10
69.5004950455589
 20
23.50485296721407
 30
0.0
 10
69.55630559241996
 20
23.50485296721407
 30
0.0
 10
69.5914455663695
 20
23.55170626581346
 30
0.0
 10
69.60539820308476
 20
23.64472384391521
 30
0.0
 10
69.60539820308476
 20
23.64472384391521
 30
0.0
 10
69.64742836800481
 20
24.04125433426746
 30
0.0
 10
69.64742836800481
 20
24.04125433426746
 30
0.0
 10
69.64742836800481
 20
24.04125433426746
 30
0.0
 10
70.10924341780256
 20
23.80802136991605
 30
0.0
 10
70.10924341780256
 20
23.80802136991605
 30
0.0
 10
70.10924341780256
 20
23.80802136991605
 30
0.0
 10
70.02535534273672
 20
23.24819335356295
 30
0.0
 10
70.02535534273672
 20
23.24819335356295
 30
0.0
 10
69.98332517781667
 20
22.98429903939282
 30
0.0
 10
69.85740693783079
 20
22.85200737275922
 30
0.0
 10
69.64742836800481
 20
22.85200737275922
 30
0.0
 10
69.22764348312712
 20
22.85200737275922
 30
0.0
 10
68.87073159085524
 20
23.17067870514483
 30
0.0
 10
68.57686494596342
 20
23.80802136991605
 30
0.0
 10
68.29677868301262
 20
24.41470268486855
 30
0.0
 10
68.14984536056672
 20
25.26943087475903
 30
0.0
 10
68.13606497862571
 20
26.37392848733013
 30
0.0
 10
68.13606497862571
 20
26.37392848733013
 30
0.0
 10
65.55396591243095
 20
26.37392848733013
 30
0.0
 10
65.55396591243095
 20
26.37392848733013
 30
0.0
 10
65.55396591243095
 20
26.37392848733013
 30
0.0
 10
65.55396591243095
 20
26.88690320508383
 30
0.0
 10
65.55396591243095
 20
26.88690320508383
 30
0.0
 10
65.55396591243095
 20
26.88690320508383
 30
0.0
 10
68.11504989616569
 20
26.88690320508383
 30
0.0
 10
68.11504989616569
 20
26.88690320508383
 30
0.0
 10
68.11504989616569
 20
26.88690320508383
 30
0.0
 10
68.11504989616569
 20
27.96005044873916
 30
0.0
 10
68.11504989616569
 20
27.96005044873916
 30
0.0
 10
68.11504989616569
 20
27.96005044873916
 30
0.0
 10
68.57686494596342
 20
27.96005044873916
 30
0.0
 10
68.57686494596342
 20
27.96005044873916
 30
0.0
 10
68.7165635678903
 20
27.92870007982338
 30
0.0
 10
68.72379826840933
 20
27.86668836108888
 30
0.0
 10
68.59788002842345
 20
27.77332627343861
 30
0.0
 10
68.59788002842345
 20
27.77332627343861
 30
0.0
 10
68.59788002842345
 20
26.88690320508383
 30
0.0
 10
68.59788002842345
 20
26.88690320508383
 30
0.0
 10
68.59788002842345
 20
26.88690320508383
 30
0.0
 10
70.06721325288251
 20
26.88690320508383
 30
0.0
 10
70.06721325288251
 20
26.88690320508383
 30
0.0
 10
70.06721325288251
 20
26.88690320508383
 30
0.0
 10
70.06721325288251
 20
26.37392848733013
 30
0.0
 10
70.06721325288251
 20
26.37392848733013
 30
0.0
 10
70.06721325288251
 20
26.37392848733013
 30
0.0
 10
68.59788002842345
 20
26.37392848733013
 30
0.0
 10
68.59788002842345
 20
26.37392848733013
 30
0.0
 10
68.6536905752845
 20
25.28527831399118
 30
0.0
 10
68.79373370675991
 20
24.51564398258637
 30
0.0
 10
69.01766491330115
 20
24.06468098356716
 30
0.0
 10
69.01766491330115
 20
24.06468098356716
 30
0.0
 10
69.01766491330115
 20
24.06468098356716
 30
0.0
 10
69.01766491330115
 20
24.06468098356716
 30
0.0
  0
SPLINE
  5
11B
330
9F
100
AcDbEntity
  8
0
100
AcDbSpline
210
0.0
220
0.0
230
1.0
 70
    11
 71
     3
 72
    44
 73
    40
 74
     0
 42
0.0000000001
 43
0.0000000001
 40
0.0
 40
0.0
 40
0.0
 40
0.0
 40
1.0
 40
1.0
 40
1.0
 40
2.0
 40
2.0
 40
2.0
 40
3.0
 40
3.0
 40
3.0
 40
4.0
 40
4.0
 40
4.0
 40
5.0
 40
5.0
 40
5.0
 40
6.0
 40
6.0
 40
6.0
 40
7.0
 40
7.0
 40
7.0
 40
8.0
 40
8.0
 40
8.0
 40
9.0
 40
9.0
 40
9.0
 40
10.0
 40
10.0
 40
10.0
 40
11.0
 40
11.0
 40
11.0
 40
12.0
 40
12.0
 40
12.0
 40
13.0
 40
13.0
 40
13.0
 40
13.0
 10
68.19893797123152
 20
23.64472384391521
 30
0.0
 10
67.41500649356291
 20
23.45834417816319
 30
0.0
 10
66.62470158924661
 20
23.28712293254627
 30
0.0
 10
65.826989729637
 20
23.13174912616151
 30
0.0
 10
65.79873994665796
 20
22.99187824946036
 30
0.0
 10
65.74981959076742
 20
22.97637531977674
 30
0.0
 10
65.6800564071911
 20
23.08524033711064
 30
0.0
 10
65.6800564071911
 20
23.08524033711064
 30
0.0
 10
65.57498099489098
 20
23.66815049321491
 30
0.0
 10
65.57498099489098
 20
23.66815049321491
 30
0.0
 10
65.92465818664384
 20
23.69915635258216
 30
0.0
 10
66.26778969697472
 20
23.74566514163303
 30
0.0
 10
66.60368650678659
 20
23.80802136991605
 30
0.0
 10
66.60368650678659
 20
23.80802136991605
 30
0.0
 10
66.60368650678659
 20
25.13748371767396
 30
0.0
 10
66.60368650678659
 20
25.13748371767396
 30
0.0
 10
66.60368650678659
 20
25.13748371767396
 30
0.0
 10
65.76394448225693
 20
25.13748371767396
 30
0.0
 10
65.76394448225693
 20
25.13748371767396
 30
0.0
 10
65.76394448225693
 20
25.13748371767396
 30
0.0
 10
65.76394448225693
 20
25.58086750662562
 30
0.0
 10
65.76394448225693
 20
25.58086750662562
 30
0.0
 10
65.76394448225693
 20
25.58086750662562
 30
0.0
 10
67.8421983337339
 20
25.58086750662562
 30
0.0
 10
67.8421983337339
 20
25.58086750662562
 30
0.0
 10
67.8421983337339
 20
25.58086750662562
 30
0.0
 10
67.8421983337339
 20
25.13748371767396
 30
0.0
 10
67.8421983337339
 20
25.13748371767396
 30
0.0
 10
67.8421983337339
 20
25.13748371767396
 30
0.0
 10
67.02347139166427
 20
25.13748371767396
 30
0.0
 10
67.02347139166427
 20
25.13748371767396
 30
0.0
 10
67.02347139166427
 20
25.13748371767396
 30
0.0
 10
67.02347139166427
 20
23.87795680826662
 30
0.0
 10
67.02347139166427
 20
23.87795680826662
 30
0.0
 10
67.34524330998661
 20
23.92481010686602
 30
0.0
 10
67.71610783897376
 20
23.99474554521659
 30
0.0
 10
68.13606497862571
 20
24.08810763286686
 30
0.0
 10
68.13606497862571
 20
24.08810763286686
 30
0.0
 10
68.19893797123152
 20
23.64472384391521
 30
0.0
 10
68.19893797123152
 20
23.64472384391521
 30
0.0
  0
SPLINE
  5
11C
330
9F
100
AcDbEntity
  8
0
100
AcDbSpline
210
0.0
220
0.0
230
1.0
 70
    11
 71
     3
 72
    17
 73
    13
 74
     0
 42
0.0000000001
 43
0.0000000001
 40
0.0
 40
0.0
 40
0.0
 40
0.0
 40
1.0
 40
1.0
 40
1.0
 40
2.0
 40
2.0
 40
2.0
 40
3.0
 40
3.0
 40
3.0
 40
4.0
 40
4.0
 40
4.0
 40
4.0
 10
69.16459823574705
 20
27.84326171178919
 30
0.0
 10
69.3604519140835
 20
27.73439669445529
 30
0.0
 10
69.54941540144945
 20
27.58660209813807
 30
0.0
 10
69.73148869784491
 20
27.40022243238606
 30
0.0
 10
69.73148869784491
 20
27.40022243238606
 30
0.0
 10
69.353561723113
 20
27.05020073108467
 30
0.0
 10
69.353561723113
 20
27.05020073108467
 30
0.0
 10
69.2135185916376
 20
27.20557453746944
 30
0.0
 10
69.03144529524214
 20
27.35336913378666
 30
0.0
 10
68.80785859824942
 20
27.4932400104878
 30
0.0
 10
68.80785859824942
 20
27.4932400104878
 30
0.0
 10
69.16459823574705
 20
27.84326171178919
 30
0.0
 10
69.16459823574705
 20
27.84326171178919
 30
0.0
  0
HATCH
  5
11D
330
9F
100
AcDbEntity
  8
0
 62
    18
100
AcDbHatch
 10
0.0
 20
0.0
 30
0.0
210
0.0
220
0.0
230
1.0
  2
SOLID
 70
     1
 71
     0
 91
        3
 92
        1
 93
        1
 72
     4
 94
        3
 73
     0
 74
     1
 95
       65
 96
       61
 40
0.0
 40
0.0
 40
0.0
 40
0.0
 40
1.0
 40
1.0
 40
1.0
 40
2.0
 40
2.0
 40
2.0
 40
3.0
 40
3.0
 40
3.0
 40
4.0
 40
4.0
 40
4.0
 40
5.0
 40
5.0
 40
5.0
 40
6.0
 40
6.0
 40
6.0
 40
7.0
 40
7.0
 40
7.0
 40
8.0
 40
8.0
 40
8.0
 40
9.0
 40
9.0
 40
9.0
 40
10.0
 40
10.0
 40
10.0
 40
11.0
 40
11.0
 40
11.0
 40
12.0
 40
12.0
 40
12.0
 40
13.0
 40
13.0
 40
13.0
 40
14.0
 40
14.0
 40
14.0
 40
15.0
 40
15.0
 40
15.0
 40
16.0
 40
16.0
 40
16.0
 40
17.0
 40
17.0
 40
17.0
 40
18.0
 40
18.0
 40
18.0
 40
19.0
 40
19.0
 40
19.0
 40
20.0
 40
20.0
 40
20.0
 40
20.0
 10
69.01766491330115
 20
24.06468098356716
 10
69.19939370014806
 20
23.69157714251461
 10
69.3604519140835
 20
23.50485296721407
 10
69.5004950455589
 20
23.50485296721407
 10
69.55630559241996
 20
23.50485296721407
 10
69.5914455663695
 20
23.55170626581346
 10
69.60539820308476
 20
23.64472384391521
 10
69.60539820308476
 20
23.64472384391521
 10
69.64742836800481
 20
24.04125433426746
 10
69.64742836800481
 20
24.04125433426746
 10
69.64742836800481
 20
24.04125433426746
 10
70.10924341780256
 20
23.80802136991605
 10
70.10924341780256
 20
23.80802136991605
 10
70.10924341780256
 20
23.80802136991605
 10
70.02535534273672
 20
23.24819335356295
 10
70.02535534273672
 20
23.24819335356295
 10
69.98332517781667
 20
22.98429903939282
 10
69.85740693783079
 20
22.85200737275922
 10
69.64742836800481
 20
22.85200737275922
 10
69.22764348312712
 20
22.85200737275922
 10
68.87073159085524
 20
23.17067870514483
 10
68.57686494596342
 20
23.80802136991605
 10
68.29677868301262
 20
24.41470268486855
 10
68.14984536056672
 20
25.26943087475903
 10
68.13606497862571
 20
26.37392848733013
 10
68.13606497862571
 20
26.37392848733013
 10
65.55396591243095
 20
26.37392848733013
 10
65.55396591243095
 20
26.37392848733013
 10
65.55396591243095
 20
26.37392848733013
 10
65.55396591243095
 20
26.88690320508383
 10
65.55396591243095
 20
26.88690320508383
 10
65.55396591243095
 20
26.88690320508383
 10
68.11504989616569
 20
26.88690320508383
 10
68.11504989616569
 20
26.88690320508383
 10
68.11504989616569
 20
26.88690320508383
 10
68.11504989616569
 20
27.96005044873916
 10
68.11504989616569
 20
27.96005044873916
 10
68.11504989616569
 20
27.96005044873916
 10
68.57686494596342
 20
27.96005044873916
 10
68.57686494596342
 20
27.96005044873916
 10
68.7165635678903
 20
27.92870007982338
 10
68.72379826840933
 20
27.86668836108888
 10
68.59788002842345
 20
27.77332627343861
 10
68.59788002842345
 20
27.77332627343861
 10
68.59788002842345
 20
26.88690320508383
 10
68.59788002842345
 20
26.88690320508383
 10
68.59788002842345
 20
26.88690320508383
 10
70.06721325288251
 20
26.88690320508383
 10
70.06721325288251
 20
26.88690320508383
 10
70.06721325288251
 20
26.88690320508383
 10
70.06721325288251
 20
26.37392848733013
 10
70.06721325288251
 20
26.37392848733013
 10
70.06721325288251
 20
26.37392848733013
 10
68.59788002842345
 20
26.37392848733013
 10
68.59788002842345
 20
26.37392848733013
 10
68.6536905752845
 20
25.28527831399118
 10
68.79373370675991
 20
24.51564398258637
 10
69.01766491330115
 20
24.06468098356716
 10
69.01766491330115
 20
24.06468098356716
 10
69.01766491330115
 20
24.06468098356716
 10
69.01766491330115
 20
24.06468098356716
 97
        0
 92
        1
 93
        1
 72
     4
 94
        3
 73
     0
 74
     1
 95
       44
 96
       40
 40
0.0
 40
0.0
 40
0.0
 40
0.0
 40
1.0
 40
1.0
 40
1.0
 40
2.0
 40
2.0
 40
2.0
 40
3.0
 40
3.0
 40
3.0
 40
4.0
 40
4.0
 40
4.0
 40
5.0
 40
5.0
 40
5.0
 40
6.0
 40
6.0
 40
6.0
 40
7.0
 40
7.0
 40
7.0
 40
8.0
 40
8.0
 40
8.0
 40
9.0
 40
9.0
 40
9.0
 40
10.0
 40
10.0
 40
10.0
 40
11.0
 40
11.0
 40
11.0
 40
12.0
 40
12.0
 40
12.0
 40
13.0
 40
13.0
 40
13.0
 40
13.0
 10
68.19893797123152
 20
23.64472384391521
 10
67.41500649356291
 20
23.45834417816319
 10
66.62470158924661
 20
23.28712293254627
 10
65.826989729637
 20
23.13174912616151
 10
65.79873994665796
 20
22.99187824946036
 10
65.74981959076742
 20
22.97637531977674
 10
65.6800564071911
 20
23.08524033711064
 10
65.6800564071911
 20
23.08524033711064
 10
65.57498099489098
 20
23.66815049321491
 10
65.57498099489098
 20
23.66815049321491
 10
65.92465818664384
 20
23.69915635258216
 10
66.26778969697472
 20
23.74566514163303
 10
66.60368650678659
 20
23.80802136991605
 10
66.60368650678659
 20
23.80802136991605
 10
66.60368650678659
 20
25.13748371767396
 10
66.60368650678659
 20
25.13748371767396
 10
66.60368650678659
 20
25.13748371767396
 10
65.76394448225693
 20
25.13748371767396
 10
65.76394448225693
 20
25.13748371767396
 10
65.76394448225693
 20
25.13748371767396
 10
65.76394448225693
 20
25.58086750662562
 10
65.76394448225693
 20
25.58086750662562
 10
65.76394448225693
 20
25.58086750662562
 10
67.8421983337339
 20
25.58086750662562
 10
67.8421983337339
 20
25.58086750662562
 10
67.8421983337339
 20
25.58086750662562
 10
67.8421983337339
 20
25.13748371767396
 10
67.8421983337339
 20
25.13748371767396
 10
67.8421983337339
 20
25.13748371767396
 10
67.02347139166427
 20
25.13748371767396
 10
67.02347139166427
 20
25.13748371767396
 10
67.02347139166427
 20
25.13748371767396
 10
67.02347139166427
 20
23.87795680826662
 10
67.02347139166427
 20
23.87795680826662
 10
67.34524330998661
 20
23.92481010686602
 10
67.71610783897376
 20
23.99474554521659
 10
68.13606497862571
 20
24.08810763286686
 10
68.13606497862571
 20
24.08810763286686
 10
68.19893797123152
 20
23.64472384391521
 10
68.19893797123152
 20
23.64472384391521
 97
        0
 92
        1
 93
        1
 72
     4
 94
        3
 73
     0
 74
     1
 95
       17
 96
       13
 40
0.0
 40
0.0
 40
0.0
 40
0.0
 40
1.0
 40
1.0
 40
1.0
 40
2.0
 40
2.0
 40
2.0
 40
3.0
 40
3.0
 40
3.0
 40
4.0
 40
4.0
 40
4.0
 40
4.0
 10
69.16459823574705
 20
27.84326171178919
 10
69.3604519140835
 20
27.73439669445529
 10
69.54941540144945
 20
27.58660209813807
 10
69.73148869784491
 20
27.40022243238606
 10
69.73148869784491
 20
27.40022243238606
 10
69.353561723113
 20
27.05020073108467
 10
69.353561723113
 20
27.05020073108467
 10
69.2135185916376
 20
27.20557453746944
 10
69.03144529524214
 20
27.35336913378666
 10
68.80785859824942
 20
27.4932400104878
 10
68.80785859824942
 20
27.4932400104878
 10
69.16459823574705
 20
27.84326171178919
 10
69.16459823574705
 20
27.84326171178919
 97
        0
 75
     2
 76
     1
 98
        0
  0
SPLINE
  5
11E
330
9F
100
AcDbEntity
  8
0
100
AcDbSpline
210
0.0
220
0.0
230
1.0
 70
    11
 71
     3
 72
    38
 73
    34
 74
     0
 42
0.0000000001
 43
0.0000000001
 40
0.0
 40
0.0
 40
0.0
 40
0.0
 40
1.0
 40
1.0
 40
1.0
 40
2.0
 40
2.0
 40
2.0
 40
3.0
 40
3.0
 40
3.0
 40
4.0
 40
4.0
 40
4.0
 40
5.0
 40
5.0
 40
5.0
 40
6.0
 40
6.0
 40
6.0
 40
7.0
 40
7.0
 40
7.0
 40
8.0
 40
8.0
 40
8.0
 40
9.0
 40
9.0
 40
9.0
 40
10.0
 40
10.0
 40
10.0
 40
11.0
 40
11.0
 40
11.0
 40
11.0
 10
75.31529946033784
 20
25.69731173402706
 30
0.0
 10
75.07707110753282
 20
25.75932345276156
 30
0.0
 10
74.76218938018098
 20
25.91504176869485
 30
0.0
 10
74.37065427828234
 20
26.16377766272989
 30
0.0
 10
74.37065427828234
 20
26.16377766272989
 30
0.0
 10
74.37065427828234
 20
25.67422959427589
 30
0.0
 10
74.37065427828234
 20
25.67422959427589
 30
0.0
 10
74.37065427828234
 20
25.67422959427589
 30
0.0
 10
71.99853378191357
 20
25.67422959427589
 30
0.0
 10
71.99853378191357
 20
25.67422959427589
 30
0.0
 10
71.99853378191357
 20
25.67422959427589
 30
0.0
 10
71.99853378191357
 20
26.14069552297872
 30
0.0
 10
71.99853378191357
 20
26.14069552297872
 30
0.0
 10
71.62077906195591
 20
25.84510633034428
 30
0.0
 10
71.26386716968403
 20
25.64287922536012
 30
0.0
 10
70.92797035987218
 20
25.53401420802622
 30
0.0
 10
70.92797035987218
 20
25.53401420802622
 30
0.0
 10
70.73900687250622
 20
26.09384222437932
 30
0.0
 10
70.73900687250622
 20
26.09384222437932
 30
0.0
 10
71.71844751896275
 20
26.38908690746523
 30
0.0
 10
72.44622394022178
 20
27.02677408178497
 30
0.0
 10
72.92216388150905
 20
28.00655923779003
 30
0.0
 10
72.92216388150905
 20
28.00655923779003
 30
0.0
 10
73.36296384884676
 20
27.93662379943946
 30
0.0
 10
73.36296384884676
 20
27.93662379943946
 30
0.0
 10
73.47492945211738
 20
27.92077636020731
 30
0.0
 10
73.48181964308789
 20
27.87426757115643
 30
0.0
 10
73.38397893130679
 20
27.79675292273831
 30
0.0
 10
73.831669089615
 20
27.05020073108467
 30
0.0
 10
74.54549287415877
 20
26.53722601333097
 30
0.0
 10
75.52510577538956
 20
26.25713975038016
 30
0.0
 10
75.52510577538956
 20
26.25713975038016
 30
0.0
 10
75.31529946033784
 20
25.69731173402706
 30
0.0
 10
75.31529946033784
 20
25.69731173402706
 30
0.0
  0
SPLINE
  5
11F
330
9F
100
AcDbEntity
  8
0
100
AcDbSpline
210
0.0
220
0.0
230
1.0
 70
    11
 71
     3
 72
    59
 73
    55
 74
     0
 42
0.0000000001
 43
0.0000000001
 40
0.0
 40
0.0
 40
0.0
 40
0.0
 40
1.0
 40
1.0
 40
1.0
 40
2.0
 40
2.0
 40
2.0
 40
3.0
 40
3.0
 40
3.0
 40
4.0
 40
4.0
 40
4.0
 40
5.0
 40
5.0
 40
5.0
 40
6.0
 40
6.0
 40
6.0
 40
7.0
 40
7.0
 40
7.0
 40
8.0
 40
8.0
 40
8.0
 40
9.0
 40
9.0
 40
9.0
 40
10.0
 40
10.0
 40
10.0
 40
11.0
 40
11.0
 40
11.0
 40
12.0
 40
12.0
 40
12.0
 40
13.0
 40
13.0
 40
13.0
 40
14.0
 40
14.0
 40
14.0
 40
15.0
 40
15.0
 40
15.0
 40
16.0
 40
16.0
 40
16.0
 40
17.0
 40
17.0
 40
17.0
 40
18.0
 40
18.0
 40
18.0
 40
18.0
 10
74.8534844105401
 20
22.73521863580925
 30
0.0
 10
74.74134655249522
 20
22.90643988142617
 30
0.0
 10
74.60836586676457
 20
23.06973740742701
 30
0.0
 10
74.45454235334817
 20
23.22511121381178
 30
0.0
 10
74.45454235334817
 20
23.22511121381178
 30
0.0
 10
71.41080049212994
 20
22.85200737275922
 30
0.0
 10
71.41080049212994
 20
22.85200737275922
 30
0.0
 10
71.34052054423084
 20
22.77414821479258
 30
0.0
 10
71.27764755162504
 20
22.75864528510895
 30
0.0
 10
71.22183700476398
 20
22.80515407415982
 30
0.0
 10
71.22183700476398
 20
22.80515407415982
 30
0.0
 10
71.07490368231808
 20
23.38840873981262
 30
0.0
 10
71.07490368231808
 20
23.38840873981262
 30
0.0
 10
71.07490368231808
 20
23.38840873981262
 30
0.0
 10
71.93566078930776
 20
23.43491752886349
 30
0.0
 10
71.93566078930776
 20
23.43491752886349
 30
0.0
 10
71.93566078930776
 20
23.43491752886349
 30
0.0
 10
72.52339407909137
 20
24.62450899992026
 30
0.0
 10
72.52339407909137
 20
24.62450899992026
 30
0.0
 10
72.52339407909137
 20
24.62450899992026
 30
0.0
 10
71.011858434938
 20
24.62450899992026
 30
0.0
 10
71.011858434938
 20
24.62450899992026
 30
0.0
 10
71.011858434938
 20
24.62450899992026
 30
0.0
 10
71.011858434938
 20
25.13748371767396
 30
0.0
 10
71.011858434938
 20
25.13748371767396
 30
0.0
 10
71.011858434938
 20
25.13748371767396
 30
0.0
 10
75.31529946033784
 20
25.13748371767396
 30
0.0
 10
75.31529946033784
 20
25.13748371767396
 30
0.0
 10
75.31529946033784
 20
25.13748371767396
 30
0.0
 10
75.31529946033784
 20
24.62450899992026
 30
0.0
 10
75.31529946033784
 20
24.62450899992026
 30
0.0
 10
75.31529946033784
 20
24.62450899992026
 30
0.0
 10
73.04808212149493
 20
24.62450899992026
 30
0.0
 10
73.04808212149493
 20
24.62450899992026
 30
0.0
 10
73.04808212149493
 20
24.62450899992026
 30
0.0
 10
72.41831866679125
 20
23.45834417816319
 30
0.0
 10
72.41831866679125
 20
23.45834417816319
 30
0.0
 10
72.41831866679125
 20
23.45834417816319
 30
0.0
 10
74.13966062599634
 20
23.59821505486434
 30
0.0
 10
74.13966062599634
 20
23.59821505486434
 30
0.0
 10
73.95775958437515
 20
23.78493923016488
 30
0.0
 10
73.75467120551967
 20
23.97131889591689
 30
0.0
 10
73.53091225375269
 20
24.15804307121743
 30
0.0
 10
73.53091225375269
 20
24.15804307121743
 30
0.0
 10
73.9088392284846
 20
24.43778482461972
 30
0.0
 10
73.9088392284846
 20
24.43778482461972
 30
0.0
 10
74.58063284810832
 20
23.87795680826662
 30
0.0
 10
75.04244789790606
 20
23.4114908795638
 30
0.0
 10
75.29428437787782
 20
23.03838703851124
 30
0.0
 10
75.29428437787782
 20
23.03838703851124
 30
0.0
 10
74.8534844105401
 20
22.73521863580925
 30
0.0
 10
74.8534844105401
 20
22.73521863580925
 30
0.0
 10
74.8534844105401
 20
22.73521863580925
 30
0.0
 10
74.8534844105401
 20
22.73521863580925
 30
0.0
 10
74.8534844105401
 20
22.73521863580925
 30
0.0
  0
SPLINE
  5
120
330
9F
100
AcDbEntity
  8
0
100
AcDbSpline
210
0.0
220
0.0
230
1.0
 70
    11
 71
     3
 72
    14
 73
    10
 74
     0
 42
0.0000000001
 43
0.0000000001
 40
0.0
 40
0.0
 40
0.0
 40
0.0
 40
1.0
 40
1.0
 40
1.0
 40
2.0
 40
2.0
 40
2.0
 40
3.0
 40
3.0
 40
3.0
 40
3.0
 10
74.3286241133623
 20
26.18720431202959
 30
0.0
 10
73.8385592805855
 20
26.4824489951155
 30
0.0
 10
73.43978947816784
 20
26.92548827451863
 30
0.0
 10
73.13214245133503
 20
27.5166666597875
 30
0.0
 10
72.82415091495369
 20
26.9568386434344
 30
0.0
 10
72.46723902268181
 20
26.51379936403128
 30
0.0
 10
72.06157902929364
 20
26.18720431202959
 30
0.0
 10
72.06157902929364
 20
26.18720431202959
 30
0.0
 10
74.3286241133623
 20
26.18720431202959
 30
0.0
 10
74.3286241133623
 20
26.18720431202959
 30
0.0
  0
HATCH
  5
121
330
9F
100
AcDbEntity
  8
0
 62
    18
100
AcDbHatch
 10
0.0
 20
0.0
 30
0.0
210
0.0
220
0.0
230
1.0
  2
SOLID
 70
     1
 71
     0
 91
        3
 92
        1
 93
        1
 72
     4
 94
        3
 73
     0
 74
     1
 95
       38
 96
       34
 40
0.0
 40
0.0
 40
0.0
 40
0.0
 40
1.0
 40
1.0
 40
1.0
 40
2.0
 40
2.0
 40
2.0
 40
3.0
 40
3.0
 40
3.0
 40
4.0
 40
4.0
 40
4.0
 40
5.0
 40
5.0
 40
5.0
 40
6.0
 40
6.0
 40
6.0
 40
7.0
 40
7.0
 40
7.0
 40
8.0
 40
8.0
 40
8.0
 40
9.0
 40
9.0
 40
9.0
 40
10.0
 40
10.0
 40
10.0
 40
11.0
 40
11.0
 40
11.0
 40
11.0
 10
75.31529946033784
 20
25.69731173402706
 10
75.07707110753282
 20
25.75932345276156
 10
74.76218938018098
 20
25.91504176869485
 10
74.37065427828234
 20
26.16377766272989
 10
74.37065427828234
 20
26.16377766272989
 10
74.37065427828234
 20
25.67422959427589
 10
74.37065427828234
 20
25.67422959427589
 10
74.37065427828234
 20
25.67422959427589
 10
71.99853378191357
 20
25.67422959427589
 10
71.99853378191357
 20
25.67422959427589
 10
71.99853378191357
 20
25.67422959427589
 10
71.99853378191357
 20
26.14069552297872
 10
71.99853378191357
 20
26.14069552297872
 10
71.62077906195591
 20
25.84510633034428
 10
71.26386716968403
 20
25.64287922536012
 10
70.92797035987218
 20
25.53401420802622
 10
70.92797035987218
 20
25.53401420802622
 10
70.73900687250622
 20
26.09384222437932
 10
70.73900687250622
 20
26.09384222437932
 10
71.71844751896275
 20
26.38908690746523
 10
72.44622394022178
 20
27.02677408178497
 10
72.92216388150905
 20
28.00655923779003
 10
72.92216388150905
 20
28.00655923779003
 10
73.36296384884676
 20
27.93662379943946
 10
73.36296384884676
 20
27.93662379943946
 10
73.47492945211738
 20
27.92077636020731
 10
73.48181964308789
 20
27.87426757115643
 10
73.38397893130679
 20
27.79675292273831
 10
73.831669089615
 20
27.05020073108467
 10
74.54549287415877
 20
26.53722601333097
 10
75.52510577538956
 20
26.25713975038016
 10
75.52510577538956
 20
26.25713975038016
 10
75.31529946033784
 20
25.69731173402706
 10
75.31529946033784
 20
25.69731173402706
 97
        0
 92
        1
 93
        1
 72
     4
 94
        3
 73
     0
 74
     1
 95
       59
 96
       55
 40
0.0
 40
0.0
 40
0.0
 40
0.0
 40
1.0
 40
1.0
 40
1.0
 40
2.0
 40
2.0
 40
2.0
 40
3.0
 40
3.0
 40
3.0
 40
4.0
 40
4.0
 40
4.0
 40
5.0
 40
5.0
 40
5.0
 40
6.0
 40
6.0
 40
6.0
 40
7.0
 40
7.0
 40
7.0
 40
8.0
 40
8.0
 40
8.0
 40
9.0
 40
9.0
 40
9.0
 40
10.0
 40
10.0
 40
10.0
 40
11.0
 40
11.0
 40
11.0
 40
12.0
 40
12.0
 40
12.0
 40
13.0
 40
13.0
 40
13.0
 40
14.0
 40
14.0
 40
14.0
 40
15.0
 40
15.0
 40
15.0
 40
16.0
 40
16.0
 40
16.0
 40
17.0
 40
17.0
 40
17.0
 40
18.0
 40
18.0
 40
18.0
 40
18.0
 10
74.8534844105401
 20
22.73521863580925
 10
74.74134655249522
 20
22.90643988142617
 10
74.60836586676457
 20
23.06973740742701
 10
74.45454235334817
 20
23.22511121381178
 10
74.45454235334817
 20
23.22511121381178
 10
71.41080049212994
 20
22.85200737275922
 10
71.41080049212994
 20
22.85200737275922
 10
71.34052054423084
 20
22.77414821479258
 10
71.27764755162504
 20
22.75864528510895
 10
71.22183700476398
 20
22.80515407415982
 10
71.22183700476398
 20
22.80515407415982
 10
71.07490368231808
 20
23.38840873981262
 10
71.07490368231808
 20
23.38840873981262
 10
71.07490368231808
 20
23.38840873981262
 10
71.93566078930776
 20
23.43491752886349
 10
71.93566078930776
 20
23.43491752886349
 10
71.93566078930776
 20
23.43491752886349
 10
72.52339407909137
 20
24.62450899992026
 10
72.52339407909137
 20
24.62450899992026
 10
72.52339407909137
 20
24.62450899992026
 10
71.011858434938
 20
24.62450899992026
 10
71.011858434938
 20
24.62450899992026
 10
71.011858434938
 20
24.62450899992026
 10
71.011858434938
 20
25.13748371767396
 10
71.011858434938
 20
25.13748371767396
 10
71.011858434938
 20
25.13748371767396
 10
75.31529946033784
 20
25.13748371767396
 10
75.31529946033784
 20
25.13748371767396
 10
75.31529946033784
 20
25.13748371767396
 10
75.31529946033784
 20
24.62450899992026
 10
75.31529946033784
 20
24.62450899992026
 10
75.31529946033784
 20
24.62450899992026
 10
73.04808212149493
 20
24.62450899992026
 10
73.04808212149493
 20
24.62450899992026
 10
73.04808212149493
 20
24.62450899992026
 10
72.41831866679125
 20
23.45834417816319
 10
72.41831866679125
 20
23.45834417816319
 10
72.41831866679125
 20
23.45834417816319
 10
74.13966062599634
 20
23.59821505486434
 10
74.13966062599634
 20
23.59821505486434
 10
73.95775958437515
 20
23.78493923016488
 10
73.75467120551967
 20
23.97131889591689
 10
73.53091225375269
 20
24.15804307121743
 10
73.53091225375269
 20
24.15804307121743
 10
73.9088392284846
 20
24.43778482461972
 10
73.9088392284846
 20
24.43778482461972
 10
74.58063284810832
 20
23.87795680826662
 10
75.04244789790606
 20
23.4114908795638
 10
75.29428437787782
 20
23.03838703851124
 10
75.29428437787782
 20
23.03838703851124
 10
74.8534844105401
 20
22.73521863580925
 10
74.8534844105401
 20
22.73521863580925
 10
74.8534844105401
 20
22.73521863580925
 10
74.8534844105401
 20
22.73521863580925
 10
74.8534844105401
 20
22.73521863580925
 97
        0
 92
        1
 93
        1
 72
     4
 94
        3
 73
     0
 74
     1
 95
       14
 96
       10
 40
0.0
 40
0.0
 40
0.0
 40
0.0
 40
1.0
 40
1.0
 40
1.0
 40
2.0
 40
2.0
 40
2.0
 40
3.0
 40
3.0
 40
3.0
 40
3.0
 10
74.3286241133623
 20
26.18720431202959
 10
73.8385592805855
 20
26.4824489951155
 10
73.43978947816784
 20
26.92548827451863
 10
73.13214245133503
 20
27.5166666597875
 10
72.82415091495369
 20
26.9568386434344
 10
72.46723902268181
 20
26.51379936403128
 10
72.06157902929364
 20
26.18720431202959
 10
72.06157902929364
 20
26.18720431202959
 10
74.3286241133623
 20
26.18720431202959
 10
74.3286241133623
 20
26.18720431202959
 97
        0
 75
     2
 76
     1
 98
        0
  0
SPLINE
  5
122
330
9F
100
AcDbEntity
  8
0
100
AcDbSpline
210
0.0
220
0.0
230
1.0
 70
    11
 71
     3
 72
    68
 73
    64
 74
     0
 42
0.0000000001
 43
0.0000000001
 40
0.0
 40
0.0
 40
0.0
 40
0.0
 40
1.0
 40
1.0
 40
1.0
 40
2.0
 40
2.0
 40
2.0
 40
3.0
 40
3.0
 40
3.0
 40
4.0
 40
4.0
 40
4.0
 40
5.0
 40
5.0
 40
5.0
 40
6.0
 40
6.0
 40
6.0
 40
7.0
 40
7.0
 40
7.0
 40
8.0
 40
8.0
 40
8.0
 40
9.0
 40
9.0
 40
9.0
 40
10.0
 40
10.0
 40
10.0
 40
11.0
 40
11.0
 40
11.0
 40
12.0
 40
12.0
 40
12.0
 40
13.0
 40
13.0
 40
13.0
 40
14.0
 40
14.0
 40
14.0
 40
15.0
 40
15.0
 40
15.0
 40
16.0
 40
16.0
 40
16.0
 40
17.0
 40
17.0
 40
17.0
 40
18.0
 40
18.0
 40
18.0
 40
19.0
 40
19.0
 40
19.0
 40
20.0
 40
20.0
 40
20.0
 40
21.0
 40
21.0
 40
21.0
 40
21.0
 10
77.43541122196059
 20
26.9802652927341
 30
0.0
 10
77.43541122196059
 20
26.9802652927341
 30
0.0
 10
77.87621118929832
 20
26.9802652927341
 30
0.0
 10
77.87621118929832
 20
26.9802652927341
 30
0.0
 10
77.87621118929832
 20
26.9802652927341
 30
0.0
 10
77.9602715191384
 20
27.07362738038437
 30
0.0
 10
77.9602715191384
 20
27.07362738038437
 30
0.0
 10
77.9602715191384
 20
27.07362738038437
 30
0.0
 10
78.27515324649025
 20
26.72360567908299
 30
0.0
 10
78.27515324649025
 20
26.72360567908299
 30
0.0
 10
78.27515324649025
 20
26.72360567908299
 30
0.0
 10
78.12821992404433
 20
26.60716145168155
 30
0.0
 10
78.12821992404433
 20
26.60716145168155
 30
0.0
 10
77.9602715191384
 20
26.24921603076409
 30
0.0
 10
77.7292778668524
 20
25.86818847009545
 30
0.0
 10
77.43541122196059
 20
25.46407876967565
 30
0.0
 10
77.78508841371345
 20
25.33971082265813
 30
0.0
 10
78.09307995009479
 20
25.17641329665729
 30
0.0
 10
78.35904132155608
 20
24.97453070122165
 30
0.0
 10
78.35904132155608
 20
24.97453070122165
 30
0.0
 10
78.12821992404433
 20
24.46121147391942
 30
0.0
 10
78.12821992404433
 20
24.46121147391942
 30
0.0
 10
77.8899915712393
 20
24.67894150858721
 30
0.0
 10
77.65917017372757
 20
24.85774196427168
 30
0.0
 10
77.43541122196059
 20
24.99761284097282
 30
0.0
 10
77.43541122196059
 20
24.99761284097282
 30
0.0
 10
77.43541122196059
 20
22.68870984675838
 30
0.0
 10
77.43541122196059
 20
22.68870984675838
 30
0.0
 10
77.43541122196059
 20
22.68870984675838
 30
0.0
 10
77.0156263370829
 20
22.68870984675838
 30
0.0
 10
77.0156263370829
 20
22.68870984675838
 30
0.0
 10
77.0156263370829
 20
22.68870984675838
 30
0.0
 10
77.0156263370829
 20
24.99761284097282
 30
0.0
 10
77.0156263370829
 20
24.99761284097282
 30
0.0
 10
76.76378985711114
 20
24.74887694693778
 30
0.0
 10
76.50454642184609
 20
24.53872612233754
 30
0.0
 10
76.23892955993333
 20
24.36784938626915
 30
0.0
 10
76.23892955993333
 20
24.36784938626915
 30
0.0
 10
76.04996607256737
 20
24.83431531497198
 30
0.0
 10
76.04996607256737
 20
24.83431531497198
 30
0.0
 10
76.72175969219109
 20
25.23842501539178
 30
0.0
 10
77.24661998936891
 20
25.80617675136096
 30
0.0
 10
77.62437470932655
 20
26.53722601333097
 30
0.0
 10
77.62437470932655
 20
26.53722601333097
 30
0.0
 10
76.23892955993333
 20
26.53722601333097
 30
0.0
 10
76.23892955993333
 20
26.53722601333097
 30
0.0
 10
76.23892955993333
 20
26.53722601333097
 30
0.0
 10
76.23892955993333
 20
26.9802652927341
 30
0.0
 10
76.23892955993333
 20
26.9802652927341
 30
0.0
 10
76.23892955993333
 20
26.9802652927341
 30
0.0
 10
77.0156263370829
 20
26.9802652927341
 30
0.0
 10
77.0156263370829
 20
26.9802652927341
 30
0.0
 10
77.0156263370829
 20
26.9802652927341
 30
0.0
 10
77.0156263370829
 20
27.98313258849033
 30
0.0
 10
77.0156263370829
 20
27.98313258849033
 30
0.0
 10
77.0156263370829
 20
27.98313258849033
 30
0.0
 10
77.41439613950057
 20
27.98313258849033
 30
0.0
 10
77.41439613950057
 20
27.98313258849033
 30
0.0
 10
77.52636174277119
 20
27.9676296588067
 30
0.0
 10
77.5332519337417
 20
27.92077636020731
 30
0.0
 10
77.43541122196059
 20
27.84326171178919
 30
0.0
 10
77.43541122196059
 20
27.84326171178919
 30
0.0
 10
77.43541122196059
 20
26.9802652927341
 30
0.0
 10
77.43541122196059
 20
26.9802652927341
 30
0.0
  0
SPLINE
  5
123
330
9F
100
AcDbEntity
  8
0
100
AcDbSpline
210
0.0
220
0.0
230
1.0
 70
    11
 71
     3
 72
    59
 73
    55
 74
     0
 42
0.0000000001
 43
0.0000000001
 40
0.0
 40
0.0
 40
0.0
 40
0.0
 40
1.0
 40
1.0
 40
1.0
 40
2.0
 40
2.0
 40
2.0
 40
3.0
 40
3.0
 40
3.0
 40
4.0
 40
4.0
 40
4.0
 40
5.0
 40
5.0
 40
5.0
 40
6.0
 40
6.0
 40
6.0
 40
7.0
 40
7.0
 40
7.0
 40
8.0
 40
8.0
 40
8.0
 40
9.0
 40
9.0
 40
9.0
 40
10.0
 40
10.0
 40
10.0
 40
11.0
 40
11.0
 40
11.0
 40
12.0
 40
12.0
 40
12.0
 40
13.0
 40
13.0
 40
13.0
 40
14.0
 40
14.0
 40
14.0
 40
15.0
 40
15.0
 40
15.0
 40
16.0
 40
16.0
 40
16.0
 40
17.0
 40
17.0
 40
17.0
 40
18.0
 40
18.0
 40
18.0
 40
18.0
 10
79.72364364326354
 20
27.84326171178919
 30
0.0
 10
79.86334226519041
 20
27.81191134287341
 30
0.0
 10
79.87057696570945
 20
27.74989962413892
 30
0.0
 10
79.74465872572357
 20
27.65653753648865
 30
0.0
 10
79.74465872572357
 20
27.65653753648865
 30
0.0
 10
79.74465872572357
 20
26.420437276381
 30
0.0
 10
79.74465872572357
 20
26.420437276381
 30
0.0
 10
79.74465872572357
 20
26.420437276381
 30
0.0
 10
80.71014673546483
 20
26.420437276381
 30
0.0
 10
80.71014673546483
 20
26.420437276381
 30
0.0
 10
80.71014673546483
 20
26.420437276381
 30
0.0
 10
80.71014673546483
 20
25.9074625586273
 30
0.0
 10
80.71014673546483
 20
25.9074625586273
 30
0.0
 10
80.71014673546483
 20
25.9074625586273
 30
0.0
 10
79.74465872572357
 20
25.9074625586273
 30
0.0
 10
79.74465872572357
 20
25.9074625586273
 30
0.0
 10
79.74465872572357
 20
25.9074625586273
 30
0.0
 10
79.74465872572357
 20
23.48177082746289
 30
0.0
 10
79.74465872572357
 20
23.48177082746289
 30
0.0
 10
79.74465872572357
 20
23.48177082746289
 30
0.0
 10
80.89911022283079
 20
23.48177082746289
 30
0.0
 10
80.89911022283079
 20
23.48177082746289
 30
0.0
 10
80.89911022283079
 20
23.48177082746289
 30
0.0
 10
80.89911022283079
 20
22.96845160016067
 30
0.0
 10
80.89911022283079
 20
22.96845160016067
 30
0.0
 10
80.89911022283079
 20
22.96845160016067
 30
0.0
 10
78.02314451174422
 20
22.96845160016067
 30
0.0
 10
78.02314451174422
 20
22.96845160016067
 30
0.0
 10
78.02314451174422
 20
22.96845160016067
 30
0.0
 10
78.02314451174422
 20
23.48177082746289
 30
0.0
 10
78.02314451174422
 20
23.48177082746289
 30
0.0
 10
78.02314451174422
 20
23.48177082746289
 30
0.0
 10
79.2618285934658
 20
23.48177082746289
 30
0.0
 10
79.2618285934658
 20
23.48177082746289
 30
0.0
 10
79.2618285934658
 20
23.48177082746289
 30
0.0
 10
79.2618285934658
 20
25.9074625586273
 30
0.0
 10
79.2618285934658
 20
25.9074625586273
 30
0.0
 10
79.2618285934658
 20
25.9074625586273
 30
0.0
 10
78.35904132155608
 20
25.9074625586273
 30
0.0
 10
78.35904132155608
 20
25.9074625586273
 30
0.0
 10
78.35904132155608
 20
25.9074625586273
 30
0.0
 10
78.35904132155608
 20
26.420437276381
 30
0.0
 10
78.35904132155608
 20
26.420437276381
 30
0.0
 10
78.35904132155608
 20
26.420437276381
 30
0.0
 10
79.2618285934658
 20
26.420437276381
 30
0.0
 10
79.2618285934658
 20
26.420437276381
 30
0.0
 10
79.2618285934658
 20
26.420437276381
 30
0.0
 10
79.2618285934658
 20
27.84326171178919
 30
0.0
 10
79.2618285934658
 20
27.84326171178919
 30
0.0
 10
79.2618285934658
 20
27.84326171178919
 30
0.0
 10
79.72364364326354
 20
27.84326171178919
 30
0.0
 10
79.72364364326354
 20
27.84326171178919
 30
0.0
 10
79.72364364326354
 20
27.84326171178919
 30
0.0
 10
79.72364364326354
 20
27.84326171178919
 30
0.0
 10
79.72364364326354
 20
27.84326171178919
 30
0.0
  0
HATCH
  5
124
330
9F
100
AcDbEntity
  8
0
 62
    18
100
AcDbHatch
 10
0.0
 20
0.0
 30
0.0
210
0.0
220
0.0
230
1.0
  2
SOLID
 70
     1
 71
     0
 91
        2
 92
        1
 93
        1
 72
     4
 94
        3
 73
     0
 74
     1
 95
       68
 96
       64
 40
0.0
 40
0.0
 40
0.0
 40
0.0
 40
1.0
 40
1.0
 40
1.0
 40
2.0
 40
2.0
 40
2.0
 40
3.0
 40
3.0
 40
3.0
 40
4.0
 40
4.0
 40
4.0
 40
5.0
 40
5.0
 40
5.0
 40
6.0
 40
6.0
 40
6.0
 40
7.0
 40
7.0
 40
7.0
 40
8.0
 40
8.0
 40
8.0
 40
9.0
 40
9.0
 40
9.0
 40
10.0
 40
10.0
 40
10.0
 40
11.0
 40
11.0
 40
11.0
 40
12.0
 40
12.0
 40
12.0
 40
13.0
 40
13.0
 40
13.0
 40
14.0
 40
14.0
 40
14.0
 40
15.0
 40
15.0
 40
15.0
 40
16.0
 40
16.0
 40
16.0
 40
17.0
 40
17.0
 40
17.0
 40
18.0
 40
18.0
 40
18.0
 40
19.0
 40
19.0
 40
19.0
 40
20.0
 40
20.0
 40
20.0
 40
21.0
 40
21.0
 40
21.0
 40
21.0
 10
77.43541122196059
 20
26.9802652927341
 10
77.43541122196059
 20
26.9802652927341
 10
77.87621118929832
 20
26.9802652927341
 10
77.87621118929832
 20
26.9802652927341
 10
77.87621118929832
 20
26.9802652927341
 10
77.9602715191384
 20
27.07362738038437
 10
77.9602715191384
 20
27.07362738038437
 10
77.9602715191384
 20
27.07362738038437
 10
78.27515324649025
 20
26.72360567908299
 10
78.27515324649025
 20
26.72360567908299
 10
78.27515324649025
 20
26.72360567908299
 10
78.12821992404433
 20
26.60716145168155
 10
78.12821992404433
 20
26.60716145168155
 10
77.9602715191384
 20
26.24921603076409
 10
77.7292778668524
 20
25.86818847009545
 10
77.43541122196059
 20
25.46407876967565
 10
77.78508841371345
 20
25.33971082265813
 10
78.09307995009479
 20
25.17641329665729
 10
78.35904132155608
 20
24.97453070122165
 10
78.35904132155608
 20
24.97453070122165
 10
78.12821992404433
 20
24.46121147391942
 10
78.12821992404433
 20
24.46121147391942
 10
77.8899915712393
 20
24.67894150858721
 10
77.65917017372757
 20
24.85774196427168
 10
77.43541122196059
 20
24.99761284097282
 10
77.43541122196059
 20
24.99761284097282
 10
77.43541122196059
 20
22.68870984675838
 10
77.43541122196059
 20
22.68870984675838
 10
77.43541122196059
 20
22.68870984675838
 10
77.0156263370829
 20
22.68870984675838
 10
77.0156263370829
 20
22.68870984675838
 10
77.0156263370829
 20
22.68870984675838
 10
77.0156263370829
 20
24.99761284097282
 10
77.0156263370829
 20
24.99761284097282
 10
76.76378985711114
 20
24.74887694693778
 10
76.50454642184609
 20
24.53872612233754
 10
76.23892955993333
 20
24.36784938626915
 10
76.23892955993333
 20
24.36784938626915
 10
76.04996607256737
 20
24.83431531497198
 10
76.04996607256737
 20
24.83431531497198
 10
76.72175969219109
 20
25.23842501539178
 10
77.24661998936891
 20
25.80617675136096
 10
77.62437470932655
 20
26.53722601333097
 10
77.62437470932655
 20
26.53722601333097
 10
76.23892955993333
 20
26.53722601333097
 10
76.23892955993333
 20
26.53722601333097
 10
76.23892955993333
 20
26.53722601333097
 10
76.23892955993333
 20
26.9802652927341
 10
76.23892955993333
 20
26.9802652927341
 10
76.23892955993333
 20
26.9802652927341
 10
77.0156263370829
 20
26.9802652927341
 10
77.0156263370829
 20
26.9802652927341
 10
77.0156263370829
 20
26.9802652927341
 10
77.0156263370829
 20
27.98313258849033
 10
77.0156263370829
 20
27.98313258849033
 10
77.0156263370829
 20
27.98313258849033
 10
77.41439613950057
 20
27.98313258849033
 10
77.41439613950057
 20
27.98313258849033
 10
77.52636174277119
 20
27.9676296588067
 10
77.5332519337417
 20
27.92077636020731
 10
77.43541122196059
 20
27.84326171178919
 10
77.43541122196059
 20
27.84326171178919
 10
77.43541122196059
 20
26.9802652927341
 10
77.43541122196059
 20
26.9802652927341
 97
        0
 92
        1
 93
        1
 72
     4
 94
        3
 73
     0
 74
     1
 95
       59
 96
       55
 40
0.0
 40
0.0
 40
0.0
 40
0.0
 40
1.0
 40
1.0
 40
1.0
 40
2.0
 40
2.0
 40
2.0
 40
3.0
 40
3.0
 40
3.0
 40
4.0
 40
4.0
 40
4.0
 40
5.0
 40
5.0
 40
5.0
 40
6.0
 40
6.0
 40
6.0
 40
7.0
 40
7.0
 40
7.0
 40
8.0
 40
8.0
 40
8.0
 40
9.0
 40
9.0
 40
9.0
 40
10.0
 40
10.0
 40
10.0
 40
11.0
 40
11.0
 40
11.0
 40
12.0
 40
12.0
 40
12.0
 40
13.0
 40
13.0
 40
13.0
 40
14.0
 40
14.0
 40
14.0
 40
15.0
 40
15.0
 40
15.0
 40
16.0
 40
16.0
 40
16.0
 40
17.0
 40
17.0
 40
17.0
 40
18.0
 40
18.0
 40
18.0
 40
18.0
 10
79.72364364326354
 20
27.84326171178919
 10
79.86334226519041
 20
27.81191134287341
 10
79.87057696570945
 20
27.74989962413892
 10
79.74465872572357
 20
27.65653753648865
 10
79.74465872572357
 20
27.65653753648865
 10
79.74465872572357
 20
26.420437276381
 10
79.74465872572357
 20
26.420437276381
 10
79.74465872572357
 20
26.420437276381
 10
80.71014673546483
 20
26.420437276381
 10
80.71014673546483
 20
26.420437276381
 10
80.71014673546483
 20
26.420437276381
 10
80.71014673546483
 20
25.9074625586273
 10
80.71014673546483
 20
25.9074625586273
 10
80.71014673546483
 20
25.9074625586273
 10
79.74465872572357
 20
25.9074625586273
 10
79.74465872572357
 20
25.9074625586273
 10
79.74465872572357
 20
25.9074625586273
 10
79.74465872572357
 20
23.48177082746289
 10
79.74465872572357
 20
23.48177082746289
 10
79.74465872572357
 20
23.48177082746289
 10
80.89911022283079
 20
23.48177082746289
 10
80.89911022283079
 20
23.48177082746289
 10
80.89911022283079
 20
23.48177082746289
 10
80.89911022283079
 20
22.96845160016067
 10
80.89911022283079
 20
22.96845160016067
 10
80.89911022283079
 20
22.96845160016067
 10
78.02314451174422
 20
22.96845160016067
 10
78.02314451174422
 20
22.96845160016067
 10
78.02314451174422
 20
22.96845160016067
 10
78.02314451174422
 20
23.48177082746289
 10
78.02314451174422
 20
23.48177082746289
 10
78.02314451174422
 20
23.48177082746289
 10
79.2618285934658
 20
23.48177082746289
 10
79.2618285934658
 20
23.48177082746289
 10
79.2618285934658
 20
23.48177082746289
 10
79.2618285934658
 20
25.9074625586273
 10
79.2618285934658
 20
25.9074625586273
 10
79.2618285934658
 20
25.9074625586273
 10
78.35904132155608
 20
25.9074625586273
 10
78.35904132155608
 20
25.9074625586273
 10
78.35904132155608
 20
25.9074625586273
 10
78.35904132155608
 20
26.420437276381
 10
78.35904132155608
 20
26.420437276381
 10
78.35904132155608
 20
26.420437276381
 10
79.2618285934658
 20
26.420437276381
 10
79.2618285934658
 20
26.420437276381
 10
79.2618285934658
 20
26.420437276381
 10
79.2618285934658
 20
27.84326171178919
 10
79.2618285934658
 20
27.84326171178919
 10
79.2618285934658
 20
27.84326171178919
 10
79.72364364326354
 20
27.84326171178919
 10
79.72364364326354
 20
27.84326171178919
 10
79.72364364326354
 20
27.84326171178919
 10
79.72364364326354
 20
27.84326171178919
 10
79.72364364326354
 20
27.84326171178919
 97
        0
 75
     2
 76
     1
 98
        0
  0
ENDBLK
  5
A2
330
9F
100
AcDbEntity
  8
0
100
AcDbBlockEnd
  0
BLOCK
  5
151
330
14F
100
AcDbEntity
  8
0
100
AcDbBlockBegin
  2
BLOCK_5
 70
     0
 71
     0
 10
0.0
 20
0.0
 30
0.0
  3
BLOCK_5
  1

  0
POLYLINE
  5
153
330
14F
100
AcDbEntity
  8
0
 62
   248
100
AcDb2dPolyline
 66
     1
 10
0.0
 20
0.0
 30
0.0
  0
VERTEX
  5
154
330
153
100
AcDbEntity
  8
0
 62
   248
100
AcDbVertex
100
AcDb2dVertex
 10
132.5280001838819
 20
120.0757025524464
 30
0.0
  0
VERTEX
  5
155
330
153
100
AcDbEntity
  8
0
 62
   248
100
AcDbVertex
100
AcDb2dVertex
 10
132.6368652012158
 20
113.8028726929034
 30
0.0
  0
SEQEND
  5
156
330
153
100
AcDbEntity
  8
0
  0
POLYLINE
  5
157
330
14F
100
AcDbEntity
  8
0
 62
   248
100
AcDb2dPolyline
 66
     1
 10
0.0
 20
0.0
 30
0.0
  0
VERTEX
  5
158
330
157
100
AcDbEntity
  8
0
 62
   248
100
AcDbVertex
100
AcDb2dVertex
 10
78.09790308377414
 20
121.6098035720281
 30
0.0
  0
VERTEX
  5
159
330
157
100
AcDbEntity
  8
0
 62
   248
100
AcDbVertex
100
AcDb2dVertex
 10
130.9666829099667
 20
121.6098035720281
 30
0.0
  0
SEQEND
  5
15A
330
157
100
AcDbEntity
  8
0
  0
POLYLINE
  5
15B
330
14F
100
AcDbEntity
  8
0
 62
   248
100
AcDb2dPolyline
 66
     1
 10
0.0
 20
0.0
 30
0.0
  0
VERTEX
  5
15C
330
15B
100
AcDbEntity
  8
0
 62
   248
100
AcDbVertex
100
AcDb2dVertex
 10
132.6368652012158
 20
113.8028726929034
 30
0.0
  0
VERTEX
  5
15D
330
15B
100
AcDbEntity
  8
0
 62
   248
100
AcDbVertex
100
AcDb2dVertex
 10
76.4273762829765
 20
113.8028726929034
 30
0.0
  0
SEQEND
  5
15E
330
15B
100
AcDbEntity
  8
0
  0
POLYLINE
  5
15F
330
14F
100
AcDbEntity
  8
0
 62
   248
100
AcDb2dPolyline
 66
     1
 10
0.0
 20
0.0
 30
0.0
  0
VERTEX
  5
160
330
15F
100
AcDbEntity
  8
0
 62
   248
100
AcDbVertex
100
AcDb2dVertex
 10
76.5365858098589
 20
120.0757025524464
 30
0.0
  0
VERTEX
  5
161
330
15F
100
AcDbEntity
  8
0
 62
   248
100
AcDbVertex
100
AcDb2dVertex
 10
76.42703177342797
 20
113.8028726929034
 30
0.0
  0
SEQEND
  5
162
330
15F
100
AcDbEntity
  8
0
  0
SPLINE
  5
163
330
14F
100
AcDbEntity
  8
0
 62
   248
100
AcDbSpline
210
0.0
220
0.0
230
1.0
 70
     8
 71
     3
 72
     8
 73
     4
 74
     0
 42
0.0000000001
 43
0.0000000001
 40
0.0
 40
0.0
 40
0.0
 40
0.0
 40
1.0
 40
1.0
 40
1.0
 40
1.0
 10
132.5280001838819
 20
120.0757025524464
 30
0.0
 10
132.5128417637468
 20
120.9273301564001
 30
0.0
 10
131.8183105139204
 20
121.6101480815766
 30
0.0
 10
130.9666829099667
 20
121.6101480815766
 30
0.0
  0
SPLINE
  5
164
330
14F
100
AcDbEntity
  8
0
 62
   248
100
AcDbSpline
210
0.0
220
0.0
230
1.0
 70
     8
 71
     3
 72
     8
 73
     4
 74
     0
 42
0.0000000001
 43
0.0000000001
 40
0.0
 40
0.0
 40
0.0
 40
0.0
 40
1.0
 40
1.0
 40
1.0
 40
1.0
 10
78.09790308377414
 20
121.6098035720281
 30
0.0
 10
77.24627547982038
 20
121.6098035720281
 30
0.0
 10
76.55174422999401
 20
120.9273301564001
 30
0.0
 10
76.5365858098589
 20
120.0757025524464
 30
0.0
  0
POLYLINE
  5
165
330
14F
100
AcDbEntity
  8
0
 62
    29
100
AcDb2dPolyline
 66
     1
 10
0.0
 20
0.0
 30
0.0
  0
VERTEX
  5
166
330
165
100
AcDbEntity
  8
0
 62
    29
100
AcDbVertex
100
AcDb2dVertex
 10
72.03798012521968
 20
113.8542046156337
 30
0.0
  0
VERTEX
  5
167
330
165
100
AcDbEntity
  8
0
 62
    29
100
AcDbVertex
100
AcDb2dVertex
 10
66.39353568218634
 20
113.8542046156337
 30
0.0
  0
VERTEX
  5
168
330
165
100
AcDbEntity
  8
0
 62
    29
100
AcDbVertex
100
AcDb2dVertex
 10
66.39353568218634
 20
121.6153157248045
 30
0.0
  0
VERTEX
  5
169
330
165
100
AcDbEntity
  8
0
 62
    29
100
AcDbVertex
100
AcDb2dVertex
 10
72.03798012521968
 20
121.6153157248045
 30
0.0
  0
SEQEND
  5
16A
330
165
100
AcDbEntity
  8
0
  0
MTEXT
  5
16B
330
14F
100
AcDbEntity
  8
0
 62
    29
100
AcDbMText
 10
64.1287299101831
 20
114.6586344114395
 30
0.0
 40
3.870843115721784
 41
0.0
 71
     7
 72
     1
  1
\fMSGothic|b0|i0|c0|p34;\W0.900001;15
 11
-4.371139000186241E-8
 21
0.999999999999999
 31
0.0
  0
MTEXT
  5
16C
330
14F
100
AcDbEntity
  8
0
 62
    29
100
AcDbMText
 10
85.52673473339263
 20
95.95004337879027
 30
0.0
 40
3.870837610892389
 41
0.0
 71
     7
 72
     1
  1
\fMSGothic|b0|i0|c0|p34;\W0.750002; ベース断面　1：2
  0
MTEXT
  5
16D
330
14F
100
AcDbEntity
  8
0
 62
    29
100
AcDbMText
 10
85.69089353326478
 20
96.6552544246209
 30
0.0
 40
3.870837610892389
 41
0.0
 71
     7
 72
     1
  1
\fMS Gothic|b0|i0|c0|p34;\W0.750002; 
  0
POLYLINE
  5
16E
330
14F
100
AcDbEntity
  8
0
 62
    29
100
AcDb2dPolyline
 66
     1
 10
0.0
 20
0.0
 30
0.0
  0
VERTEX
  5
16F
330
16E
100
AcDbEntity
  8
0
 62
    29
100
AcDbVertex
100
AcDb2dVertex
 10
131.0772704750432
 20
94.16858450336758
 30
0.0
  0
VERTEX
  5
170
330
16E
100
AcDbEntity
  8
0
 62
    29
100
AcDbVertex
100
AcDb2dVertex
 10
75.28911673464995
 20
94.16858450336758
 30
0.0
  0
VERTEX
  5
171
330
16E
100
AcDbEntity
  8
0
 62
    29
100
AcDbVertex
100
AcDb2dVertex
 10
75.28911673464995
 20
102.9921630601895
 30
0.0
  0
VERTEX
  5
172
330
16E
100
AcDbEntity
  8
0
 62
    29
100
AcDbVertex
100
AcDb2dVertex
 10
131.0772704750432
 20
102.9921630601895
 30
0.0
  0
VERTEX
  5
173
330
16E
100
AcDbEntity
  8
0
 62
    29
100
AcDbVertex
100
AcDb2dVertex
 10
131.0772704750432
 20
94.16858450336758
 30
0.0
  0
SEQEND
  5
174
330
16E
100
AcDbEntity
  8
0
  0
SPLINE
  5
175
330
14F
100
AcDbEntity
  8
0
 62
   248
100
AcDbSpline
210
0.0
220
0.0
230
1.0
 70
    11
 71
     3
 72
    29
 73
    25
 74
     0
 42
0.0000000001
 43
0.0000000001
 40
0.0
 40
0.0
 40
0.0
 40
0.0
 40
1.0
 40
1.0
 40
1.0
 40
2.0
 40
2.0
 40
2.0
 40
3.0
 40
3.0
 40
3.0
 40
4.0
 40
4.0
 40
4.0
 40
5.0
 40
5.0
 40
5.0
 40
6.0
 40
6.0
 40
6.0
 40
7.0
 40
7.0
 40
7.0
 40
8.0
 40
8.0
 40
8.0
 40
8.0
 10
78.05828448569376
 20
121.6452880555262
 30
0.0
 10
77.20665688174
 20
121.6452880555262
 30
0.0
 10
76.51212563191363
 20
120.9628146398982
 30
0.0
 10
76.49696721177854
 20
120.1111870359444
 30
0.0
 10
76.49696721177854
 20
120.1111870359444
 30
0.0
 10
76.49696721177854
 20
120.083970781611
 30
0.0
 10
76.49696721177854
 20
120.083970781611
 30
0.0
 10
76.49696721177854
 20
120.083970781611
 30
0.0
 10
76.50075681681231
 20
119.4383598876751
 30
0.0
 10
76.50075681681231
 20
119.4383598876751
 30
0.0
 10
76.50075681681231
 20
119.4383598876751
 30
0.0
 10
132.5269666552363
 20
119.4934814154391
 30
0.0
 10
132.5269666552363
 20
119.4934814154391
 30
0.0
 10
132.5269666552363
 20
119.4934814154391
 30
0.0
 10
132.4883815858015
 20
120.083970781611
 30
0.0
 10
132.4883815858015
 20
120.083970781611
 30
0.0
 10
132.4883815858015
 20
120.083970781611
 30
0.0
 10
132.4883815858015
 20
120.111531545493
 30
0.0
 10
132.4883815858015
 20
120.111531545493
 30
0.0
 10
132.4732231656664
 20
120.9631591494467
 30
0.0
 10
131.7786919158401
 20
121.6456325650747
 30
0.0
 10
130.9270643118863
 20
121.6456325650747
 30
0.0
 10
130.9270643118863
 20
121.6452880555262
 30
0.0
 10
78.05828448569376
 20
121.6452880555262
 30
0.0
 10
78.05828448569376
 20
121.6452880555262
 30
0.0
  0
SPLINE
  5
176
330
14F
100
AcDbEntity
  8
0
 62
   248
100
AcDbSpline
210
0.0
220
0.0
230
1.0
 70
    11
 71
     3
 72
    17
 73
    13
 74
     0
 42
0.0000000001
 43
0.0000000001
 40
0.0
 40
0.0
 40
0.0
 40
0.0
 40
1.0
 40
1.0
 40
1.0
 40
2.0
 40
2.0
 40
2.0
 40
3.0
 40
3.0
 40
3.0
 40
4.0
 40
4.0
 40
4.0
 40
4.0
 10
87.33937172295683
 20
117.4646646841755
 30
0.0
 10
87.33937172295683
 20
116.5899549404706
 30
0.0
 10
86.59557560769139
 20
115.8809542896062
 30
0.0
 10
85.6774576608723
 20
115.8809542896062
 30
0.0
 10
84.75968422360175
 20
115.8809542896062
 30
0.0
 10
84.01588810833631
 20
116.5899549404706
 30
0.0
 10
84.01588810833631
 20
117.4646646841755
 30
0.0
 10
84.01588810833631
 20
118.339718937429
 30
0.0
 10
84.75968422360175
 20
119.0487195882934
 30
0.0
 10
85.6774576608723
 20
119.0487195882934
 30
0.0
 10
86.59557560769139
 20
119.0487195882934
 30
0.0
 10
87.33937172295683
 20
118.339718937429
 30
0.0
 10
87.33937172295683
 20
117.4646646841755
 30
0.0
  0
SPLINE
  5
177
330
14F
100
AcDbEntity
  8
0
 62
   248
100
AcDbSpline
210
0.0
220
0.0
230
1.0
 70
    11
 71
     3
 72
    17
 73
    13
 74
     0
 42
0.0000000001
 43
0.0000000001
 40
0.0
 40
0.0
 40
0.0
 40
0.0
 40
1.0
 40
1.0
 40
1.0
 40
2.0
 40
2.0
 40
2.0
 40
3.0
 40
3.0
 40
3.0
 40
4.0
 40
4.0
 40
4.0
 40
4.0
 10
106.1313340663491
 20
117.465009193724
 30
0.0
 10
106.1313340663491
 20
116.5899549404706
 30
0.0
 10
105.3878824606322
 20
115.8809542896062
 30
0.0
 10
104.4701090233616
 20
115.8809542896062
 30
0.0
 10
103.5519910765426
 20
115.8809542896062
 30
0.0
 10
102.8078504517286
 20
116.5899549404706
 30
0.0
 10
102.8078504517286
 20
117.465009193724
 30
0.0
 10
102.8078504517286
 20
118.3400634469775
 30
0.0
 10
103.5519910765426
 20
119.0490640978419
 30
0.0
 10
104.4701090233616
 20
119.0490640978419
 30
0.0
 10
105.3878824606322
 20
119.0490640978419
 30
0.0
 10
106.1313340663491
 20
118.3400634469775
 30
0.0
 10
106.1313340663491
 20
117.465009193724
 30
0.0
  0
SPLINE
  5
178
330
14F
100
AcDbEntity
  8
0
 62
   248
100
AcDbSpline
210
0.0
220
0.0
230
1.0
 70
    11
 71
     3
 72
    17
 73
    13
 74
     0
 42
0.0000000001
 43
0.0000000001
 40
0.0
 40
0.0
 40
0.0
 40
0.0
 40
1.0
 40
1.0
 40
1.0
 40
2.0
 40
2.0
 40
2.0
 40
3.0
 40
3.0
 40
3.0
 40
4.0
 40
4.0
 40
4.0
 40
4.0
 10
124.9760063706657
 20
117.465009193724
 30
0.0
 10
124.9760063706657
 20
116.5899549404706
 30
0.0
 10
124.2322102554003
 20
115.8809542896062
 30
0.0
 10
123.3144368181297
 20
115.8809542896062
 30
0.0
 10
122.3963188713107
 20
115.8809542896062
 30
0.0
 10
121.6521782464967
 20
116.5899549404706
 30
0.0
 10
121.6521782464967
 20
117.465009193724
 30
0.0
 10
121.6521782464967
 20
118.3400634469775
 30
0.0
 10
122.3963188713107
 20
119.0490640978419
 30
0.0
 10
123.3144368181297
 20
119.0490640978419
 30
0.0
 10
124.2322102554003
 20
119.0490640978419
 30
0.0
 10
124.9760063706657
 20
118.3400634469775
 30
0.0
 10
124.9760063706657
 20
117.465009193724
 30
0.0
  0
POLYLINE
  5
179
330
14F
100
AcDbEntity
  8
0
 62
   248
100
AcDb2dPolyline
 66
     1
 10
0.0
 20
0.0
 30
0.0
  0
VERTEX
  5
17A
330
179
100
AcDbEntity
  8
0
 62
   248
100
AcDbVertex
100
AcDb2dVertex
 10
89.96797957820246
 20
115.6329074146682
 30
0.0
  0
VERTEX
  5
17B
330
179
100
AcDbEntity
  8
0
 62
   248
100
AcDbVertex
100
AcDb2dVertex
 10
81.37246634250411
 20
115.6329074146682
 30
0.0
  0
VERTEX
  5
17C
330
179
100
AcDbEntity
  8
0
 62
   248
100
AcDbVertex
100
AcDb2dVertex
 10
81.37246634250411
 20
119.4562743841984
 30
0.0
  0
VERTEX
  5
17D
330
179
100
AcDbEntity
  8
0
 62
   248
100
AcDbVertex
100
AcDb2dVertex
 10
89.96797957820246
 20
119.4562743841984
 30
0.0
  0
VERTEX
  5
17E
330
179
100
AcDbEntity
  8
0
 62
   248
100
AcDbVertex
100
AcDb2dVertex
 10
89.96797957820246
 20
115.6329074146682
 30
0.0
  0
SEQEND
  5
17F
330
179
100
AcDbEntity
  8
0
  0
POLYLINE
  5
180
330
14F
100
AcDbEntity
  8
0
 62
   248
100
AcDb2dPolyline
 66
     1
 10
0.0
 20
0.0
 30
0.0
  0
VERTEX
  5
181
330
180
100
AcDbEntity
  8
0
 62
   248
100
AcDbVertex
100
AcDb2dVertex
 10
108.7599419215947
 20
115.6329074146682
 30
0.0
  0
VERTEX
  5
182
330
180
100
AcDbEntity
  8
0
 62
   248
100
AcDbVertex
100
AcDb2dVertex
 10
100.1647731954449
 20
115.6329074146682
 30
0.0
  0
VERTEX
  5
183
330
180
100
AcDbEntity
  8
0
 62
   248
100
AcDbVertex
100
AcDb2dVertex
 10
100.1647731954449
 20
119.4562743841984
 30
0.0
  0
VERTEX
  5
184
330
180
100
AcDbEntity
  8
0
 62
   248
100
AcDbVertex
100
AcDb2dVertex
 10
108.7599419215947
 20
119.4562743841984
 30
0.0
  0
VERTEX
  5
185
330
180
100
AcDbEntity
  8
0
 62
   248
100
AcDbVertex
100
AcDb2dVertex
 10
108.7599419215947
 20
115.6329074146682
 30
0.0
  0
SEQEND
  5
186
330
180
100
AcDbEntity
  8
0
  0
POLYLINE
  5
187
330
14F
100
AcDbEntity
  8
0
 62
   248
100
AcDb2dPolyline
 66
     1
 10
0.0
 20
0.0
 30
0.0
  0
VERTEX
  5
188
330
187
100
AcDbEntity
  8
0
 62
   248
100
AcDbVertex
100
AcDb2dVertex
 10
127.6039252068143
 20
115.6329074146682
 30
0.0
  0
VERTEX
  5
189
330
187
100
AcDbEntity
  8
0
 62
   248
100
AcDbVertex
100
AcDb2dVertex
 10
119.009100990213
 20
115.6329074146682
 30
0.0
  0
VERTEX
  5
18A
330
187
100
AcDbEntity
  8
0
 62
   248
100
AcDbVertex
100
AcDb2dVertex
 10
119.009100990213
 20
119.4562743841984
 30
0.0
  0
VERTEX
  5
18B
330
187
100
AcDbEntity
  8
0
 62
   248
100
AcDbVertex
100
AcDb2dVertex
 10
127.6039252068143
 20
119.4562743841984
 30
0.0
  0
VERTEX
  5
18C
330
187
100
AcDbEntity
  8
0
 62
   248
100
AcDbVertex
100
AcDb2dVertex
 10
127.6039252068143
 20
115.6329074146682
 30
0.0
  0
SEQEND
  5
18D
330
187
100
AcDbEntity
  8
0
  0
ENDBLK
  5
152
330
14F
100
AcDbEntity
  8
0
100
AcDbBlockEnd
  0
BLOCK
  5
1DC
330
1DA
100
AcDbEntity
  8
0
100
AcDbBlockBegin
  2
BLOCK_6
 70
     0
 71
     0
 10
0.0
 20
0.0
 30
0.0
  3
BLOCK_6
  1

  0
POLYLINE
  5
1DE
330
1DA
100
AcDbEntity
  8
0
 62
   248
100
AcDb2dPolyline
 66
     1
 10
0.0
 20
0.0
 30
0.0
  0
VERTEX
  5
1DF
330
1DE
100
AcDbEntity
  8
0
 62
   248
100
AcDbVertex
100
AcDb2dVertex
 10
131.9061604487943
 20
208.8265298957101
 30
0.0
  0
VERTEX
  5
1E0
330
1DE
100
AcDbEntity
  8
0
 62
   248
100
AcDbVertex
100
AcDb2dVertex
 10
132.3881293071807
 20
208.8692490797272
 30
0.0
  0
SEQEND
  5
1E1
330
1DE
100
AcDbEntity
  8
0
  0
POLYLINE
  5
1E2
330
1DA
100
AcDbEntity
  8
0
 62
   248
100
AcDb2dPolyline
 66
     1
 10
0.0
 20
0.0
 30
0.0
  0
VERTEX
  5
1E3
330
1E2
100
AcDbEntity
  8
0
 62
   248
100
AcDbVertex
100
AcDb2dVertex
 10
131.8848008567857
 20
208.8248073479674
 30
0.0
  0
VERTEX
  5
1E4
330
1E2
100
AcDbEntity
  8
0
 62
   248
100
AcDbVertex
100
AcDb2dVertex
 10
132.3488552186489
 20
209.2833495570542
 30
0.0
  0
SEQEND
  5
1E5
330
1E2
100
AcDbEntity
  8
0
  0
SPLINE
  5
1E6
330
1DA
100
AcDbEntity
  8
0
 62
   248
100
AcDbSpline
210
0.0
220
0.0
230
1.0
 70
     8
 71
     3
 72
     8
 73
     4
 74
     0
 42
0.0000000001
 43
0.0000000001
 40
0.0
 40
0.0
 40
0.0
 40
0.0
 40
1.0
 40
1.0
 40
1.0
 40
1.0
 10
131.999178026896
 20
201.2748805920424
 30
0.0
 10
132.0253607525839
 20
201.4106173541612
 30
0.0
 10
132.0508544591748
 20
201.5473876449257
 30
0.0
 10
132.074625618023
 20
201.6841579356901
 30
0.0
  0
INSERT
  5
1E8
330
1DA
100
AcDbEntity
  8
0
100
AcDbBlockReference
  2
BLOCK_7
 10
0.0
 20
0.0
 30
0.0
  0
ENDBLK
  5
1DD
330
1DA
100
AcDbEntity
  8
0
100
AcDbBlockEnd
  0
BLOCK
  5
1E9
330
1E7
100
AcDbEntity
  8
0
100
AcDbBlockBegin
  2
BLOCK_7
 70
     0
 71
     0
 10
0.0
 20
0.0
 30
0.0
  3
BLOCK_7
  1

  0
POLYLINE
  5
1EB
330
1E7
100
AcDbEntity
  8
0
 62
   248
100
AcDb2dPolyline
 66
     1
 10
0.0
 20
0.0
 30
0.0
  0
VERTEX
  5
1EC
330
1EB
100
AcDbEntity
  8
0
 62
   248
100
AcDbVertex
100
AcDb2dVertex
 10
131.9657606006891
 20
207.9959173742163
 30
0.0
  0
VERTEX
  5
1ED
330
1EB
100
AcDbEntity
  8
0
 62
   248
100
AcDbVertex
100
AcDb2dVertex
 10
131.550971104265
 20
207.9597438716212
 30
0.0
  0
SEQEND
  5
1EE
330
1EB
100
AcDbEntity
  8
0
  0
POLYLINE
  5
1EF
330
1E7
100
AcDbEntity
  8
0
 62
   248
100
AcDb2dPolyline
 66
     1
 10
0.0
 20
0.0
 30
0.0
  0
VERTEX
  5
1F0
330
1EF
100
AcDbEntity
  8
0
 62
   248
100
AcDbVertex
100
AcDb2dVertex
 10
131.3876735782642
 20
208.7810546353047
 30
0.0
  0
VERTEX
  5
1F1
330
1EF
100
AcDbEntity
  8
0
 62
   248
100
AcDbVertex
100
AcDb2dVertex
 10
131.4913709523702
 20
208.7903563931149
 30
0.0
  0
SEQEND
  5
1F2
330
1EF
100
AcDbEntity
  8
0
  0
POLYLINE
  5
1F3
330
1E7
100
AcDbEntity
  8
0
 62
   248
100
AcDb2dPolyline
 66
     1
 10
0.0
 20
0.0
 30
0.0
  0
VERTEX
  5
1F4
330
1F3
100
AcDbEntity
  8
0
 62
   248
100
AcDbVertex
100
AcDb2dVertex
 10
131.0097466035323
 20
201.449202423596
 30
0.0
  0
VERTEX
  5
1F5
330
1F3
100
AcDbEntity
  8
0
 62
   248
100
AcDbVertex
100
AcDb2dVertex
 10
131.999178026896
 20
201.2745360824939
 30
0.0
  0
SEQEND
  5
1F6
330
1F3
100
AcDbEntity
  8
0
  0
POLYLINE
  5
1F7
330
1E7
100
AcDbEntity
  8
0
 62
   248
100
AcDb2dPolyline
 66
     1
 10
0.0
 20
0.0
 30
0.0
  0
VERTEX
  5
1F8
330
1F7
100
AcDbEntity
  8
0
 62
   248
100
AcDbVertex
100
AcDb2dVertex
 10
132.074625618023
 20
201.6841579356901
 30
0.0
  0
VERTEX
  5
1F9
330
1F7
100
AcDbEntity
  8
0
 62
   248
100
AcDbVertex
100
AcDb2dVertex
 10
131.5978244028644
 20
201.7682182655302
 30
0.0
  0
SEQEND
  5
1FA
330
1F7
100
AcDbEntity
  8
0
  0
POLYLINE
  5
1FB
330
1E7
100
AcDbEntity
  8
0
 62
   248
100
AcDb2dPolyline
 66
     1
 10
0.0
 20
0.0
 30
0.0
  0
VERTEX
  5
1FC
330
1FB
100
AcDbEntity
  8
0
 62
   248
100
AcDbVertex
100
AcDb2dVertex
 10
131.1878580401197
 20
201.8405652707204
 30
0.0
  0
VERTEX
  5
1FD
330
1FB
100
AcDbEntity
  8
0
 62
   248
100
AcDbVertex
100
AcDb2dVertex
 10
131.0851941946593
 20
201.8584797672437
 30
0.0
  0
SEQEND
  5
1FE
330
1FB
100
AcDbEntity
  8
0
  0
POLYLINE
  5
1FF
330
1E7
100
AcDbEntity
  8
0
 62
   248
100
AcDb2dPolyline
 66
     1
 10
0.0
 20
0.0
 30
0.0
  0
VERTEX
  5
200
330
1FF
100
AcDbEntity
  8
0
 62
   248
100
AcDbVertex
100
AcDb2dVertex
 10
132.3488552186489
 20
209.2833495570542
 30
0.0
  0
VERTEX
  5
201
330
1FF
100
AcDbEntity
  8
0
 62
   248
100
AcDbVertex
100
AcDb2dVertex
 10
131.3480549801838
 20
209.1958441317288
 30
0.0
  0
SEQEND
  5
202
330
1FF
100
AcDbEntity
  8
0
  0
POLYLINE
  5
203
330
1E7
100
AcDbEntity
  8
0
 62
   248
100
AcDb2dPolyline
 66
     1
 10
0.0
 20
0.0
 30
0.0
  0
VERTEX
  5
204
330
203
100
AcDbEntity
  8
0
 62
   248
100
AcDbVertex
100
AcDb2dVertex
 10
131.3198051972048
 20
202.6629095630496
 30
0.0
  0
VERTEX
  5
205
330
203
100
AcDbEntity
  8
0
 62
   248
100
AcDbVertex
100
AcDb2dVertex
 10
131.7297715599495
 20
202.5905625578593
 30
0.0
  0
SEQEND
  5
206
330
203
100
AcDbEntity
  8
0
  0
POLYLINE
  5
207
330
1E7
100
AcDbEntity
  8
0
 62
   248
100
AcDb2dPolyline
 66
     1
 10
0.0
 20
0.0
 30
0.0
  0
VERTEX
  5
208
330
207
100
AcDbEntity
  8
0
 62
   248
100
AcDbVertex
100
AcDb2dVertex
 10
131.3480549801838
 20
209.1958441317288
 30
0.0
  0
VERTEX
  5
209
330
207
100
AcDbEntity
  8
0
 62
   248
100
AcDbVertex
100
AcDb2dVertex
 10
131.8844563472372
 20
208.8244628384189
 30
0.0
  0
SEQEND
  5
20A
330
207
100
AcDbEntity
  8
0
  0
SPLINE
  5
20B
330
1E7
100
AcDbEntity
  8
0
 62
   248
100
AcDbSpline
210
0.0
220
0.0
230
1.0
 70
     8
 71
     3
 72
     8
 73
     4
 74
     0
 42
0.0000000001
 43
0.0000000001
 40
0.0
 40
0.0
 40
0.0
 40
0.0
 40
1.0
 40
1.0
 40
1.0
 40
1.0
 10
131.5978244028644
 20
201.7682182655302
 30
0.0
 10
132.0084797847062
 20
204.0977918326561
 30
0.0
 10
132.1121771588122
 20
206.4707736028962
 30
0.0
 10
131.9061604487943
 20
208.8265298957101
 30
0.0
  0
SPLINE
  5
20C
330
1E7
100
AcDbEntity
  8
0
 62
   248
100
AcDbSpline
210
0.0
220
0.0
230
1.0
 70
     8
 71
     3
 72
     8
 73
     4
 74
     0
 42
0.0000000001
 43
0.0000000001
 40
0.0
 40
0.0
 40
0.0
 40
0.0
 40
1.0
 40
1.0
 40
1.0
 40
1.0
 10
131.1878580401197
 20
201.8405652707204
 30
0.0
 10
131.5919677405395
 20
204.1339653352512
 30
0.0
 10
131.6942870764514
 20
206.4704290933477
 30
0.0
 10
131.4913709523702
 20
208.7900118835664
 30
0.0
  0
SPLINE
  5
20D
330
1E7
100
AcDbEntity
  8
0
 62
   248
100
AcDbSpline
210
0.0
220
0.0
230
1.0
 70
     8
 71
     3
 72
     8
 73
     4
 74
     0
 42
0.0000000001
 43
0.0000000001
 40
0.0
 40
0.0
 40
0.0
 40
0.0
 40
1.0
 40
1.0
 40
1.0
 40
1.0
 10
131.3876735782642
 20
208.7810546353047
 30
0.0
 10
131.3756157440658
 20
208.9195474738118
 30
0.0
 10
131.3621798716734
 20
209.0580403123188
 30
0.0
 10
131.3480549801838
 20
209.1958441317288
 30
0.0
  0
SPLINE
  5
20E
330
1E7
100
AcDbEntity
  8
0
 62
   248
100
AcDbSpline
210
0.0
220
0.0
230
1.0
 70
     8
 71
     3
 72
     8
 73
     4
 74
     0
 42
0.0000000001
 43
0.0000000001
 40
0.0
 40
0.0
 40
0.0
 40
0.0
 40
1.0
 40
1.0
 40
1.0
 40
1.0
 10
131.0097466035323
 20
201.449202423596
 30
0.0
 10
131.0362738387687
 20
201.5852836952634
 30
0.0
 10
131.061423035811
 20
201.7220539860278
 30
0.0
 10
131.0851941946593
 20
201.8584797672437
 30
0.0
  0
ENDBLK
  5
1EA
330
1E7
100
AcDbEntity
  8
0
100
AcDbBlockEnd
  0
BLOCK
  5
211
330
20F
100
AcDbEntity
  8
0
100
AcDbBlockBegin
  2
BLOCK_8
 70
     0
 71
     0
 10
0.0
 20
0.0
 30
0.0
  3
BLOCK_8
  1

  0
SPLINE
  5
213
330
20F
100
AcDbEntity
  8
0
 62
   248
100
AcDbSpline
210
0.0
220
0.0
230
1.0
 70
     8
 71
     3
 72
     8
 73
     4
 74
     0
 42
0.0000000001
 43
0.0000000001
 40
0.0
 40
0.0
 40
0.0
 40
0.0
 40
1.0
 40
1.0
 40
1.0
 40
1.0
 10
120.2445122312236
 20
184.3010673909907
 30
0.0
 10
122.1520616014064
 20
185.6370754201706
 30
0.0
 10
123.876331891774
 20
187.2169962097062
 30
0.0
 10
125.373225880115
 20
189.0008666519686
 30
0.0
  0
INSERT
  5
215
330
20F
100
AcDbEntity
  8
0
100
AcDbBlockReference
  2
BLOCK_9
 10
0.0
 20
0.0
 30
0.0
  0
ENDBLK
  5
212
330
20F
100
AcDbEntity
  8
0
100
AcDbBlockEnd
  0
BLOCK
  5
216
330
214
100
AcDbEntity
  8
0
100
AcDbBlockBegin
  2
BLOCK_9
 70
     0
 71
     0
 10
0.0
 20
0.0
 30
0.0
  3
BLOCK_9
  1

  0
SPLINE
  5
218
330
214
100
AcDbEntity
  8
0
 62
   248
100
AcDbSpline
210
0.0
220
0.0
230
1.0
 70
     8
 71
     3
 72
     8
 73
     4
 74
     0
 42
0.0000000001
 43
0.0000000001
 40
0.0
 40
0.0
 40
0.0
 40
0.0
 40
1.0
 40
1.0
 40
1.0
 40
1.0
 10
120.4832573483514
 20
183.960002937951
 30
0.0
 10
122.4204345397074
 20
185.3166815400424
 30
0.0
 10
124.1719210844084
 20
186.9217515266203
 30
0.0
 10
125.6922417220492
 20
188.7331827327646
 30
0.0
  0
INSERT
  5
21A
330
214
100
AcDbEntity
  8
0
100
AcDbBlockReference
  2
BLOCK_10
 10
0.0
 20
0.0
 30
0.0
  0
ENDBLK
  5
217
330
214
100
AcDbEntity
  8
0
100
AcDbBlockEnd
  0
BLOCK
  5
21B
330
219
100
AcDbEntity
  8
0
100
AcDbBlockBegin
  2
BLOCK_10
 70
     0
 71
     0
 10
0.0
 20
0.0
 30
0.0
  3
BLOCK_10
  1

  0
POLYLINE
  5
21D
330
219
100
AcDbEntity
  8
0
 62
   248
100
AcDb2dPolyline
 66
     1
 10
0.0
 20
0.0
 30
0.0
  0
VERTEX
  5
21E
330
21D
100
AcDbEntity
  8
0
 62
   248
100
AcDbVertex
100
AcDb2dVertex
 10
125.67570526372
 20
188.7473076242541
 30
0.0
  0
VERTEX
  5
21F
330
21D
100
AcDbEntity
  8
0
 62
   248
100
AcDbVertex
100
AcDb2dVertex
 10
126.3282063486263
 20
188.7431735096719
 30
0.0
  0
SEQEND
  5
220
330
21D
100
AcDbEntity
  8
0
  0
POLYLINE
  5
221
330
219
100
AcDbEntity
  8
0
 62
   248
100
AcDb2dPolyline
 66
     1
 10
0.0
 20
0.0
 30
0.0
  0
VERTEX
  5
222
330
221
100
AcDbEntity
  8
0
 62
   248
100
AcDbVertex
100
AcDb2dVertex
 10
125.2932996648572
 20
189.0677015043824
 30
0.0
  0
VERTEX
  5
223
330
221
100
AcDbEntity
  8
0
 62
   248
100
AcDbVertex
100
AcDb2dVertex
 10
125.373225880115
 20
189.0012111615171
 30
0.0
  0
SEQEND
  5
224
330
221
100
AcDbEntity
  8
0
  0
POLYLINE
  5
225
330
219
100
AcDbEntity
  8
0
 62
   248
100
AcDb2dPolyline
 66
     1
 10
0.0
 20
0.0
 30
0.0
  0
VERTEX
  5
226
330
225
100
AcDbEntity
  8
0
 62
   248
100
AcDbVertex
100
AcDb2dVertex
 10
125.6922417220492
 20
188.7335272423132
 30
0.0
  0
VERTEX
  5
227
330
225
100
AcDbEntity
  8
0
 62
   248
100
AcDbVertex
100
AcDb2dVertex
 10
126.062933996262
 20
188.4220906104466
 30
0.0
  0
SEQEND
  5
228
330
225
100
AcDbEntity
  8
0
  0
POLYLINE
  5
229
330
219
100
AcDbEntity
  8
0
 62
   248
100
AcDb2dPolyline
 66
     1
 10
0.0
 20
0.0
 30
0.0
  0
VERTEX
  5
22A
330
229
100
AcDbEntity
  8
0
 62
   248
100
AcDbVertex
100
AcDb2dVertex
 10
119.8417805689979
 20
184.1501722087368
 30
0.0
  0
VERTEX
  5
22B
330
229
100
AcDbEntity
  8
0
 62
   248
100
AcDbVertex
100
AcDb2dVertex
 10
120.4178005341317
 20
183.3274834068591
 30
0.0
  0
SEQEND
  5
22C
330
229
100
AcDbEntity
  8
0
  0
POLYLINE
  5
22D
330
219
100
AcDbEntity
  8
0
 62
   248
100
AcDb2dPolyline
 66
     1
 10
0.0
 20
0.0
 30
0.0
  0
VERTEX
  5
22E
330
22D
100
AcDbEntity
  8
0
 62
   248
100
AcDbVertex
100
AcDb2dVertex
 10
120.7609320444625
 20
183.5638169571473
 30
0.0
  0
VERTEX
  5
22F
330
22D
100
AcDbEntity
  8
0
 62
   248
100
AcDbVertex
100
AcDb2dVertex
 10
120.4832573483514
 20
183.960002937951
 30
0.0
  0
SEQEND
  5
230
330
22D
100
AcDbEntity
  8
0
  0
POLYLINE
  5
231
330
219
100
AcDbEntity
  8
0
 62
   248
100
AcDb2dPolyline
 66
     1
 10
0.0
 20
0.0
 30
0.0
  0
VERTEX
  5
232
330
231
100
AcDbEntity
  8
0
 62
   248
100
AcDbVertex
100
AcDb2dVertex
 10
120.2445122312236
 20
184.3010673909907
 30
0.0
  0
VERTEX
  5
233
330
231
100
AcDbEntity
  8
0
 62
   248
100
AcDbVertex
100
AcDb2dVertex
 10
120.1845675697803
 20
184.3865057590249
 30
0.0
  0
SEQEND
  5
234
330
231
100
AcDbEntity
  8
0
  0
POLYLINE
  5
235
330
219
100
AcDbEntity
  8
0
 62
   248
100
AcDb2dPolyline
 66
     1
 10
0.0
 20
0.0
 30
0.0
  0
VERTEX
  5
236
330
235
100
AcDbEntity
  8
0
 62
   248
100
AcDbVertex
100
AcDb2dVertex
 10
126.3282063486263
 20
188.7431735096719
 30
0.0
  0
VERTEX
  5
237
330
235
100
AcDbEntity
  8
0
 62
   248
100
AcDbVertex
100
AcDb2dVertex
 10
125.5585720172215
 20
189.3891289131562
 30
0.0
  0
SEQEND
  5
238
330
235
100
AcDbEntity
  8
0
  0
POLYLINE
  5
239
330
219
100
AcDbEntity
  8
0
 62
   248
100
AcDb2dPolyline
 66
     1
 10
0.0
 20
0.0
 30
0.0
  0
VERTEX
  5
23A
330
239
100
AcDbEntity
  8
0
 62
   248
100
AcDbVertex
100
AcDb2dVertex
 10
120.9190619272355
 20
184.7895819307991
 30
0.0
  0
VERTEX
  5
23B
330
239
100
AcDbEntity
  8
0
 62
   248
100
AcDbVertex
100
AcDb2dVertex
 10
121.1581515539118
 20
184.4485174777594
 30
0.0
  0
SEQEND
  5
23C
330
239
100
AcDbEntity
  8
0
  0
POLYLINE
  5
23D
330
219
100
AcDbEntity
  8
0
 62
   248
100
AcDb2dPolyline
 66
     1
 10
0.0
 20
0.0
 30
0.0
  0
VERTEX
  5
23E
330
23D
100
AcDbEntity
  8
0
 62
   248
100
AcDbVertex
100
AcDb2dVertex
 10
125.5585720172215
 20
189.3887844036077
 30
0.0
  0
VERTEX
  5
23F
330
23D
100
AcDbEntity
  8
0
 62
   248
100
AcDbVertex
100
AcDb2dVertex
 10
125.67570526372
 20
188.7473076242541
 30
0.0
  0
SEQEND
  5
240
330
23D
100
AcDbEntity
  8
0
  0
SPLINE
  5
241
330
219
100
AcDbEntity
  8
0
 62
   248
100
AcDbSpline
210
0.0
220
0.0
230
1.0
 70
     8
 71
     3
 72
     8
 73
     4
 74
     0
 42
0.0000000001
 43
0.0000000001
 40
0.0
 40
0.0
 40
0.0
 40
0.0
 40
1.0
 40
1.0
 40
1.0
 40
1.0
 10
126.062933996262
 20
188.4220906104466
 30
0.0
 10
126.15216196933
 20
188.5281995513923
 30
0.0
 10
126.2407009233009
 20
188.6353420209835
 30
0.0
 10
126.3282063486263
 20
188.7431735096719
 30
0.0
  0
SPLINE
  5
242
330
219
100
AcDbEntity
  8
0
 62
   248
100
AcDbSpline
210
0.0
220
0.0
230
1.0
 70
     8
 71
     3
 72
     8
 73
     4
 74
     0
 42
0.0000000001
 43
0.0000000001
 40
0.0
 40
0.0
 40
0.0
 40
0.0
 40
1.0
 40
1.0
 40
1.0
 40
1.0
 10
125.2932996648572
 20
189.0677015043824
 30
0.0
 10
125.3825276379252
 20
189.1738104453281
 30
0.0
 10
125.4710665918961
 20
189.2812974244679
 30
0.0
 10
125.5585720172215
 20
189.3887844036077
 30
0.0
  0
SPLINE
  5
243
330
219
100
AcDbEntity
  8
0
 62
   248
100
AcDbSpline
210
0.0
220
0.0
230
1.0
 70
     8
 71
     3
 72
     8
 73
     4
 74
     0
 42
0.0000000001
 43
0.0000000001
 40
0.0
 40
0.0
 40
0.0
 40
0.0
 40
1.0
 40
1.0
 40
1.0
 40
1.0
 10
119.8417805689979
 20
184.1501722087368
 30
0.0
 10
119.9565022486567
 20
184.2283758762519
 30
0.0
 10
120.070879418767
 20
184.3069240533156
 30
0.0
 10
120.1845675697803
 20
184.3865057590249
 30
0.0
  0
ENDBLK
  5
21C
330
219
100
AcDbEntity
  8
0
100
AcDbBlockEnd
  0
BLOCK
  5
246
330
244
100
AcDbEntity
  8
0
100
AcDbBlockBegin
  2
BLOCK_11
 70
     0
 71
     0
 10
0.0
 20
0.0
 30
0.0
  3
BLOCK_11
  1

  0
POLYLINE
  5
248
330
244
100
AcDbEntity
  8
0
 62
   248
100
AcDb2dPolyline
 66
     1
 10
0.0
 20
0.0
 30
0.0
  0
VERTEX
  5
249
330
248
100
AcDbEntity
  8
0
 62
   248
100
AcDbVertex
100
AcDb2dVertex
 10
107.0229247779318
 20
179.1311848510505
 30
0.0
  0
VERTEX
  5
24A
330
248
100
AcDbEntity
  8
0
 62
   248
100
AcDbVertex
100
AcDb2dVertex
 10
107.4814669870185
 20
178.6674749987359
 30
0.0
  0
SEQEND
  5
24B
330
248
100
AcDbEntity
  8
0
  0
POLYLINE
  5
24C
330
244
100
AcDbEntity
  8
0
 62
   248
100
AcDb2dPolyline
 66
     1
 10
0.0
 20
0.0
 30
0.0
  0
VERTEX
  5
24D
330
24C
100
AcDbEntity
  8
0
 62
   248
100
AcDbVertex
100
AcDb2dVertex
 10
106.1940348041807
 20
179.0502251071472
 30
0.0
  0
VERTEX
  5
24E
330
24C
100
AcDbEntity
  8
0
 62
   248
100
AcDbVertex
100
AcDb2dVertex
 10
106.157516792037
 20
179.4653591131198
 30
0.0
  0
SEQEND
  5
24F
330
24C
100
AcDbEntity
  8
0
  0
POLYLINE
  5
250
330
244
100
AcDbEntity
  8
0
 62
   248
100
AcDb2dPolyline
 66
     1
 10
0.0
 20
0.0
 30
0.0
  0
VERTEX
  5
251
330
250
100
AcDbEntity
  8
0
 62
   248
100
AcDbVertex
100
AcDb2dVertex
 10
106.9795165748176
 20
179.6286566391206
 30
0.0
  0
VERTEX
  5
252
330
250
100
AcDbEntity
  8
0
 62
   248
100
AcDbVertex
100
AcDb2dVertex
 10
106.9884738230793
 20
179.5246147554661
 30
0.0
  0
SEQEND
  5
253
330
250
100
AcDbEntity
  8
0
  0
POLYLINE
  5
254
330
244
100
AcDbEntity
  8
0
 62
   248
100
AcDb2dPolyline
 66
     1
 10
0.0
 20
0.0
 30
0.0
  0
VERTEX
  5
255
330
254
100
AcDbEntity
  8
0
 62
   248
100
AcDbVertex
100
AcDb2dVertex
 10
107.0249918352229
 20
179.109825259042
 30
0.0
  0
VERTEX
  5
256
330
254
100
AcDbEntity
  8
0
 62
   248
100
AcDbVertex
100
AcDb2dVertex
 10
107.067022000143
 20
178.627511891107
 30
0.0
  0
SEQEND
  5
257
330
254
100
AcDbEntity
  8
0
  0
POLYLINE
  5
258
330
244
100
AcDbEntity
  8
0
 62
   248
100
AcDb2dPolyline
 66
     1
 10
0.0
 20
0.0
 30
0.0
  0
VERTEX
  5
259
330
258
100
AcDbEntity
  8
0
 62
   248
100
AcDbVertex
100
AcDb2dVertex
 10
99.64731985356039
 20
180.006239104304
 30
0.0
  0
VERTEX
  5
25A
330
258
100
AcDbEntity
  8
0
 62
   248
100
AcDbVertex
100
AcDb2dVertex
 10
99.47299802200675
 20
179.0168076809402
 30
0.0
  0
SEQEND
  5
25B
330
258
100
AcDbEntity
  8
0
  0
POLYLINE
  5
25C
330
244
100
AcDbEntity
  8
0
 62
   248
100
AcDb2dPolyline
 66
     1
 10
0.0
 20
0.0
 30
0.0
  0
VERTEX
  5
25D
330
25C
100
AcDbEntity
  8
0
 62
   248
100
AcDbVertex
100
AcDb2dVertex
 10
99.88227536565444
 20
178.9417045993618
 30
0.0
  0
VERTEX
  5
25E
330
25C
100
AcDbEntity
  8
0
 62
   248
100
AcDbVertex
100
AcDb2dVertex
 10
99.96633569549454
 20
179.4181613049718
 30
0.0
  0
SEQEND
  5
25F
330
25C
100
AcDbEntity
  8
0
  0
POLYLINE
  5
260
330
244
100
AcDbEntity
  8
0
 62
   248
100
AcDb2dPolyline
 66
     1
 10
0.0
 20
0.0
 30
0.0
  0
VERTEX
  5
261
330
260
100
AcDbEntity
  8
0
 62
   248
100
AcDbVertex
100
AcDb2dVertex
 10
100.0386827006848
 20
179.8284721772651
 30
0.0
  0
VERTEX
  5
262
330
260
100
AcDbEntity
  8
0
 62
   248
100
AcDbVertex
100
AcDb2dVertex
 10
100.0572862163051
 20
179.9311360227256
 30
0.0
  0
SEQEND
  5
263
330
260
100
AcDbEntity
  8
0
  0
POLYLINE
  5
264
330
244
100
AcDbEntity
  8
0
 62
   248
100
AcDb2dPolyline
 66
     1
 10
0.0
 20
0.0
 30
0.0
  0
VERTEX
  5
265
330
264
100
AcDbEntity
  8
0
 62
   248
100
AcDbVertex
100
AcDb2dVertex
 10
107.4814669870185
 20
178.6674749987359
 30
0.0
  0
VERTEX
  5
266
330
264
100
AcDbEntity
  8
0
 62
   248
100
AcDbVertex
100
AcDb2dVertex
 10
107.3939615616932
 20
179.6679307276525
 30
0.0
  0
SEQEND
  5
267
330
264
100
AcDbEntity
  8
0
  0
POLYLINE
  5
268
330
244
100
AcDbEntity
  8
0
 62
   248
100
AcDb2dPolyline
 66
     1
 10
0.0
 20
0.0
 30
0.0
  0
VERTEX
  5
269
330
268
100
AcDbEntity
  8
0
 62
   248
100
AcDbVertex
100
AcDb2dVertex
 10
100.8613715025624
 20
179.69652502018
 30
0.0
  0
VERTEX
  5
26A
330
268
100
AcDbEntity
  8
0
 62
   248
100
AcDbVertex
100
AcDb2dVertex
 10
100.7890244973722
 20
179.2862141478868
 30
0.0
  0
SEQEND
  5
26B
330
268
100
AcDbEntity
  8
0
  0
POLYLINE
  5
26C
330
244
100
AcDbEntity
  8
0
 62
   248
100
AcDb2dPolyline
 66
     1
 10
0.0
 20
0.0
 30
0.0
  0
VERTEX
  5
26D
330
26C
100
AcDbEntity
  8
0
 62
   248
100
AcDbVertex
100
AcDb2dVertex
 10
107.3939615616932
 20
179.6679307276525
 30
0.0
  0
VERTEX
  5
26E
330
26C
100
AcDbEntity
  8
0
 62
   248
100
AcDbVertex
100
AcDb2dVertex
 10
107.0229247779318
 20
179.1315293605991
 30
0.0
  0
SEQEND
  5
26F
330
26C
100
AcDbEntity
  8
0
  0
SPLINE
  5
270
330
244
100
AcDbEntity
  8
0
 62
   248
100
AcDbSpline
210
0.0
220
0.0
230
1.0
 70
     8
 71
     3
 72
     8
 73
     4
 74
     0
 42
0.0000000001
 43
0.0000000001
 40
0.0
 40
0.0
 40
0.0
 40
0.0
 40
1.0
 40
1.0
 40
1.0
 40
1.0
 10
99.47299802200675
 20
179.0168076809402
 30
0.0
 10
99.60942380322265
 20
178.9906249552523
 30
0.0
 10
99.74584958443855
 20
178.96547575821
 30
0.0
 10
99.88227536565444
 20
178.9417045993618
 30
0.0
  0
SPLINE
  5
271
330
244
100
AcDbEntity
  8
0
 62
   248
100
AcDbSpline
210
0.0
220
0.0
230
1.0
 70
     8
 71
     3
 72
     8
 73
     4
 74
     0
 42
0.0000000001
 43
0.0000000001
 40
0.0
 40
0.0
 40
0.0
 40
0.0
 40
1.0
 40
1.0
 40
1.0
 40
1.0
 10
99.96633569549454
 20
179.4181613049718
 30
0.0
 10
102.2959092626205
 20
179.0075059231301
 30
0.0
 10
104.668546523312
 20
178.9038085490241
 30
0.0
 10
107.0249918352229
 20
179.109825259042
 30
0.0
  0
SPLINE
  5
272
330
244
100
AcDbEntity
  8
0
 62
   248
100
AcDbSpline
210
0.0
220
0.0
230
1.0
 70
     8
 71
     3
 72
     8
 73
     4
 74
     0
 42
0.0000000001
 43
0.0000000001
 40
0.0
 40
0.0
 40
0.0
 40
0.0
 40
1.0
 40
1.0
 40
1.0
 40
1.0
 10
100.0386827006848
 20
179.8284721772651
 30
0.0
 10
102.3324272747641
 20
179.4240179672968
 30
0.0
 10
104.6688910328606
 20
179.3216986313849
 30
0.0
 10
106.9884738230793
 20
179.5249592650146
 30
0.0
  0
SPLINE
  5
273
330
244
100
AcDbEntity
  8
0
 62
   248
100
AcDbSpline
210
0.0
220
0.0
230
1.0
 70
     8
 71
     3
 72
     8
 73
     4
 74
     0
 42
0.0000000001
 43
0.0000000001
 40
0.0
 40
0.0
 40
0.0
 40
0.0
 40
1.0
 40
1.0
 40
1.0
 40
1.0
 10
106.9795165748176
 20
179.6286566391206
 30
0.0
 10
107.1176649037761
 20
179.6403699637705
 30
0.0
 10
107.2558132327347
 20
179.6538058361629
 30
0.0
 10
107.3939615616932
 20
179.6679307276525
 30
0.0
  0
SPLINE
  5
274
330
244
100
AcDbEntity
  8
0
 62
   248
100
AcDbSpline
210
0.0
220
0.0
230
1.0
 70
     8
 71
     3
 72
     8
 73
     4
 74
     0
 42
0.0000000001
 43
0.0000000001
 40
0.0
 40
0.0
 40
0.0
 40
0.0
 40
1.0
 40
1.0
 40
1.0
 40
1.0
 10
99.64731985356039
 20
180.006239104304
 30
0.0
 10
99.78409014432482
 20
179.9800563786161
 30
0.0
 10
99.92017141599219
 20
179.9545626720252
 30
0.0
 10
100.0572862163051
 20
179.930791513177
 30
0.0
  0
ENDBLK
  5
247
330
244
100
AcDbEntity
  8
0
100
AcDbBlockEnd
  0
BLOCK
  5
277
330
275
100
AcDbEntity
  8
0
100
AcDbBlockBegin
  2
BLOCK_12
 70
     0
 71
     0
 10
0.0
 20
0.0
 30
0.0
  3
BLOCK_12
  1

  0
POLYLINE
  5
279
330
275
100
AcDbEntity
  8
0
 62
   248
100
AcDb2dPolyline
 66
     1
 10
0.0
 20
0.0
 30
0.0
  0
VERTEX
  5
27A
330
279
100
AcDbEntity
  8
0
 62
   248
100
AcDbVertex
100
AcDb2dVertex
 10
86.16941729616599
 20
185.8839165116887
 30
0.0
  0
VERTEX
  5
27B
330
279
100
AcDbEntity
  8
0
 62
   248
100
AcDbVertex
100
AcDb2dVertex
 10
86.43744572491842
 20
186.2025878440744
 30
0.0
  0
SEQEND
  5
27C
330
279
100
AcDbEntity
  8
0
  0
SPLINE
  5
27D
330
275
100
AcDbEntity
  8
0
 62
   248
100
AcDbSpline
210
0.0
220
0.0
230
1.0
 70
     8
 71
     3
 72
     8
 73
     4
 74
     0
 42
0.0000000001
 43
0.0000000001
 40
0.0
 40
0.0
 40
0.0
 40
0.0
 40
1.0
 40
1.0
 40
1.0
 40
1.0
 10
82.02634546560454
 20
190.5475422700715
 30
0.0
 10
83.38302406769591
 20
188.6100205691669
 30
0.0
 10
84.98774954472529
 20
186.859223043563
 30
0.0
 10
86.79918075086965
 20
185.3385578963737
 30
0.0
  0
SPLINE
  5
27E
330
275
100
AcDbEntity
  8
0
 62
   248
100
AcDbSpline
210
0.0
220
0.0
230
1.0
 70
     8
 71
     3
 72
     8
 73
     4
 74
     0
 42
0.0000000001
 43
0.0000000001
 40
0.0
 40
0.0
 40
0.0
 40
0.0
 40
1.0
 40
1.0
 40
1.0
 40
1.0
 10
82.36740991864426
 20
190.7866318967478
 30
0.0
 10
83.7027289287271
 20
188.8787380170164
 30
0.0
 10
85.2829942278112
 20
187.1548122361974
 30
0.0
 10
87.06686467007357
 20
185.6575737383078
 30
0.0
  0
INSERT
  5
280
330
275
100
AcDbEntity
  8
0
100
AcDbBlockReference
  2
BLOCK_13
 10
0.0
 20
0.0
 30
0.0
  0
ENDBLK
  5
278
330
275
100
AcDbEntity
  8
0
100
AcDbBlockEnd
  0
BLOCK
  5
281
330
27F
100
AcDbEntity
  8
0
100
AcDbBlockBegin
  2
BLOCK_13
 70
     0
 71
     0
 10
0.0
 20
0.0
 30
0.0
  3
BLOCK_13
  1

  0
POLYLINE
  5
283
330
27F
100
AcDbEntity
  8
0
 62
   248
100
AcDb2dPolyline
 66
     1
 10
0.0
 20
0.0
 30
0.0
  0
VERTEX
  5
284
330
283
100
AcDbEntity
  8
0
 62
   248
100
AcDbVertex
100
AcDb2dVertex
 10
86.81296113281066
 20
185.3550943547029
 30
0.0
  0
VERTEX
  5
285
330
283
100
AcDbEntity
  8
0
 62
   248
100
AcDbVertex
100
AcDb2dVertex
 10
86.80882701822836
 20
184.7025932697966
 30
0.0
  0
SEQEND
  5
286
330
283
100
AcDbEntity
  8
0
  0
POLYLINE
  5
287
330
27F
100
AcDbEntity
  8
0
 62
   248
100
AcDb2dPolyline
 66
     1
 10
0.0
 20
0.0
 30
0.0
  0
VERTEX
  5
288
330
287
100
AcDbEntity
  8
0
 62
   248
100
AcDbVertex
100
AcDb2dVertex
 10
87.45512693126122
 20
185.4722276012014
 30
0.0
  0
VERTEX
  5
289
330
287
100
AcDbEntity
  8
0
 62
   248
100
AcDbVertex
100
AcDb2dVertex
 10
86.81330564235918
 20
185.3550943547029
 30
0.0
  0
SEQEND
  5
28A
330
287
100
AcDbEntity
  8
0
  0
POLYLINE
  5
28B
330
27F
100
AcDbEntity
  8
0
 62
   248
100
AcDb2dPolyline
 66
     1
 10
0.0
 20
0.0
 30
0.0
  0
VERTEX
  5
28C
330
28B
100
AcDbEntity
  8
0
 62
   248
100
AcDbVertex
100
AcDb2dVertex
 10
87.13404403203593
 20
185.7374999535656
 30
0.0
  0
VERTEX
  5
28D
330
28B
100
AcDbEntity
  8
0
 62
   248
100
AcDbVertex
100
AcDb2dVertex
 10
87.0672091796221
 20
185.6575737383078
 30
0.0
  0
SEQEND
  5
28E
330
28B
100
AcDbEntity
  8
0
  0
POLYLINE
  5
28F
330
27F
100
AcDbEntity
  8
0
 62
   248
100
AcDb2dPolyline
 66
     1
 10
0.0
 20
0.0
 30
0.0
  0
VERTEX
  5
290
330
28F
100
AcDbEntity
  8
0
 62
   248
100
AcDbVertex
100
AcDb2dVertex
 10
86.79918075086965
 20
185.3385578963737
 30
0.0
  0
VERTEX
  5
291
330
28F
100
AcDbEntity
  8
0
 62
   248
100
AcDbVertex
100
AcDb2dVertex
 10
86.48843313810012
 20
184.9678656221608
 30
0.0
  0
SEQEND
  5
292
330
28F
100
AcDbEntity
  8
0
  0
POLYLINE
  5
293
330
27F
100
AcDbEntity
  8
0
 62
   248
100
AcDb2dPolyline
 66
     1
 10
0.0
 20
0.0
 30
0.0
  0
VERTEX
  5
294
330
293
100
AcDbEntity
  8
0
 62
   248
100
AcDbVertex
100
AcDb2dVertex
 10
82.21651473639032
 20
191.189019049425
 30
0.0
  0
VERTEX
  5
295
330
293
100
AcDbEntity
  8
0
 62
   248
100
AcDbVertex
100
AcDb2dVertex
 10
81.39313691541561
 20
190.6129990842912
 30
0.0
  0
SEQEND
  5
296
330
293
100
AcDbEntity
  8
0
  0
POLYLINE
  5
297
330
27F
100
AcDbEntity
  8
0
 62
   248
100
AcDb2dPolyline
 66
     1
 10
0.0
 20
0.0
 30
0.0
  0
VERTEX
  5
298
330
297
100
AcDbEntity
  8
0
 62
   248
100
AcDbVertex
100
AcDb2dVertex
 10
81.62947046570375
 20
190.2698675739603
 30
0.0
  0
VERTEX
  5
299
330
297
100
AcDbEntity
  8
0
 62
   248
100
AcDbVertex
100
AcDb2dVertex
 10
82.02634546560454
 20
190.5475422700715
 30
0.0
  0
SEQEND
  5
29A
330
297
100
AcDbEntity
  8
0
  0
POLYLINE
  5
29B
330
27F
100
AcDbEntity
  8
0
 62
   248
100
AcDb2dPolyline
 66
     1
 10
0.0
 20
0.0
 30
0.0
  0
VERTEX
  5
29C
330
29B
100
AcDbEntity
  8
0
 62
   248
100
AcDbVertex
100
AcDb2dVertex
 10
82.36740991864426
 20
190.7866318967478
 30
0.0
  0
VERTEX
  5
29D
330
29B
100
AcDbEntity
  8
0
 62
   248
100
AcDbVertex
100
AcDb2dVertex
 10
82.45215926758141
 20
190.8462320486426
 30
0.0
  0
SEQEND
  5
29E
330
29B
100
AcDbEntity
  8
0
  0
POLYLINE
  5
29F
330
27F
100
AcDbEntity
  8
0
 62
   248
100
AcDb2dPolyline
 66
     1
 10
0.0
 20
0.0
 30
0.0
  0
VERTEX
  5
2A0
330
29F
100
AcDbEntity
  8
0
 62
   248
100
AcDbVertex
100
AcDb2dVertex
 10
86.80882701822836
 20
184.7025932697966
 30
0.0
  0
VERTEX
  5
2A1
330
29F
100
AcDbEntity
  8
0
 62
   248
100
AcDbVertex
100
AcDb2dVertex
 10
87.45512693126122
 20
185.4725721107499
 30
0.0
  0
SEQEND
  5
2A2
330
29F
100
AcDbEntity
  8
0
  0
POLYLINE
  5
2A3
330
27F
100
AcDbEntity
  8
0
 62
   248
100
AcDb2dPolyline
 66
     1
 10
0.0
 20
0.0
 30
0.0
  0
VERTEX
  5
2A4
330
2A3
100
AcDbEntity
  8
0
 62
   248
100
AcDbVertex
100
AcDb2dVertex
 10
82.85523543935564
 20
190.1120822007359
 30
0.0
  0
VERTEX
  5
2A5
330
2A3
100
AcDbEntity
  8
0
 62
   248
100
AcDbVertex
100
AcDb2dVertex
 10
82.5141709863159
 20
189.8729925740595
 30
0.0
  0
SEQEND
  5
2A6
330
2A3
100
AcDbEntity
  8
0
  0
SPLINE
  5
2A7
330
27F
100
AcDbEntity
  8
0
 62
   248
100
AcDbSpline
210
0.0
220
0.0
230
1.0
 70
     8
 71
     3
 72
     8
 73
     4
 74
     0
 42
0.0000000001
 43
0.0000000001
 40
0.0
 40
0.0
 40
0.0
 40
0.0
 40
1.0
 40
1.0
 40
1.0
 40
1.0
 10
81.39313691541561
 20
190.6129990842912
 30
0.0
 10
81.47134058293078
 20
190.4979328950839
 30
0.0
 10
81.54988875999447
 20
190.3835557249736
 30
0.0
 10
81.62947046570375
 20
190.2698675739603
 30
0.0
  0
SPLINE
  5
2A8
330
27F
100
AcDbEntity
  8
0
 62
   248
100
AcDbSpline
210
0.0
220
0.0
230
1.0
 70
     8
 71
     3
 72
     8
 73
     4
 74
     0
 42
0.0000000001
 43
0.0000000001
 40
0.0
 40
0.0
 40
0.0
 40
0.0
 40
1.0
 40
1.0
 40
1.0
 40
1.0
 10
86.48843313810012
 20
184.9678656221608
 30
0.0
 10
86.59454207904581
 20
184.8789821586414
 30
0.0
 10
86.70134003908856
 20
184.790787714219
 30
0.0
 10
86.80882701822836
 20
184.7025932697966
 30
0.0
  0
SPLINE
  5
2A9
330
27F
100
AcDbEntity
  8
0
 62
   248
100
AcDbSpline
210
0.0
220
0.0
230
1.0
 70
     8
 71
     3
 72
     8
 73
     4
 74
     0
 42
0.0000000001
 43
0.0000000001
 40
0.0
 40
0.0
 40
0.0
 40
0.0
 40
1.0
 40
1.0
 40
1.0
 40
1.0
 10
87.13404403203593
 20
185.7374999535656
 30
0.0
 10
87.24015297298163
 20
185.6482719804977
 30
0.0
 10
87.34695093302437
 20
185.5600775360753
 30
0.0
 10
87.45512693126122
 20
185.4725721107499
 30
0.0
  0
SPLINE
  5
2AA
330
27F
100
AcDbEntity
  8
0
 62
   248
100
AcDbSpline
210
0.0
220
0.0
230
1.0
 70
     8
 71
     3
 72
     8
 73
     4
 74
     0
 42
0.0000000001
 43
0.0000000001
 40
0.0
 40
0.0
 40
0.0
 40
0.0
 40
1.0
 40
1.0
 40
1.0
 40
1.0
 10
82.21651473639032
 20
191.189019049425
 30
0.0
 10
82.29437389435697
 20
191.0739528602176
 30
0.0
 10
82.37257756187213
 20
190.9599201996559
 30
0.0
 10
82.45215926758141
 20
190.8462320486426
 30
0.0
  0
ENDBLK
  5
282
330
27F
100
AcDbEntity
  8
0
100
AcDbBlockEnd
  0
BLOCK
  5
2AD
330
2AB
100
AcDbEntity
  8
0
100
AcDbBlockBegin
  2
BLOCK_14
 70
     0
 71
     0
 10
0.0
 20
0.0
 30
0.0
  3
BLOCK_14
  1

  0
POLYLINE
  5
2AF
330
2AB
100
AcDbEntity
  8
0
 62
   248
100
AcDb2dPolyline
 66
     1
 10
0.0
 20
0.0
 30
0.0
  0
VERTEX
  5
2B0
330
2AF
100
AcDbEntity
  8
0
 62
   248
100
AcDbVertex
100
AcDb2dVertex
 10
77.2562662567276
 20
204.0667859732889
 30
0.0
  0
VERTEX
  5
2B1
330
2AF
100
AcDbEntity
  8
0
 62
   248
100
AcDbVertex
100
AcDb2dVertex
 10
76.79221189486445
 20
203.6082437642021
 30
0.0
  0
SEQEND
  5
2B2
330
2AF
100
AcDbEntity
  8
0
  0
POLYLINE
  5
2B3
330
2AB
100
AcDbEntity
  8
0
 62
   248
100
AcDb2dPolyline
 66
     1
 10
0.0
 20
0.0
 30
0.0
  0
VERTEX
  5
2B4
330
2B3
100
AcDbEntity
  8
0
 62
   248
100
AcDbVertex
100
AcDb2dVertex
 10
77.79232311423247
 20
203.696093699076
 30
0.0
  0
VERTEX
  5
2B5
330
2B3
100
AcDbEntity
  8
0
 62
   248
100
AcDbVertex
100
AcDb2dVertex
 10
77.25592174717907
 20
204.0667859732889
 30
0.0
  0
SEQEND
  5
2B6
330
2B3
100
AcDbEntity
  8
0
  0
POLYLINE
  5
2B7
330
2AB
100
AcDbEntity
  8
0
 62
   248
100
AcDb2dPolyline
 66
     1
 10
0.0
 20
0.0
 30
0.0
  0
VERTEX
  5
2B8
330
2B7
100
AcDbEntity
  8
0
 62
   248
100
AcDbVertex
100
AcDb2dVertex
 10
76.79186738531592
 20
203.6082437642021
 30
0.0
  0
VERTEX
  5
2B9
330
2B7
100
AcDbEntity
  8
0
 62
   248
100
AcDbVertex
100
AcDb2dVertex
 10
77.79232311423247
 20
203.696093699076
 30
0.0
  0
SEQEND
  5
2BA
330
2B7
100
AcDbEntity
  8
0
  0
POLYLINE
  5
2BB
330
2AB
100
AcDbEntity
  8
0
 62
   248
100
AcDb2dPolyline
 66
     1
 10
0.0
 20
0.0
 30
0.0
  0
VERTEX
  5
2BC
330
2BB
100
AcDbEntity
  8
0
 62
   248
100
AcDbVertex
100
AcDb2dVertex
 10
77.75304902570063
 20
204.110194176403
 30
0.0
  0
VERTEX
  5
2BD
330
2BB
100
AcDbEntity
  8
0
 62
   248
100
AcDbVertex
100
AcDb2dVertex
 10
77.64969616114314
 20
204.1012369281414
 30
0.0
  0
SEQEND
  5
2BE
330
2BB
100
AcDbEntity
  8
0
  0
POLYLINE
  5
2BF
330
2AB
100
AcDbEntity
  8
0
 62
   248
100
AcDb2dPolyline
 66
     1
 10
0.0
 20
0.0
 30
0.0
  0
VERTEX
  5
2C0
330
2BF
100
AcDbEntity
  8
0
 62
   248
100
AcDbVertex
100
AcDb2dVertex
 10
77.23490666471905
 20
204.0650634255462
 30
0.0
  0
VERTEX
  5
2C1
330
2BF
100
AcDbEntity
  8
0
 62
   248
100
AcDbVertex
100
AcDb2dVertex
 10
76.75259329678408
 20
204.0226887510777
 30
0.0
  0
SEQEND
  5
2C2
330
2BF
100
AcDbEntity
  8
0
  0
POLYLINE
  5
2C3
330
2AB
100
AcDbEntity
  8
0
 62
   248
100
AcDb2dPolyline
 66
     1
 10
0.0
 20
0.0
 30
0.0
  0
VERTEX
  5
2C4
330
2C3
100
AcDbEntity
  8
0
 62
   248
100
AcDbVertex
100
AcDb2dVertex
 10
77.82126191630857
 20
210.2286837582067
 30
0.0
  0
VERTEX
  5
2C5
330
2C3
100
AcDbEntity
  8
0
 62
   248
100
AcDbVertex
100
AcDb2dVertex
 10
77.4106065344668
 20
210.301030763397
 30
0.0
  0
SEQEND
  5
2C6
330
2C3
100
AcDbEntity
  8
0
  0
POLYLINE
  5
2C7
330
2AB
100
AcDbEntity
  8
0
 62
   248
100
AcDb2dPolyline
 66
     1
 10
0.0
 20
0.0
 30
0.0
  0
VERTEX
  5
2C8
330
2C7
100
AcDbEntity
  8
0
 62
   248
100
AcDbVertex
100
AcDb2dVertex
 10
77.06609698594181
 20
211.2074353855662
 30
0.0
  0
VERTEX
  5
2C9
330
2C7
100
AcDbEntity
  8
0
 62
   248
100
AcDbVertex
100
AcDb2dVertex
 10
77.54289820110039
 20
211.1237195652746
 30
0.0
  0
SEQEND
  5
2CA
330
2C7
100
AcDbEntity
  8
0
  0
POLYLINE
  5
2CB
330
2AB
100
AcDbEntity
  8
0
 62
   248
100
AcDb2dPolyline
 66
     1
 10
0.0
 20
0.0
 30
0.0
  0
VERTEX
  5
2CC
330
2CB
100
AcDbEntity
  8
0
 62
   248
100
AcDbVertex
100
AcDb2dVertex
 10
77.95286456384513
 20
211.0510280505359
 30
0.0
  0
VERTEX
  5
2CD
330
2CB
100
AcDbEntity
  8
0
 62
   248
100
AcDbVertex
100
AcDb2dVertex
 10
78.05552840930557
 20
211.032769044464
 30
0.0
  0
SEQEND
  5
2CE
330
2CB
100
AcDbEntity
  8
0
  0
POLYLINE
  5
2CF
330
2AB
100
AcDbEntity
  8
0
 62
   248
100
AcDb2dPolyline
 66
     1
 10
0.0
 20
0.0
 30
0.0
  0
VERTEX
  5
2D0
330
2CF
100
AcDbEntity
  8
0
 62
   248
100
AcDbVertex
100
AcDb2dVertex
 10
77.17496200327571
 20
204.89567594704
 30
0.0
  0
VERTEX
  5
2D1
330
2CF
100
AcDbEntity
  8
0
 62
   248
100
AcDbVertex
100
AcDb2dVertex
 10
77.58975149969979
 20
204.9321939591836
 30
0.0
  0
SEQEND
  5
2D2
330
2CF
100
AcDbEntity
  8
0
  0
POLYLINE
  5
2D3
330
2AB
100
AcDbEntity
  8
0
 62
   248
100
AcDb2dPolyline
 66
     1
 10
0.0
 20
0.0
 30
0.0
  0
VERTEX
  5
2D4
330
2D3
100
AcDbEntity
  8
0
 62
   248
100
AcDbVertex
100
AcDb2dVertex
 10
78.13063149088401
 20
211.4427354072088
 30
0.0
  0
VERTEX
  5
2D5
330
2D3
100
AcDbEntity
  8
0
 62
   248
100
AcDbVertex
100
AcDb2dVertex
 10
77.14120006752026
 20
211.6170572387624
 30
0.0
  0
SEQEND
  5
2D6
330
2D3
100
AcDbEntity
  8
0
  0
SPLINE
  5
2D7
330
2AB
100
AcDbEntity
  8
0
 62
   248
100
AcDbSpline
210
0.0
220
0.0
230
1.0
 70
     8
 71
     3
 72
     8
 73
     4
 74
     0
 42
0.0000000001
 43
0.0000000001
 40
0.0
 40
0.0
 40
0.0
 40
0.0
 40
1.0
 40
1.0
 40
1.0
 40
1.0
 10
77.14120006752026
 20
211.6170572387624
 30
0.0
 10
77.11501734183236
 20
211.4806314575465
 30
0.0
 10
77.09021265433856
 20
211.3442056763306
 30
0.0
 10
77.06609698594181
 20
211.2070908760177
 30
0.0
  0
SPLINE
  5
2D8
330
2AB
100
AcDbEntity
  8
0
 62
   248
100
AcDbSpline
210
0.0
220
0.0
230
1.0
 70
     8
 71
     3
 72
     8
 73
     4
 74
     0
 42
0.0000000001
 43
0.0000000001
 40
0.0
 40
0.0
 40
0.0
 40
0.0
 40
1.0
 40
1.0
 40
1.0
 40
1.0
 10
77.54289820110039
 20
211.1233750557261
 30
0.0
 10
77.13224281925861
 20
208.7941459981487
 30
0.0
 10
77.02820093560406
 20
206.4211642279086
 30
0.0
 10
77.23490666471905
 20
204.0647189159977
 30
0.0
  0
SPLINE
  5
2D9
330
2AB
100
AcDbEntity
  8
0
 62
   248
100
AcDbSpline
210
0.0
220
0.0
230
1.0
 70
     8
 71
     3
 72
     8
 73
     4
 74
     0
 42
0.0000000001
 43
0.0000000001
 40
0.0
 40
0.0
 40
0.0
 40
0.0
 40
1.0
 40
1.0
 40
1.0
 40
1.0
 10
77.95286456384513
 20
211.0510280505359
 30
0.0
 10
77.54875486342532
 20
208.757627986005
 30
0.0
 10
77.4464355275134
 20
206.4211642279086
 30
0.0
 10
77.64969616114314
 20
204.1012369281414
 30
0.0
  0
SPLINE
  5
2DA
330
2AB
100
AcDbEntity
  8
0
 62
   248
100
AcDbSpline
210
0.0
220
0.0
230
1.0
 70
     8
 71
     3
 72
     8
 73
     4
 74
     0
 42
0.0000000001
 43
0.0000000001
 40
0.0
 40
0.0
 40
0.0
 40
0.0
 40
1.0
 40
1.0
 40
1.0
 40
1.0
 10
77.75304902570063
 20
204.110194176403
 30
0.0
 10
77.76545136944753
 20
203.9720458474445
 30
0.0
 10
77.77819822274296
 20
203.833897518486
 30
0.0
 10
77.79232311423247
 20
203.696093699076
 30
0.0
  0
SPLINE
  5
2DB
330
2AB
100
AcDbEntity
  8
0
 62
   248
100
AcDbSpline
210
0.0
220
0.0
230
1.0
 70
     8
 71
     3
 72
     8
 73
     4
 74
     0
 42
0.0000000001
 43
0.0000000001
 40
0.0
 40
0.0
 40
0.0
 40
0.0
 40
1.0
 40
1.0
 40
1.0
 40
1.0
 10
78.13063149088401
 20
211.4427354072088
 30
0.0
 10
78.10444876519611
 20
211.3059651164444
 30
0.0
 10
78.07929956815379
 20
211.169883844777
 30
0.0
 10
78.05552840930557
 20
211.032769044464
 30
0.0
  0
ENDBLK
  5
2AE
330
2AB
100
AcDbEntity
  8
0
100
AcDbBlockEnd
  0
BLOCK
  5
2DE
330
2DC
100
AcDbEntity
  8
0
100
AcDbBlockBegin
  2
BLOCK_15
 70
     0
 71
     0
 10
0.0
 20
0.0
 30
0.0
  3
BLOCK_15
  1

  0
SPLINE
  5
2E0
330
2DC
100
AcDbEntity
  8
0
 62
   248
100
AcDbSpline
210
0.0
220
0.0
230
1.0
 70
     8
 71
     3
 72
     8
 73
     4
 74
     0
 42
0.0000000001
 43
0.0000000001
 40
0.0
 40
0.0
 40
0.0
 40
0.0
 40
1.0
 40
1.0
 40
1.0
 40
1.0
 10
88.76081812017091
 20
228.8576930851467
 30
0.0
 10
86.8232964192664
 20
227.5013589926038
 30
0.0
 10
85.07180987456539
 20
225.8966335155745
 30
0.0
 10
83.55148923692464
 20
224.0848577998816
 30
0.0
  0
SPLINE
  5
2E1
330
2DC
100
AcDbEntity
  8
0
 62
   248
100
AcDbSpline
210
0.0
220
0.0
230
1.0
 70
     8
 71
     3
 72
     8
 73
     4
 74
     0
 42
0.0000000001
 43
0.0000000001
 40
0.0
 40
0.0
 40
0.0
 40
0.0
 40
1.0
 40
1.0
 40
1.0
 40
1.0
 10
88.9992187277502
 20
228.516628632107
 30
0.0
 10
87.0920138671159
 20
227.1813096220241
 30
0.0
 10
85.36739906719983
 20
225.60104432294
 30
0.0
 10
83.8708495884073
 20
223.8168293711291
 30
0.0
  0
INSERT
  5
2E3
330
2DC
100
AcDbEntity
  8
0
100
AcDbBlockReference
  2
BLOCK_16
 10
0.0
 20
0.0
 30
0.0
  0
ENDBLK
  5
2DF
330
2DC
100
AcDbEntity
  8
0
100
AcDbBlockEnd
  0
BLOCK
  5
2E4
330
2E2
100
AcDbEntity
  8
0
100
AcDbBlockBegin
  2
BLOCK_16
 70
     0
 71
     0
 10
0.0
 20
0.0
 30
0.0
  3
BLOCK_16
  1

  0
POLYLINE
  5
2E6
330
2E2
100
AcDbEntity
  8
0
 62
   248
100
AcDb2dPolyline
 66
     1
 10
0.0
 20
0.0
 30
0.0
  0
VERTEX
  5
2E7
330
2E6
100
AcDbEntity
  8
0
 62
   248
100
AcDbVertex
100
AcDb2dVertex
 10
83.68550345130085
 20
223.42891161949
 30
0.0
  0
VERTEX
  5
2E8
330
2E6
100
AcDbEntity
  8
0
 62
   248
100
AcDbVertex
100
AcDb2dVertex
 10
83.56768118570531
 20
224.070732908392
 30
0.0
  0
SEQEND
  5
2E9
330
2E6
100
AcDbEntity
  8
0
  0
POLYLINE
  5
2EA
330
2E2
100
AcDbEntity
  8
0
 62
   248
100
AcDb2dPolyline
 66
     1
 10
0.0
 20
0.0
 30
0.0
  0
VERTEX
  5
2EB
330
2EA
100
AcDbEntity
  8
0
 62
   248
100
AcDbVertex
100
AcDb2dVertex
 10
82.91586911989603
 20
224.0748670229744
 30
0.0
  0
VERTEX
  5
2EC
330
2EA
100
AcDbEntity
  8
0
 62
   248
100
AcDbVertex
100
AcDb2dVertex
 10
83.68550345130085
 20
223.42891161949
 30
0.0
  0
SEQEND
  5
2ED
330
2EA
100
AcDbEntity
  8
0
  0
POLYLINE
  5
2EE
330
2E2
100
AcDbEntity
  8
0
 62
   248
100
AcDb2dPolyline
 66
     1
 10
0.0
 20
0.0
 30
0.0
  0
VERTEX
  5
2EF
330
2EE
100
AcDbEntity
  8
0
 62
   248
100
AcDbVertex
100
AcDb2dVertex
 10
83.95008678456804
 20
223.7499945187153
 30
0.0
  0
VERTEX
  5
2F0
330
2EE
100
AcDbEntity
  8
0
 62
   248
100
AcDbVertex
100
AcDb2dVertex
 10
83.87050507885877
 20
223.8171738806777
 30
0.0
  0
SEQEND
  5
2F1
330
2EE
100
AcDbEntity
  8
0
  0
POLYLINE
  5
2F2
330
2E2
100
AcDbEntity
  8
0
 62
   248
100
AcDb2dPolyline
 66
     1
 10
0.0
 20
0.0
 30
0.0
  0
VERTEX
  5
2F3
330
2F2
100
AcDbEntity
  8
0
 62
   248
100
AcDbVertex
100
AcDb2dVertex
 10
83.55183374647315
 20
224.0848577998816
 30
0.0
  0
VERTEX
  5
2F4
330
2F2
100
AcDbEntity
  8
0
 62
   248
100
AcDbVertex
100
AcDb2dVertex
 10
83.18079696271175
 20
224.3956054126511
 30
0.0
  0
SEQEND
  5
2F5
330
2F2
100
AcDbEntity
  8
0
  0
POLYLINE
  5
2F6
330
2E2
100
AcDbEntity
  8
0
 62
   248
100
AcDb2dPolyline
 66
     1
 10
0.0
 20
0.0
 30
0.0
  0
VERTEX
  5
2F7
330
2F6
100
AcDbEntity
  8
0
 62
   248
100
AcDbVertex
100
AcDb2dVertex
 10
88.32466903173828
 20
228.0284586018471
 30
0.0
  0
VERTEX
  5
2F8
330
2F6
100
AcDbEntity
  8
0
 62
   248
100
AcDbVertex
100
AcDb2dVertex
 10
88.08557940506195
 20
228.3695230548868
 30
0.0
  0
SEQEND
  5
2F9
330
2F6
100
AcDbEntity
  8
0
  0
POLYLINE
  5
2FA
330
2E2
100
AcDbEntity
  8
0
 62
   248
100
AcDb2dPolyline
 66
     1
 10
0.0
 20
0.0
 30
0.0
  0
VERTEX
  5
2FB
330
2FA
100
AcDbEntity
  8
0
 62
   248
100
AcDbVertex
100
AcDb2dVertex
 10
88.48314342405978
 20
229.2545680850475
 30
0.0
  0
VERTEX
  5
2FC
330
2FA
100
AcDbEntity
  8
0
 62
   248
100
AcDbVertex
100
AcDb2dVertex
 10
88.76081812017091
 20
228.8576930851467
 30
0.0
  0
SEQEND
  5
2FD
330
2FA
100
AcDbEntity
  8
0
  0
POLYLINE
  5
2FE
330
2E2
100
AcDbEntity
  8
0
 62
   248
100
AcDb2dPolyline
 66
     1
 10
0.0
 20
0.0
 30
0.0
  0
VERTEX
  5
2FF
330
2FE
100
AcDbEntity
  8
0
 62
   248
100
AcDbVertex
100
AcDb2dVertex
 10
88.9992187277502
 20
228.516628632107
 30
0.0
  0
VERTEX
  5
300
330
2FE
100
AcDbEntity
  8
0
 62
   248
100
AcDbVertex
100
AcDb2dVertex
 10
89.05916338919354
 20
228.4311902640728
 30
0.0
  0
SEQEND
  5
301
330
2FE
100
AcDbEntity
  8
0
  0
POLYLINE
  5
302
330
2E2
100
AcDbEntity
  8
0
 62
   248
100
AcDb2dPolyline
 66
     1
 10
0.0
 20
0.0
 30
0.0
  0
VERTEX
  5
303
330
302
100
AcDbEntity
  8
0
 62
   248
100
AcDbVertex
100
AcDb2dVertex
 10
84.09684785223968
 20
224.7146212545852
 30
0.0
  0
VERTEX
  5
304
330
302
100
AcDbEntity
  8
0
 62
   248
100
AcDbVertex
100
AcDb2dVertex
 10
84.4155191846253
 20
224.4465928258328
 30
0.0
  0
SEQEND
  5
305
330
302
100
AcDbEntity
  8
0
  0
POLYLINE
  5
306
330
2E2
100
AcDbEntity
  8
0
 62
   248
100
AcDb2dPolyline
 66
     1
 10
0.0
 20
0.0
 30
0.0
  0
VERTEX
  5
307
330
306
100
AcDbEntity
  8
0
 62
   248
100
AcDbVertex
100
AcDb2dVertex
 10
89.40229489952443
 20
228.6675238143609
 30
0.0
  0
VERTEX
  5
308
330
306
100
AcDbEntity
  8
0
 62
   248
100
AcDbVertex
100
AcDb2dVertex
 10
88.8255859152936
 20
229.4907293805614
 30
0.0
  0
SEQEND
  5
309
330
306
100
AcDbEntity
  8
0
  0
POLYLINE
  5
30A
330
2E2
100
AcDbEntity
  8
0
 62
   248
100
AcDb2dPolyline
 66
     1
 10
0.0
 20
0.0
 30
0.0
  0
VERTEX
  5
30B
330
30A
100
AcDbEntity
  8
0
 62
   248
100
AcDbVertex
100
AcDb2dVertex
 10
83.56768118570531
 20
224.0710774179406
 30
0.0
  0
VERTEX
  5
30C
330
30A
100
AcDbEntity
  8
0
 62
   248
100
AcDbVertex
100
AcDb2dVertex
 10
82.91552461034752
 20
224.0745225134258
 30
0.0
  0
SEQEND
  5
30D
330
30A
100
AcDbEntity
  8
0
  0
SPLINE
  5
30E
330
2E2
100
AcDbEntity
  8
0
 62
   248
100
AcDbSpline
210
0.0
220
0.0
230
1.0
 70
     8
 71
     3
 72
     8
 73
     4
 74
     0
 42
0.0000000001
 43
0.0000000001
 40
0.0
 40
0.0
 40
0.0
 40
0.0
 40
1.0
 40
1.0
 40
1.0
 40
1.0
 10
88.8255859152936
 20
229.4905571257871
 30
0.0
 10
88.71120874518331
 20
229.4125257130462
 30
0.0
 10
88.59683157507301
 20
229.3338052812082
 30
0.0
 10
88.48279891451125
 20
229.2545680850475
 30
0.0
  0
SPLINE
  5
30F
330
2E2
100
AcDbEntity
  8
0
 62
   248
100
AcDbSpline
210
0.0
220
0.0
230
1.0
 70
     8
 71
     3
 72
     8
 73
     4
 74
     0
 42
0.0000000001
 43
0.0000000001
 40
0.0
 40
0.0
 40
0.0
 40
0.0
 40
1.0
 40
1.0
 40
1.0
 40
1.0
 10
83.18114147226028
 20
224.3959499221996
 30
0.0
 10
83.09156898964378
 20
224.2894964717054
 30
0.0
 10
83.00337454522138
 20
224.1826985116627
 30
0.0
 10
82.91586911989603
 20
224.0748670229744
 30
0.0
  0
SPLINE
  5
310
330
2E2
100
AcDbEntity
  8
0
 62
   248
100
AcDbSpline
210
0.0
220
0.0
230
1.0
 70
     8
 71
     3
 72
     8
 73
     4
 74
     0
 42
0.0000000001
 43
0.0000000001
 40
0.0
 40
0.0
 40
0.0
 40
0.0
 40
1.0
 40
1.0
 40
1.0
 40
1.0
 10
83.95008678456804
 20
223.7499945187153
 30
0.0
 10
83.86120332104859
 20
223.6438855777696
 30
0.0
 10
83.77300887662619
 20
223.5370876177269
 30
0.0
 10
83.68550345130085
 20
223.42891161949
 30
0.0
  0
SPLINE
  5
311
330
2E2
100
AcDbEntity
  8
0
 62
   248
100
AcDbSpline
210
0.0
220
0.0
230
1.0
 70
     8
 71
     3
 72
     8
 73
     4
 74
     0
 42
0.0000000001
 43
0.0000000001
 40
0.0
 40
0.0
 40
0.0
 40
0.0
 40
1.0
 40
1.0
 40
1.0
 40
1.0
 10
89.40229489952443
 20
228.6675238143609
 30
0.0
 10
89.28722871031708
 20
228.5896646563943
 30
0.0
 10
89.17285154020679
 20
228.5111164793306
 30
0.0
 10
89.05881887964502
 20
228.4318792831698
 30
0.0
  0
ENDBLK
  5
2E5
330
2E2
100
AcDbEntity
  8
0
100
AcDbBlockEnd
  0
BLOCK
  5
314
330
312
100
AcDbEntity
  8
0
100
AcDbBlockBegin
  2
BLOCK_17
 70
     0
 71
     0
 10
0.0
 20
0.0
 30
0.0
  3
BLOCK_17
  1

  0
POLYLINE
  5
316
330
312
100
AcDbEntity
  8
0
 62
   248
100
AcDb2dPolyline
 66
     1
 10
0.0
 20
0.0
 30
0.0
  0
VERTEX
  5
317
330
316
100
AcDbEntity
  8
0
 62
   248
100
AcDbVertex
100
AcDb2dVertex
 10
101.7322916412336
 20
233.1795653713926
 30
0.0
  0
VERTEX
  5
318
330
316
100
AcDbEntity
  8
0
 62
   248
100
AcDbVertex
100
AcDb2dVertex
 10
102.1029839154465
 20
233.7161389932203
 30
0.0
  0
SEQEND
  5
319
330
316
100
AcDbEntity
  8
0
  0
POLYLINE
  5
31A
330
312
100
AcDbEntity
  8
0
 62
   248
100
AcDb2dPolyline
 66
     1
 10
0.0
 20
0.0
 30
0.0
  0
VERTEX
  5
31B
330
31A
100
AcDbEntity
  8
0
 62
   248
100
AcDbVertex
100
AcDb2dVertex
 10
101.6447862159083
 20
234.1803656098577
 30
0.0
  0
VERTEX
  5
31C
330
31A
100
AcDbEntity
  8
0
 62
   248
100
AcDbVertex
100
AcDb2dVertex
 10
101.7322916412336
 20
233.1795653713926
 30
0.0
  0
SEQEND
  5
31D
330
31A
100
AcDbEntity
  8
0
  0
POLYLINE
  5
31E
330
312
100
AcDbEntity
  8
0
 62
   248
100
AcDb2dPolyline
 66
     1
 10
0.0
 20
0.0
 30
0.0
  0
VERTEX
  5
31F
330
31E
100
AcDbEntity
  8
0
 62
   248
100
AcDbVertex
100
AcDb2dVertex
 10
102.1470811376577
 20
233.2190117146987
 30
0.0
  0
VERTEX
  5
320
330
31E
100
AcDbEntity
  8
0
 62
   248
100
AcDbVertex
100
AcDb2dVertex
 10
102.1377793798475
 20
233.3227090888047
 30
0.0
  0
SEQEND
  5
321
330
31E
100
AcDbEntity
  8
0
  0
POLYLINE
  5
322
330
312
100
AcDbEntity
  8
0
 62
   248
100
AcDb2dPolyline
 66
     1
 10
0.0
 20
0.0
 30
0.0
  0
VERTEX
  5
323
330
322
100
AcDbEntity
  8
0
 62
   248
100
AcDbVertex
100
AcDb2dVertex
 10
102.1016058772524
 20
233.7374985852288
 30
0.0
  0
VERTEX
  5
324
330
322
100
AcDbEntity
  8
0
 62
   248
100
AcDbVertex
100
AcDb2dVertex
 10
102.0595757123323
 20
234.2198119531638
 30
0.0
  0
SEQEND
  5
325
330
322
100
AcDbEntity
  8
0
  0
POLYLINE
  5
326
330
312
100
AcDbEntity
  8
0
 62
   248
100
AcDb2dPolyline
 66
     1
 10
0.0
 20
0.0
 30
0.0
  0
VERTEX
  5
327
330
326
100
AcDbEntity
  8
0
 62
   248
100
AcDbVertex
100
AcDb2dVertex
 10
108.2648817003643
 20
233.1511433336393
 30
0.0
  0
VERTEX
  5
328
330
326
100
AcDbEntity
  8
0
 62
   248
100
AcDbVertex
100
AcDb2dVertex
 10
108.3372287055546
 20
233.5614542059326
 30
0.0
  0
SEQEND
  5
329
330
326
100
AcDbEntity
  8
0
  0
POLYLINE
  5
32A
330
312
100
AcDbEntity
  8
0
 62
   248
100
AcDb2dPolyline
 66
     1
 10
0.0
 20
0.0
 30
0.0
  0
VERTEX
  5
32B
330
32A
100
AcDbEntity
  8
0
 62
   248
100
AcDbVertex
100
AcDb2dVertex
 10
109.2436333277238
 20
233.9061360092318
 30
0.0
  0
VERTEX
  5
32C
330
32A
100
AcDbEntity
  8
0
 62
   248
100
AcDbVertex
100
AcDb2dVertex
 10
109.1595729978837
 20
233.429162539299
 30
0.0
  0
SEQEND
  5
32D
330
32A
100
AcDbEntity
  8
0
  0
POLYLINE
  5
32E
330
312
100
AcDbEntity
  8
0
 62
   248
100
AcDb2dPolyline
 66
     1
 10
0.0
 20
0.0
 30
0.0
  0
VERTEX
  5
32F
330
32E
100
AcDbEntity
  8
0
 62
   248
100
AcDbVertex
100
AcDb2dVertex
 10
109.0872259926935
 20
233.0193684313285
 30
0.0
  0
VERTEX
  5
330
330
32E
100
AcDbEntity
  8
0
 62
   248
100
AcDbVertex
100
AcDb2dVertex
 10
109.0693114961702
 20
232.916704585868
 30
0.0
  0
SEQEND
  5
331
330
32E
100
AcDbEntity
  8
0
  0
POLYLINE
  5
332
330
312
100
AcDbEntity
  8
0
 62
   248
100
AcDb2dPolyline
 66
     1
 10
0.0
 20
0.0
 30
0.0
  0
VERTEX
  5
333
330
332
100
AcDbEntity
  8
0
 62
   248
100
AcDbVertex
100
AcDb2dVertex
 10
102.9318738891976
 20
233.7974432466722
 30
0.0
  0
VERTEX
  5
334
330
332
100
AcDbEntity
  8
0
 62
   248
100
AcDbVertex
100
AcDb2dVertex
 10
102.9687364108898
 20
233.3821369859253
 30
0.0
  0
SEQEND
  5
335
330
332
100
AcDbEntity
  8
0
  0
POLYLINE
  5
336
330
312
100
AcDbEntity
  8
0
 62
   248
100
AcDb2dPolyline
 66
     1
 10
0.0
 20
0.0
 30
0.0
  0
VERTEX
  5
337
330
336
100
AcDbEntity
  8
0
 62
   248
100
AcDbVertex
100
AcDb2dVertex
 10
109.4785888398179
 20
232.8412569947411
 30
0.0
  0
VERTEX
  5
338
330
336
100
AcDbEntity
  8
0
 62
   248
100
AcDbVertex
100
AcDb2dVertex
 10
109.65325518092
 20
233.8308606728791
 30
0.0
  0
SEQEND
  5
339
330
336
100
AcDbEntity
  8
0
  0
POLYLINE
  5
33A
330
312
100
AcDbEntity
  8
0
 62
   248
100
AcDb2dPolyline
 66
     1
 10
0.0
 20
0.0
 30
0.0
  0
VERTEX
  5
33B
330
33A
100
AcDbEntity
  8
0
 62
   248
100
AcDbVertex
100
AcDb2dVertex
 10
102.1029839154465
 20
233.7161389932203
 30
0.0
  0
VERTEX
  5
33C
330
33A
100
AcDbEntity
  8
0
 62
   248
100
AcDbVertex
100
AcDb2dVertex
 10
101.6444417063597
 20
234.1803656098577
 30
0.0
  0
SEQEND
  5
33D
330
33A
100
AcDbEntity
  8
0
  0
SPLINE
  5
33E
330
312
100
AcDbEntity
  8
0
 62
   248
100
AcDbSpline
210
0.0
220
0.0
230
1.0
 70
     8
 71
     3
 72
     8
 73
     4
 74
     0
 42
0.0000000001
 43
0.0000000001
 40
0.0
 40
0.0
 40
0.0
 40
0.0
 40
1.0
 40
1.0
 40
1.0
 40
1.0
 10
109.65325518092
 20
233.8306884181048
 30
0.0
 10
109.5168293997041
 20
233.8566988890185
 30
0.0
 10
109.3804036184882
 20
233.8821925956093
 30
0.0
 10
109.2436333277238
 20
233.9061360092318
 30
0.0
  0
SPLINE
  5
33F
330
312
100
AcDbEntity
  8
0
 62
   248
100
AcDbSpline
210
0.0
220
0.0
230
1.0
 70
     8
 71
     3
 72
     8
 73
     4
 74
     0
 42
0.0000000001
 43
0.0000000001
 40
0.0
 40
0.0
 40
0.0
 40
0.0
 40
1.0
 40
1.0
 40
1.0
 40
1.0
 10
109.1595729978837
 20
233.4293347940732
 30
0.0
 10
106.8303439403063
 20
233.8403346854635
 30
0.0
 10
104.4573621700662
 20
233.943687550021
 30
0.0
 10
102.1016058772524
 20
233.7376708400031
 30
0.0
  0
SPLINE
  5
340
330
312
100
AcDbEntity
  8
0
 62
   248
100
AcDbSpline
210
0.0
220
0.0
230
1.0
 70
     8
 71
     3
 72
     8
 73
     4
 74
     0
 42
0.0000000001
 43
0.0000000001
 40
0.0
 40
0.0
 40
0.0
 40
0.0
 40
1.0
 40
1.0
 40
1.0
 40
1.0
 10
109.0872259926935
 20
233.0193684313285
 30
0.0
 10
106.7938259281627
 20
233.4236503865226
 30
0.0
 10
104.4573621700662
 20
233.5259697224345
 30
0.0
 10
102.137434870299
 20
233.3227090888047
 30
0.0
  0
SPLINE
  5
341
330
312
100
AcDbEntity
  8
0
 62
   248
100
AcDbSpline
210
0.0
220
0.0
230
1.0
 70
     8
 71
     3
 72
     8
 73
     4
 74
     0
 42
0.0000000001
 43
0.0000000001
 40
0.0
 40
0.0
 40
0.0
 40
0.0
 40
1.0
 40
1.0
 40
1.0
 40
1.0
 10
102.1470811376577
 20
233.2190117146987
 30
0.0
 10
102.0082437896021
 20
233.2069538805004
 30
0.0
 10
101.8700954606436
 20
233.1938625176564
 30
0.0
 10
101.7322916412336
 20
233.1793931166183
 30
0.0
  0
SPLINE
  5
342
330
312
100
AcDbEntity
  8
0
 62
   248
100
AcDbSpline
210
0.0
220
0.0
230
1.0
 70
     8
 71
     3
 72
     8
 73
     4
 74
     0
 42
0.0000000001
 43
0.0000000001
 40
0.0
 40
0.0
 40
0.0
 40
0.0
 40
1.0
 40
1.0
 40
1.0
 40
1.0
 10
109.4785888398179
 20
232.8412569947411
 30
0.0
 10
109.3425075681505
 20
232.8676119752033
 30
0.0
 10
109.2060817869346
 20
232.8927611722456
 30
0.0
 10
109.0693114961702
 20
232.916704585868
 30
0.0
  0
ENDBLK
  5
315
330
312
100
AcDbEntity
  8
0
100
AcDbBlockEnd
  0
BLOCK
  5
345
330
343
100
AcDbEntity
  8
0
100
AcDbBlockBegin
  2
BLOCK_18
 70
     0
 71
     0
 10
0.0
 20
0.0
 30
0.0
  3
BLOCK_18
  1

  0
POLYLINE
  5
347
330
343
100
AcDbEntity
  8
0
 62
   248
100
AcDb2dPolyline
 66
     1
 10
0.0
 20
0.0
 30
0.0
  0
VERTEX
  5
348
330
347
100
AcDbEntity
  8
0
 62
   248
100
AcDbVertex
100
AcDb2dVertex
 10
127.4671549160499
 20
222.4890895711139
 30
0.0
  0
VERTEX
  5
349
330
347
100
AcDbEntity
  8
0
 62
   248
100
AcDbVertex
100
AcDb2dVertex
 10
127.0706244256976
 20
222.2114148750027
 30
0.0
  0
SEQEND
  5
34A
330
347
100
AcDbEntity
  8
0
  0
POLYLINE
  5
34B
330
343
100
AcDbEntity
  8
0
 62
   248
100
AcDb2dPolyline
 66
     1
 10
0.0
 20
0.0
 30
0.0
  0
VERTEX
  5
34C
330
34B
100
AcDbEntity
  8
0
 62
   248
100
AcDbVertex
100
AcDb2dVertex
 10
126.7295599726579
 20
221.9730142674234
 30
0.0
  0
VERTEX
  5
34D
330
34B
100
AcDbEntity
  8
0
 62
   248
100
AcDbVertex
100
AcDb2dVertex
 10
126.6441216046237
 20
221.9130696059801
 30
0.0
  0
SEQEND
  5
34E
330
34B
100
AcDbEntity
  8
0
  0
POLYLINE
  5
34F
330
343
100
AcDbEntity
  8
0
 62
   248
100
AcDb2dPolyline
 66
     1
 10
0.0
 20
0.0
 30
0.0
  0
VERTEX
  5
350
330
34F
100
AcDbEntity
  8
0
 62
   248
100
AcDbVertex
100
AcDb2dVertex
 10
126.8804551549118
 20
221.5699380956492
 30
0.0
  0
VERTEX
  5
351
330
34F
100
AcDbEntity
  8
0
 62
   248
100
AcDbVertex
100
AcDb2dVertex
 10
127.7031439567895
 20
222.14664707988
 30
0.0
  0
SEQEND
  5
352
330
34F
100
AcDbEntity
  8
0
  0
INSERT
  5
354
330
343
100
AcDbEntity
  8
0
100
AcDbBlockReference
  2
BLOCK_19
 10
0.0
 20
0.0
 30
0.0
  0
ENDBLK
  5
346
330
343
100
AcDbEntity
  8
0
100
AcDbBlockEnd
  0
BLOCK
  5
355
330
353
100
AcDbEntity
  8
0
100
AcDbBlockBegin
  2
BLOCK_19
 70
     0
 71
     0
 10
0.0
 20
0.0
 30
0.0
  3
BLOCK_19
  1

  0
POLYLINE
  5
357
330
353
100
AcDbEntity
  8
0
 62
   248
100
AcDb2dPolyline
 66
     1
 10
0.0
 20
0.0
 30
0.0
  0
VERTEX
  5
358
330
357
100
AcDbEntity
  8
0
 62
   248
100
AcDbVertex
100
AcDb2dVertex
 10
122.2874538539768
 20
228.0563638752776
 30
0.0
  0
VERTEX
  5
359
330
357
100
AcDbEntity
  8
0
 62
   248
100
AcDbVertex
100
AcDb2dVertex
 10
121.6418429600409
 20
227.2870740534213
 30
0.0
  0
SEQEND
  5
35A
330
357
100
AcDbEntity
  8
0
  0
POLYLINE
  5
35B
330
353
100
AcDbEntity
  8
0
 62
   248
100
AcDb2dPolyline
 66
     1
 10
0.0
 20
0.0
 30
0.0
  0
VERTEX
  5
35C
330
35B
100
AcDbEntity
  8
0
 62
   248
100
AcDbVertex
100
AcDb2dVertex
 10
121.9629258592662
 20
227.0221462106056
 30
0.0
  0
VERTEX
  5
35D
330
35B
100
AcDbEntity
  8
0
 62
   248
100
AcDbVertex
100
AcDb2dVertex
 10
122.0294162021315
 20
227.1017279163148
 30
0.0
  0
SEQEND
  5
35E
330
35B
100
AcDbEntity
  8
0
  0
POLYLINE
  5
35F
330
353
100
AcDbEntity
  8
0
 62
   248
100
AcDb2dPolyline
 66
     1
 10
0.0
 20
0.0
 30
0.0
  0
VERTEX
  5
360
330
35F
100
AcDbEntity
  8
0
 62
   248
100
AcDbVertex
100
AcDb2dVertex
 10
122.297444630884
 20
227.4203992487005
 30
0.0
  0
VERTEX
  5
361
330
35F
100
AcDbEntity
  8
0
 62
   248
100
AcDbVertex
100
AcDb2dVertex
 10
122.608536753202
 20
227.7910915229133
 30
0.0
  0
SEQEND
  5
362
330
35F
100
AcDbEntity
  8
0
  0
POLYLINE
  5
363
330
353
100
AcDbEntity
  8
0
 62
   248
100
AcDb2dPolyline
 66
     1
 10
0.0
 20
0.0
 30
0.0
  0
VERTEX
  5
364
330
363
100
AcDbEntity
  8
0
 62
   248
100
AcDbVertex
100
AcDb2dVertex
 10
122.9272080855877
 20
226.8753851429339
 30
0.0
  0
VERTEX
  5
365
330
363
100
AcDbEntity
  8
0
 62
   248
100
AcDbVertex
100
AcDb2dVertex
 10
122.6591796568352
 20
226.5563693009998
 30
0.0
  0
SEQEND
  5
366
330
363
100
AcDbEntity
  8
0
  0
POLYLINE
  5
367
330
353
100
AcDbEntity
  8
0
 62
   248
100
AcDb2dPolyline
 66
     1
 10
0.0
 20
0.0
 30
0.0
  0
VERTEX
  5
368
330
367
100
AcDbEntity
  8
0
 62
   248
100
AcDbVertex
100
AcDb2dVertex
 10
122.283664248943
 20
227.4042072999198
 30
0.0
  0
VERTEX
  5
369
330
367
100
AcDbEntity
  8
0
 62
   248
100
AcDbVertex
100
AcDb2dVertex
 10
122.2874538539768
 20
228.0563638752776
 30
0.0
  0
SEQEND
  5
36A
330
367
100
AcDbEntity
  8
0
  0
POLYLINE
  5
36B
330
353
100
AcDbEntity
  8
0
 62
   248
100
AcDb2dPolyline
 66
     1
 10
0.0
 20
0.0
 30
0.0
  0
VERTEX
  5
36C
330
36B
100
AcDbEntity
  8
0
 62
   248
100
AcDbVertex
100
AcDb2dVertex
 10
121.6418429600409
 20
227.2870740534213
 30
0.0
  0
VERTEX
  5
36D
330
36B
100
AcDbEntity
  8
0
 62
   248
100
AcDbVertex
100
AcDb2dVertex
 10
122.283664248943
 20
227.4042072999198
 30
0.0
  0
SEQEND
  5
36E
330
36B
100
AcDbEntity
  8
0
  0
SPLINE
  5
36F
330
353
100
AcDbEntity
  8
0
 62
   248
100
AcDbSpline
210
0.0
220
0.0
230
1.0
 70
     8
 71
     3
 72
     8
 73
     4
 74
     0
 42
0.0000000001
 43
0.0000000001
 40
0.0
 40
0.0
 40
0.0
 40
0.0
 40
1.0
 40
1.0
 40
1.0
 40
1.0
 10
127.7031439567895
 20
222.14664707988
 30
0.0
 10
127.6252847988228
 20
222.2610242499903
 30
0.0
 10
127.5467366217592
 20
222.3754014201006
 30
0.0
 10
127.4671549160499
 20
222.4894340806624
 30
0.0
  0
SPLINE
  5
370
330
353
100
AcDbEntity
  8
0
 62
   248
100
AcDbSpline
210
0.0
220
0.0
230
1.0
 70
     8
 71
     3
 72
     8
 73
     4
 74
     0
 42
0.0000000001
 43
0.0000000001
 40
0.0
 40
0.0
 40
0.0
 40
0.0
 40
1.0
 40
1.0
 40
1.0
 40
1.0
 10
122.608536753202
 20
227.7914360324619
 30
0.0
 10
122.5020833027078
 20
227.8806640055298
 30
0.0
 10
122.3952853426651
 20
227.9688584499523
 30
0.0
 10
122.2874538539768
 20
228.0563638752776
 30
0.0
  0
SPLINE
  5
371
330
353
100
AcDbEntity
  8
0
 62
   248
100
AcDbSpline
210
0.0
220
0.0
230
1.0
 70
     8
 71
     3
 72
     8
 73
     4
 74
     0
 42
0.0000000001
 43
0.0000000001
 40
0.0
 40
0.0
 40
0.0
 40
0.0
 40
1.0
 40
1.0
 40
1.0
 40
1.0
 10
127.0706244256976
 20
222.2114148750027
 30
0.0
 10
125.7139458236062
 20
224.1489365759072
 30
0.0
 10
124.1088758370283
 20
225.9004231206082
 30
0.0
 10
122.297444630884
 20
227.420743758249
 30
0.0
  0
SPLINE
  5
372
330
353
100
AcDbEntity
  8
0
 62
   248
100
AcDbSpline
210
0.0
220
0.0
230
1.0
 70
     8
 71
     3
 72
     8
 73
     4
 74
     0
 42
0.0000000001
 43
0.0000000001
 40
0.0
 40
0.0
 40
0.0
 40
0.0
 40
1.0
 40
1.0
 40
1.0
 40
1.0
 10
126.7295599726579
 20
221.9730142674234
 30
0.0
 10
125.3938964530265
 20
223.8802191280577
 30
0.0
 10
123.8136311539424
 20
225.6048339279738
 30
0.0
 10
122.0297607116801
 20
227.1013834067663
 30
0.0
  0
SPLINE
  5
373
330
353
100
AcDbEntity
  8
0
 62
   248
100
AcDbSpline
210
0.0
220
0.0
230
1.0
 70
     8
 71
     3
 72
     8
 73
     4
 74
     0
 42
0.0000000001
 43
0.0000000001
 40
0.0
 40
0.0
 40
0.0
 40
0.0
 40
1.0
 40
1.0
 40
1.0
 40
1.0
 10
121.9629258592662
 20
227.0221462106056
 30
0.0
 10
121.856472408772
 20
227.111029674125
 30
0.0
 10
121.7496744487293
 20
227.1992241185474
 30
0.0
 10
121.6418429600409
 20
227.2867295438728
 30
0.0
  0
SPLINE
  5
374
330
353
100
AcDbEntity
  8
0
 62
   248
100
AcDbSpline
210
0.0
220
0.0
230
1.0
 70
     8
 71
     3
 72
     8
 73
     4
 74
     0
 42
0.0000000001
 43
0.0000000001
 40
0.0
 40
0.0
 40
0.0
 40
0.0
 40
1.0
 40
1.0
 40
1.0
 40
1.0
 10
126.8804551549118
 20
221.5699380956492
 30
0.0
 10
126.8025959969452
 20
221.6850042848565
 30
0.0
 10
126.723703310333
 20
221.7993814549668
 30
0.0
 10
126.6441216046237
 20
221.9130696059801
 30
0.0
  0
ENDBLK
  5
356
330
353
100
AcDbEntity
  8
0
100
AcDbBlockEnd
  0
ENDSEC
  0
SECTION
  2
ENTITIES
  0
INSERT
  5
3C
330
1F
100
AcDbEntity
  8
0
100
AcDbBlockReference
  2
BLOCK_2
 10
0.0
 20
0.0
 30
0.0
  0
INSERT
  5
81
330
1F
100
AcDbEntity
  8
0
100
AcDbBlockReference
  2
BLOCK_3
 10
0.0
 20
0.0
 30
0.0
  0
INSERT
  5
A0
330
1F
100
AcDbEntity
  8
0
100
AcDbBlockReference
  2
BLOCK_4
 10
0.0
 20
0.0
 30
0.0
  0
POLYLINE
  5
125
330
1F
100
AcDbEntity
  8
0
 62
    29
100
AcDb2dPolyline
 66
     1
 10
0.0
 20
0.0
 30
0.0
  0
VERTEX
  5
126
330
125
100
AcDbEntity
  8
0
 62
    29
100
AcDbVertex
100
AcDb2dVertex
 10
110.89348955561
 20
36.00193683995785
 30
0.0
  0
VERTEX
  5
127
330
125
100
AcDbEntity
  8
0
 62
    29
100
AcDbVertex
100
AcDb2dVertex
 10
110.89348955561
 20
28.31110567868611
 30
0.0
  0
SEQEND
  5
128
330
125
100
AcDbEntity
  8
0
  0
POLYLINE
  5
129
330
1F
100
AcDbEntity
  8
0
 62
    29
100
AcDb2dPolyline
 66
     1
 10
0.0
 20
0.0
 30
0.0
  0
VERTEX
  5
12A
330
129
100
AcDbEntity
  8
0
 62
    29
100
AcDbVertex
100
AcDb2dVertex
 10
110.89348955561
 20
28.56121961091525
 30
0.0
  0
VERTEX
  5
12B
330
129
100
AcDbEntity
  8
0
 62
    29
100
AcDbVertex
100
AcDb2dVertex
 10
110.89348955561
 20
20.87038844964351
 30
0.0
  0
SEQEND
  5
12C
330
129
100
AcDbEntity
  8
0
  0
POLYLINE
  5
12D
330
1F
100
AcDbEntity
  8
0
 62
    29
100
AcDb2dPolyline
 66
     1
 10
0.0
 20
0.0
 30
0.0
  0
VERTEX
  5
12E
330
12D
100
AcDbEntity
  8
0
 62
    29
100
AcDbVertex
100
AcDb2dVertex
 10
140.1998833199848
 20
36.00193683995785
 30
0.0
  0
VERTEX
  5
12F
330
12D
100
AcDbEntity
  8
0
 62
    29
100
AcDbVertex
100
AcDb2dVertex
 10
140.1998833199848
 20
28.31110567868611
 30
0.0
  0
SEQEND
  5
130
330
12D
100
AcDbEntity
  8
0
  0
POLYLINE
  5
131
330
1F
100
AcDbEntity
  8
0
 62
    29
100
AcDb2dPolyline
 66
     1
 10
0.0
 20
0.0
 30
0.0
  0
VERTEX
  5
132
330
131
100
AcDbEntity
  8
0
 62
    29
100
AcDbVertex
100
AcDb2dVertex
 10
155.0778726825847
 20
36.00193683995785
 30
0.0
  0
VERTEX
  5
133
330
131
100
AcDbEntity
  8
0
 62
    29
100
AcDbVertex
100
AcDb2dVertex
 10
155.0778726825847
 20
28.31110567868611
 30
0.0
  0
SEQEND
  5
134
330
131
100
AcDbEntity
  8
0
  0
POLYLINE
  5
135
330
1F
100
AcDbEntity
  8
0
 62
    29
100
AcDb2dPolyline
 66
     1
 10
0.0
 20
0.0
 30
0.0
  0
VERTEX
  5
136
330
135
100
AcDbEntity
  8
0
 62
    29
100
AcDbVertex
100
AcDb2dVertex
 10
200.4074055488565
 20
14.11111110758333
 30
0.0
  0
VERTEX
  5
137
330
135
100
AcDbEntity
  8
0
 62
    29
100
AcDbVertex
100
AcDb2dVertex
 10
11.93656683729364
 20
14.11111110758333
 30
0.0
  0
VERTEX
  5
138
330
135
100
AcDbEntity
  8
0
 62
    29
100
AcDbVertex
100
AcDb2dVertex
 10
11.93656683729364
 20
286.7888684721396
 30
0.0
  0
VERTEX
  5
139
330
135
100
AcDbEntity
  8
0
 62
    29
100
AcDbVertex
100
AcDb2dVertex
 10
200.4074055488565
 20
286.7888684721396
 30
0.0
  0
VERTEX
  5
13A
330
135
100
AcDbEntity
  8
0
 62
    29
100
AcDbVertex
100
AcDb2dVertex
 10
200.4074055488565
 20
14.11111110758333
 30
0.0
  0
SEQEND
  5
13B
330
135
100
AcDbEntity
  8
0
  0
POLYLINE
  5
13C
330
1F
100
AcDbEntity
  8
0
 62
    18
100
AcDb2dPolyline
 66
     1
 10
0.0
 20
0.0
 30
0.0
  0
VERTEX
  5
13D
330
13C
100
AcDbEntity
  8
0
 62
    18
100
AcDbVertex
100
AcDb2dVertex
 10
92.99897458612526
 20
20.93171114928096
 30
0.0
  0
VERTEX
  5
13E
330
13C
100
AcDbEntity
  8
0
 62
    18
100
AcDbVertex
100
AcDb2dVertex
 10
200.255476837957
 20
20.93171114928096
 30
0.0
  0
SEQEND
  5
13F
330
13C
100
AcDbEntity
  8
0
  0
POLYLINE
  5
140
330
1F
100
AcDbEntity
  8
0
 62
    18
100
AcDb2dPolyline
 66
     1
 10
0.0
 20
0.0
 30
0.0
  0
VERTEX
  5
141
330
140
100
AcDbEntity
  8
0
 62
    18
100
AcDbVertex
100
AcDb2dVertex
 10
92.99897458612526
 20
28.31110567868611
 30
0.0
  0
VERTEX
  5
142
330
140
100
AcDbEntity
  8
0
 62
    18
100
AcDbVertex
100
AcDb2dVertex
 10
200.255476837957
 20
28.31110567868611
 30
0.0
  0
SEQEND
  5
143
330
140
100
AcDbEntity
  8
0
  0
POLYLINE
  5
144
330
1F
100
AcDbEntity
  8
0
 62
    18
100
AcDb2dPolyline
 66
     1
 10
0.0
 20
0.0
 30
0.0
  0
VERTEX
  5
145
330
144
100
AcDbEntity
  8
0
 62
    18
100
AcDbVertex
100
AcDb2dVertex
 10
92.99897458612526
 20
36.00193683995785
 30
0.0
  0
VERTEX
  5
146
330
144
100
AcDbEntity
  8
0
 62
    18
100
AcDbVertex
100
AcDb2dVertex
 10
92.99897458612526
 20
14.11111110758333
 30
0.0
  0
SEQEND
  5
147
330
144
100
AcDbEntity
  8
0
  0
POLYLINE
  5
148
330
1F
100
AcDbEntity
  8
0
 62
    18
100
AcDb2dPolyline
 66
     1
 10
0.0
 20
0.0
 30
0.0
  0
VERTEX
  5
149
330
148
100
AcDbEntity
  8
0
 62
    18
100
AcDbVertex
100
AcDb2dVertex
 10
11.93656683729364
 20
36.00193683995785
 30
0.0
  0
VERTEX
  5
14A
330
148
100
AcDbEntity
  8
0
 62
    18
100
AcDbVertex
100
AcDb2dVertex
 10
200.399826338789
 20
36.00193683995785
 30
0.0
  0
SEQEND
  5
14B
330
148
100
AcDbEntity
  8
0
  0
MTEXT
  5
14C
330
1F
100
AcDbEntity
  8
0
 62
   248
100
AcDbMText
 10
112.0896267080887
 20
30.71819389423018
 30
0.0
 40
2.602738485937334
 41
0.0
 71
     7
 72
     1
  1
\fMSGothic|b0|i0|c0|p34;\W0.900001; ポストフレックス　  品　番 　PF-L
  0
MTEXT
  5
14D
330
1F
100
AcDbEntity
  8
0
 62
    29
100
AcDbMText
 10
113.5076280098175
 20
23.37807345335687
 30
0.0
 40
2.398882954414985
 41
0.0
 71
     7
 72
     1
  1
\fMSGothic|b0|i0|c0|p34;\W0.750002;ポリカーボネート
  0
MTEXT
  5
14E
330
1F
100
AcDbEntity
  8
0
 62
    29
100
AcDbMText
 10
96.51211070720878
 20
16.42345919728303
 30
0.0
 40
2.638777777118084
 41
0.0
 71
     7
 72
     1
  1
\fMS Gothic|b0|i0|c0|p34;\W1;ポストフレックス自発光タイプ
  0
INSERT
  5
150
330
1F
100
AcDbEntity
  8
0
100
AcDbBlockReference
  2
BLOCK_5
 10
0.0
 20
0.0
 30
0.0
  0
MTEXT
  5
18E
330
1F
100
AcDbEntity
  8
0
 62
    29
100
AcDbMText
 10
132.6389322585069
 20
129.427414247157
 30
0.0
 40
2.638777777118084
 41
0.0
 71
     7
 72
     1
  1
\fMS Gothic|b0|i0|c0|p34;\W1;LED（白色）
  0
SPLINE
  5
18F
330
1F
100
AcDbEntity
  8
0
 62
   250
100
AcDbSpline
210
0.0
220
0.0
230
1.0
 70
    11
 71
     3
 72
    17
 73
    13
 74
     0
 42
0.0000000001
 43
0.0000000001
 40
0.0
 40
0.0
 40
0.0
 40
0.0
 40
1.0
 40
1.0
 40
1.0
 40
2.0
 40
2.0
 40
2.0
 40
3.0
 40
3.0
 40
3.0
 40
4.0
 40
4.0
 40
4.0
 40
4.0
 10
131.1072428057649
 20
206.6149508489539
 30
0.0
 10
131.1072428057649
 20
221.3968220475154
 30
0.0
 10
119.1241671794204
 20
233.3795531643114
 30
0.0
 10
104.3422959808589
 20
233.3795531643114
 30
0.0
 10
89.56076929184593
 20
233.3795531643114
 30
0.0
 10
77.57769366550141
 20
221.3968220475154
 30
0.0
 10
77.57769366550141
 20
206.6149508489539
 30
0.0
 10
77.57769366550141
 20
191.8330796503924
 30
0.0
 10
89.56076929184593
 20
179.8498317692737
 30
0.0
 10
104.3422959808589
 20
179.8498317692737
 30
0.0
 10
119.1241671794204
 20
179.8498317692737
 30
0.0
 10
131.1072428057649
 20
191.8330796503924
 30
0.0
 10
131.1072428057649
 20
206.6149508489539
 30
0.0
  0
POLYLINE
  5
190
330
1F
100
AcDbEntity
  8
0
 62
   248
100
AcDb2dPolyline
 66
     1
 10
0.0
 20
0.0
 30
0.0
  0
VERTEX
  5
191
330
190
100
AcDbEntity
  8
0
 62
   248
100
AcDbVertex
100
AcDb2dVertex
 10
117.8198540287048
 20
194.1927978030143
 30
0.0
  0
VERTEX
  5
192
330
190
100
AcDbEntity
  8
0
 62
   248
100
AcDbVertex
100
AcDb2dVertex
 10
91.27642684350035
 20
194.1927978030143
 30
0.0
  0
SEQEND
  5
193
330
190
100
AcDbEntity
  8
0
  0
POLYLINE
  5
194
330
1F
100
AcDbEntity
  8
0
 62
   248
100
AcDb2dPolyline
 66
     1
 10
0.0
 20
0.0
 30
0.0
  0
VERTEX
  5
195
330
194
100
AcDbEntity
  8
0
 62
   248
100
AcDbVertex
100
AcDb2dVertex
 10
91.27642684350035
 20
194.8311739964311
 30
0.0
  0
VERTEX
  5
196
330
194
100
AcDbEntity
  8
0
 62
   248
100
AcDbVertex
100
AcDb2dVertex
 10
117.8198540287048
 20
194.8311739964311
 30
0.0
  0
SEQEND
  5
197
330
194
100
AcDbEntity
  8
0
  0
POLYLINE
  5
198
330
1F
100
AcDbEntity
  8
0
 62
   248
100
AcDb2dPolyline
 66
     1
 10
0.0
 20
0.0
 30
0.0
  0
VERTEX
  5
199
330
198
100
AcDbEntity
  8
0
 62
   248
100
AcDbVertex
100
AcDb2dVertex
 10
97.00148652088852
 20
214.7514051112427
 30
0.0
  0
VERTEX
  5
19A
330
198
100
AcDbEntity
  8
0
 62
   248
100
AcDbVertex
100
AcDb2dVertex
 10
97.00148652088852
 20
216.8329318034307
 30
0.0
  0
SEQEND
  5
19B
330
198
100
AcDbEntity
  8
0
  0
POLYLINE
  5
19C
330
1F
100
AcDbEntity
  8
0
 62
   248
100
AcDb2dPolyline
 66
     1
 10
0.0
 20
0.0
 30
0.0
  0
VERTEX
  5
19D
330
19C
100
AcDbEntity
  8
0
 62
   248
100
AcDbVertex
100
AcDb2dVertex
 10
97.5223849582583
 20
214.7514051112427
 30
0.0
  0
VERTEX
  5
19E
330
19C
100
AcDbEntity
  8
0
 62
   248
100
AcDbVertex
100
AcDb2dVertex
 10
97.5223849582583
 20
216.8329318034307
 30
0.0
  0
SEQEND
  5
19F
330
19C
100
AcDbEntity
  8
0
  0
POLYLINE
  5
1A0
330
1F
100
AcDbEntity
  8
0
 62
   248
100
AcDb2dPolyline
 66
     1
 10
0.0
 20
0.0
 30
0.0
  0
VERTEX
  5
1A1
330
1A0
100
AcDbEntity
  8
0
 62
   248
100
AcDbVertex
100
AcDb2dVertex
 10
97.64020722385384
 20
216.8329318034307
 30
0.0
  0
VERTEX
  5
1A2
330
1A0
100
AcDbEntity
  8
0
 62
   248
100
AcDbVertex
100
AcDb2dVertex
 10
97.64020722385384
 20
214.7514051112427
 30
0.0
  0
SEQEND
  5
1A3
330
1A0
100
AcDbEntity
  8
0
  0
POLYLINE
  5
1A4
330
1F
100
AcDbEntity
  8
0
 62
   248
100
AcDb2dPolyline
 66
     1
 10
0.0
 20
0.0
 30
0.0
  0
VERTEX
  5
1A5
330
1A4
100
AcDbEntity
  8
0
 62
   248
100
AcDbVertex
100
AcDb2dVertex
 10
126.4267360795044
 20
222.2548230781169
 30
0.0
  0
VERTEX
  5
1A6
330
1A4
100
AcDbEntity
  8
0
 62
   248
100
AcDbVertex
100
AcDb2dVertex
 10
126.7681450420927
 20
222.4939127047932
 30
0.0
  0
SEQEND
  5
1A7
330
1A4
100
AcDbEntity
  8
0
  0
POLYLINE
  5
1A8
330
1F
100
AcDbEntity
  8
0
 62
   248
100
AcDb2dPolyline
 66
     1
 10
0.0
 20
0.0
 30
0.0
  0
VERTEX
  5
1A9
330
1A8
100
AcDbEntity
  8
0
 62
   248
100
AcDbVertex
100
AcDb2dVertex
 10
125.1437825207974
 20
188.0179809100268
 30
0.0
  0
VERTEX
  5
1AA
330
1A8
100
AcDbEntity
  8
0
 62
   248
100
AcDbVertex
100
AcDb2dVertex
 10
124.8247666788633
 20
188.2853203196821
 30
0.0
  0
SEQEND
  5
1AB
330
1A8
100
AcDbEntity
  8
0
  0
POLYLINE
  5
1AC
330
1F
100
AcDbEntity
  8
0
 62
   248
100
AcDb2dPolyline
 66
     1
 10
0.0
 20
0.0
 30
0.0
  0
VERTEX
  5
1AD
330
1AC
100
AcDbEntity
  8
0
 62
   248
100
AcDbVertex
100
AcDb2dVertex
 10
117.8198540287048
 20
208.6480739495741
 30
0.0
  0
VERTEX
  5
1AE
330
1AC
100
AcDbEntity
  8
0
 62
   248
100
AcDbVertex
100
AcDb2dVertex
 10
117.5597493195684
 20
208.6480739495741
 30
0.0
  0
SEQEND
  5
1AF
330
1AC
100
AcDbEntity
  8
0
  0
POLYLINE
  5
1B0
330
1F
100
AcDbEntity
  8
0
 62
   248
100
AcDb2dPolyline
 66
     1
 10
0.0
 20
0.0
 30
0.0
  0
VERTEX
  5
1B1
330
1B0
100
AcDbEntity
  8
0
 62
   248
100
AcDbVertex
100
AcDb2dVertex
 10
91.53687606218523
 20
208.6480739495741
 30
0.0
  0
VERTEX
  5
1B2
330
1B0
100
AcDbEntity
  8
0
 62
   248
100
AcDbVertex
100
AcDb2dVertex
 10
91.27677135304887
 20
208.6480739495741
 30
0.0
  0
SEQEND
  5
1B3
330
1B0
100
AcDbEntity
  8
0
  0
POLYLINE
  5
1B4
330
1F
100
AcDbEntity
  8
0
 62
   248
100
AcDb2dPolyline
 66
     1
 10
0.0
 20
0.0
 30
0.0
  0
VERTEX
  5
1B5
330
1B4
100
AcDbEntity
  8
0
 62
   248
100
AcDbVertex
100
AcDb2dVertex
 10
91.27642684350035
 20
208.7658962151696
 30
0.0
  0
VERTEX
  5
1B6
330
1B4
100
AcDbEntity
  8
0
 62
   248
100
AcDbVertex
100
AcDb2dVertex
 10
91.53687606218523
 20
208.7658962151696
 30
0.0
  0
SEQEND
  5
1B7
330
1B4
100
AcDbEntity
  8
0
  0
POLYLINE
  5
1B8
330
1F
100
AcDbEntity
  8
0
 62
   248
100
AcDb2dPolyline
 66
     1
 10
0.0
 20
0.0
 30
0.0
  0
VERTEX
  5
1B9
330
1B8
100
AcDbEntity
  8
0
 62
   248
100
AcDbVertex
100
AcDb2dVertex
 10
117.5597493195684
 20
208.7658962151696
 30
0.0
  0
VERTEX
  5
1BA
330
1B8
100
AcDbEntity
  8
0
 62
   248
100
AcDbVertex
100
AcDb2dVertex
 10
117.8198540287048
 20
208.7658962151696
 30
0.0
  0
SEQEND
  5
1BB
330
1B8
100
AcDbEntity
  8
0
  0
POLYLINE
  5
1BC
330
1F
100
AcDbEntity
  8
0
 62
   248
100
AcDb2dPolyline
 66
     1
 10
0.0
 20
0.0
 30
0.0
  0
VERTEX
  5
1BD
330
1BC
100
AcDbEntity
  8
0
 62
   248
100
AcDbVertex
100
AcDb2dVertex
 10
91.27642684350035
 20
209.2864501429909
 30
0.0
  0
VERTEX
  5
1BE
330
1BC
100
AcDbEntity
  8
0
 62
   248
100
AcDbVertex
100
AcDb2dVertex
 10
91.53687606218523
 20
209.2864501429909
 30
0.0
  0
SEQEND
  5
1BF
330
1BC
100
AcDbEntity
  8
0
  0
POLYLINE
  5
1C0
330
1F
100
AcDbEntity
  8
0
 62
   248
100
AcDb2dPolyline
 66
     1
 10
0.0
 20
0.0
 30
0.0
  0
VERTEX
  5
1C1
330
1C0
100
AcDbEntity
  8
0
 62
   248
100
AcDbVertex
100
AcDb2dVertex
 10
117.5597493195684
 20
209.2864501429909
 30
0.0
  0
VERTEX
  5
1C2
330
1C0
100
AcDbEntity
  8
0
 62
   248
100
AcDbVertex
100
AcDb2dVertex
 10
117.8198540287048
 20
209.2864501429909
 30
0.0
  0
SEQEND
  5
1C3
330
1C0
100
AcDbEntity
  8
0
  0
POLYLINE
  5
1C4
330
1F
100
AcDbEntity
  8
0
 62
   248
100
AcDb2dPolyline
 66
     1
 10
0.0
 20
0.0
 30
0.0
  0
VERTEX
  5
1C5
330
1C4
100
AcDbEntity
  8
0
 62
   248
100
AcDbVertex
100
AcDb2dVertex
 10
111.4564181578998
 20
214.7514051112427
 30
0.0
  0
VERTEX
  5
1C6
330
1C4
100
AcDbEntity
  8
0
 62
   248
100
AcDbVertex
100
AcDb2dVertex
 10
111.4564181578998
 20
216.8329318034307
 30
0.0
  0
SEQEND
  5
1C7
330
1C4
100
AcDbEntity
  8
0
  0
POLYLINE
  5
1C8
330
1F
100
AcDbEntity
  8
0
 62
   248
100
AcDb2dPolyline
 66
     1
 10
0.0
 20
0.0
 30
0.0
  0
VERTEX
  5
1C9
330
1C8
100
AcDbEntity
  8
0
 62
   248
100
AcDbVertex
100
AcDb2dVertex
 10
111.5745849330439
 20
216.8329318034307
 30
0.0
  0
VERTEX
  5
1CA
330
1C8
100
AcDbEntity
  8
0
 62
   248
100
AcDbVertex
100
AcDb2dVertex
 10
111.5745849330439
 20
214.7514051112427
 30
0.0
  0
SEQEND
  5
1CB
330
1C8
100
AcDbEntity
  8
0
  0
POLYLINE
  5
1CC
330
1F
100
AcDbEntity
  8
0
 62
   248
100
AcDb2dPolyline
 66
     1
 10
0.0
 20
0.0
 30
0.0
  0
VERTEX
  5
1CD
330
1CC
100
AcDbEntity
  8
0
 62
   248
100
AcDbVertex
100
AcDb2dVertex
 10
112.0951388608651
 20
216.8329318034307
 30
0.0
  0
VERTEX
  5
1CE
330
1CC
100
AcDbEntity
  8
0
 62
   248
100
AcDbVertex
100
AcDb2dVertex
 10
112.0951388608651
 20
214.7514051112427
 30
0.0
  0
SEQEND
  5
1CF
330
1CC
100
AcDbEntity
  8
0
  0
SPLINE
  5
1D0
330
1F
100
AcDbEntity
  8
0
 62
   248
100
AcDbSpline
210
0.0
220
0.0
230
1.0
 70
     8
 71
     3
 72
    11
 73
     7
 74
     0
 42
0.0000000001
 43
0.0000000001
 40
0.0
 40
0.0
 40
0.0
 40
0.0
 40
1.0
 40
1.0
 40
1.0
 40
2.0
 40
2.0
 40
2.0
 40
2.0
 10
91.27642684350035
 20
209.2867946525394
 30
0.0
 10
87.1085503254451
 20
209.2867946525394
 30
0.0
 10
83.72960067351205
 20
205.9078450006064
 30
0.0
 10
83.72960067351205
 20
201.7396239730026
 30
0.0
 10
83.72960067351205
 20
197.5714029453988
 30
0.0
 10
87.1085503254451
 20
194.1924532934658
 30
0.0
 10
91.27642684350035
 20
194.1924532934658
 30
0.0
  0
SPLINE
  5
1D1
330
1F
100
AcDbEntity
  8
0
 62
   248
100
AcDbSpline
210
0.0
220
0.0
230
1.0
 70
     8
 71
     3
 72
    11
 73
     7
 74
     0
 42
0.0000000001
 43
0.0000000001
 40
0.0
 40
0.0
 40
0.0
 40
0.0
 40
1.0
 40
1.0
 40
1.0
 40
2.0
 40
2.0
 40
2.0
 40
2.0
 10
91.27642684350035
 20
208.7658962151696
 30
0.0
 10
87.39587128891492
 20
208.7658962151696
 30
0.0
 10
84.25049911088182
 20
205.620179527588
 30
0.0
 10
84.25049911088182
 20
201.7396239730026
 30
0.0
 10
84.25049911088182
 20
197.8590684184172
 30
0.0
 10
87.39587128891492
 20
194.7133517308356
 30
0.0
 10
91.27642684350035
 20
194.7133517308356
 30
0.0
  0
SPLINE
  5
1D2
330
1F
100
AcDbEntity
  8
0
 62
   248
100
AcDbSpline
210
0.0
220
0.0
230
1.0
 70
     8
 71
     3
 72
     8
 73
     4
 74
     0
 42
0.0000000001
 43
0.0000000001
 40
0.0
 40
0.0
 40
0.0
 40
0.0
 40
1.0
 40
1.0
 40
1.0
 40
1.0
 10
91.53687606218523
 20
208.6480739495741
 30
0.0
 10
94.9079019945022
 20
208.6480739495741
 30
0.0
 10
97.64020722385384
 20
211.3807236884743
 30
0.0
 10
97.64020722385384
 20
214.7514051112427
 30
0.0
  0
SPLINE
  5
1D3
330
1F
100
AcDbEntity
  8
0
 62
   248
100
AcDbSpline
210
0.0
220
0.0
230
1.0
 70
     8
 71
     3
 72
     8
 73
     4
 74
     0
 42
0.0000000001
 43
0.0000000001
 40
0.0
 40
0.0
 40
0.0
 40
0.0
 40
1.0
 40
1.0
 40
1.0
 40
1.0
 10
91.53687606218523
 20
209.2864501429909
 30
0.0
 10
94.55512421681262
 20
209.2864501429909
 30
0.0
 10
97.00148652088852
 20
211.7328124470668
 30
0.0
 10
97.00148652088852
 20
214.7514051112427
 30
0.0
  0
SPLINE
  5
1D4
330
1F
100
AcDbEntity
  8
0
 62
   248
100
AcDbSpline
210
0.0
220
0.0
230
1.0
 70
    11
 71
     3
 72
    17
 73
    13
 74
     0
 42
0.0000000001
 43
0.0000000001
 40
0.0
 40
0.0
 40
0.0
 40
0.0
 40
1.0
 40
1.0
 40
1.0
 40
2.0
 40
2.0
 40
2.0
 40
3.0
 40
3.0
 40
3.0
 40
4.0
 40
4.0
 40
4.0
 40
4.0
 10
132.6530571499965
 20
206.4239203042968
 30
0.0
 10
132.6530571499965
 20
221.9454535035414
 30
0.0
 10
120.07019039967
 20
234.5284925086422
 30
0.0
 10
104.5483126908768
 20
234.5284925086422
 30
0.0
 10
89.02643498208367
 20
234.5284925086422
 30
0.0
 10
76.44356823175717
 20
221.9454535035414
 30
0.0
 10
76.44356823175717
 20
206.4239203042968
 30
0.0
 10
76.44356823175717
 20
190.9016980859551
 30
0.0
 10
89.02643498208367
 20
178.3188313356286
 30
0.0
 10
104.5483126908768
 20
178.3188313356286
 30
0.0
 10
120.07019039967
 20
178.3188313356286
 30
0.0
 10
132.6530571499965
 20
190.9016980859551
 30
0.0
 10
132.6530571499965
 20
206.4239203042968
 30
0.0
  0
SPLINE
  5
1D5
330
1F
100
AcDbEntity
  8
0
 62
   248
100
AcDbSpline
210
0.0
220
0.0
230
1.0
 70
     8
 71
     3
 72
     8
 73
     4
 74
     0
 42
0.0000000001
 43
0.0000000001
 40
0.0
 40
0.0
 40
0.0
 40
0.0
 40
1.0
 40
1.0
 40
1.0
 40
1.0
 10
131.99125430728
 20
208.8248073479674
 30
0.0
 10
131.9791964730816
 20
208.9629556769259
 30
0.0
 10
131.9661051102376
 20
209.101448515433
 30
0.0
 10
131.9519802187481
 20
209.239252334843
 30
0.0
  0
SPLINE
  5
1D6
330
1F
100
AcDbEntity
  8
0
 62
   248
100
AcDbSpline
210
0.0
220
0.0
230
1.0
 70
     8
 71
     3
 72
     8
 73
     4
 74
     0
 42
0.0000000001
 43
0.0000000001
 40
0.0
 40
0.0
 40
0.0
 40
0.0
 40
1.0
 40
1.0
 40
1.0
 40
1.0
 10
102.1477701567547
 20
233.8670341754742
 30
0.0
 10
102.0089328086992
 20
233.8549763412759
 30
0.0
 10
101.8707844797406
 20
233.8415404688834
 30
0.0
 10
101.7326361507821
 20
233.8274155773939
 30
0.0
  0
SPLINE
  5
1D7
330
1F
100
AcDbEntity
  8
0
 62
   248
100
AcDbSpline
210
0.0
220
0.0
230
1.0
 70
     8
 71
     3
 72
     8
 73
     4
 74
     0
 42
0.0000000001
 43
0.0000000001
 40
0.0
 40
0.0
 40
0.0
 40
0.0
 40
1.0
 40
1.0
 40
1.0
 40
1.0
 10
77.10537107447367
 20
204.0226887510777
 30
0.0
 10
77.11708439912351
 20
203.8845404221192
 30
0.0
 10
77.13017576196746
 20
203.7463920931606
 30
0.0
 10
77.1446451630055
 20
203.6082437642021
 30
0.0
  0
SPLINE
  5
1D8
330
1F
100
AcDbEntity
  8
0
 62
   248
100
AcDbSpline
210
0.0
220
0.0
230
1.0
 70
     8
 71
     3
 72
     8
 73
     4
 74
     0
 42
0.0000000001
 43
0.0000000001
 40
0.0
 40
0.0
 40
0.0
 40
0.0
 40
1.0
 40
1.0
 40
1.0
 40
1.0
 10
106.9491997345474
 20
178.9806341783451
 30
0.0
 10
107.0873480635059
 20
178.9926920125435
 30
0.0
 10
107.2254963924645
 20
179.0057833753874
 30
0.0
 10
107.363644721423
 20
179.0202527764255
 30
0.0
  0
SPLINE
  5
1D9
330
1F
100
AcDbEntity
  8
0
 62
   248
100
AcDbSpline
210
0.0
220
0.0
230
1.0
 70
     8
 71
     3
 72
     8
 73
     4
 74
     0
 42
0.0000000001
 43
0.0000000001
 40
0.0
 40
0.0
 40
0.0
 40
0.0
 40
1.0
 40
1.0
 40
1.0
 40
1.0
 10
120.0061116236443
 20
183.6215223065252
 30
0.0
 10
120.1211778128517
 20
183.6993814644918
 30
0.0
 10
120.2355549829619
 20
183.7779296415555
 30
0.0
 10
120.3492431339752
 20
183.8575113472648
 30
0.0
  0
INSERT
  5
1DB
330
1F
100
AcDbEntity
  8
0
100
AcDbBlockReference
  2
BLOCK_6
 10
0.0
 20
0.0
 30
0.0
  0
INSERT
  5
210
330
1F
100
AcDbEntity
  8
0
100
AcDbBlockReference
  2
BLOCK_8
 10
0.0
 20
0.0
 30
0.0
  0
INSERT
  5
245
330
1F
100
AcDbEntity
  8
0
100
AcDbBlockReference
  2
BLOCK_11
 10
0.0
 20
0.0
 30
0.0
  0
INSERT
  5
276
330
1F
100
AcDbEntity
  8
0
100
AcDbBlockReference
  2
BLOCK_12
 10
0.0
 20
0.0
 30
0.0
  0
INSERT
  5
2AC
330
1F
100
AcDbEntity
  8
0
100
AcDbBlockReference
  2
BLOCK_14
 10
0.0
 20
0.0
 30
0.0
  0
INSERT
  5
2DD
330
1F
100
AcDbEntity
  8
0
100
AcDbBlockReference
  2
BLOCK_15
 10
0.0
 20
0.0
 30
0.0
  0
INSERT
  5
313
330
1F
100
AcDbEntity
  8
0
100
AcDbBlockReference
  2
BLOCK_17
 10
0.0
 20
0.0
 30
0.0
  0
INSERT
  5
344
330
1F
100
AcDbEntity
  8
0
100
AcDbBlockReference
  2
BLOCK_18
 10
0.0
 20
0.0
 30
0.0
  0
SPLINE
  5
375
330
1F
100
AcDbEntity
  8
0
 62
   248
100
AcDbSpline
210
0.0
220
0.0
230
1.0
 70
     8
 71
     3
 72
    11
 73
     7
 74
     0
 42
0.0000000001
 43
0.0000000001
 40
0.0
 40
0.0
 40
0.0
 40
0.0
 40
1.0
 40
1.0
 40
1.0
 40
2.0
 40
2.0
 40
2.0
 40
2.0
 10
117.8198540287048
 20
194.1927978030143
 30
0.0
 10
121.9880750563085
 20
194.1927978030143
 30
0.0
 10
125.3666801986931
 20
197.5717474549473
 30
0.0
 10
125.3666801986931
 20
201.7399684825511
 30
0.0
 10
125.3666801986931
 20
205.9078450006064
 30
0.0
 10
121.9880750563085
 20
209.2864501429909
 30
0.0
 10
117.8198540287048
 20
209.2864501429909
 30
0.0
  0
SPLINE
  5
376
330
1F
100
AcDbEntity
  8
0
 62
   248
100
AcDbSpline
210
0.0
220
0.0
230
1.0
 70
     8
 71
     3
 72
    11
 73
     7
 74
     0
 42
0.0000000001
 43
0.0000000001
 40
0.0
 40
0.0
 40
0.0
 40
0.0
 40
1.0
 40
1.0
 40
1.0
 40
2.0
 40
2.0
 40
2.0
 40
2.0
 10
117.8198540287048
 20
194.7133517308356
 30
0.0
 10
121.7004095832902
 20
194.7133517308356
 30
0.0
 10
124.8461262708718
 20
197.8590684184172
 30
0.0
 10
124.8461262708718
 20
201.7396239730026
 30
0.0
 10
124.8461262708718
 20
205.620179527588
 30
0.0
 10
121.7004095832902
 20
208.7658962151696
 30
0.0
 10
117.8198540287048
 20
208.7658962151696
 30
0.0
  0
SPLINE
  5
377
330
1F
100
AcDbEntity
  8
0
 62
   248
100
AcDbSpline
210
0.0
220
0.0
230
1.0
 70
     8
 71
     3
 72
    11
 73
     7
 74
     0
 42
0.0000000001
 43
0.0000000001
 40
0.0
 40
0.0
 40
0.0
 40
0.0
 40
1.0
 40
1.0
 40
1.0
 40
2.0
 40
2.0
 40
2.0
 40
2.0
 10
112.0951388608651
 20
216.8329318034307
 30
0.0
 10
112.0951388608651
 20
221.0008083214859
 30
0.0
 10
108.7161892089321
 20
224.3797579734189
 30
0.0
 10
104.5486572004253
 20
224.3797579734189
 30
0.0
 10
100.3804361728216
 20
224.3797579734189
 30
0.0
 10
97.00148652088852
 20
221.0008083214859
 30
0.0
 10
97.00148652088852
 20
216.8329318034307
 30
0.0
  0
SPLINE
  5
378
330
1F
100
AcDbEntity
  8
0
 62
   248
100
AcDbSpline
210
0.0
220
0.0
230
1.0
 70
     8
 71
     3
 72
    11
 73
     7
 74
     0
 42
0.0000000001
 43
0.0000000001
 40
0.0
 40
0.0
 40
0.0
 40
0.0
 40
1.0
 40
1.0
 40
1.0
 40
2.0
 40
2.0
 40
2.0
 40
2.0
 10
111.5745849330439
 20
216.8329318034307
 30
0.0
 10
111.5745849330439
 20
220.7134873580161
 30
0.0
 10
108.4288682454622
 20
223.8595485551462
 30
0.0
 10
104.5483126908768
 20
223.8595485551462
 30
0.0
 10
100.6677571362914
 20
223.8595485551462
 30
0.0
 10
97.5223849582583
 20
220.7134873580161
 30
0.0
 10
97.5223849582583
 20
216.8329318034307
 30
0.0
  0
SPLINE
  5
379
330
1F
100
AcDbEntity
  8
0
 62
   248
100
AcDbSpline
210
0.0
220
0.0
230
1.0
 70
     8
 71
     3
 72
     8
 73
     4
 74
     0
 42
0.0000000001
 43
0.0000000001
 40
0.0
 40
0.0
 40
0.0
 40
0.0
 40
1.0
 40
1.0
 40
1.0
 40
1.0
 10
111.4564181578998
 20
214.7514051112427
 30
0.0
 10
111.4564181578998
 20
211.3803791789258
 30
0.0
 10
114.1890678968
 20
208.6480739495741
 30
0.0
 10
117.5597493195684
 20
208.6480739495741
 30
0.0
  0
POLYLINE
  5
37A
330
1F
100
AcDbEntity
  8
0
 62
   248
100
AcDb2dPolyline
 66
     1
 10
0.0
 20
0.0
 30
0.0
  0
VERTEX
  5
37B
330
37A
100
AcDbEntity
  8
0
 62
   248
100
AcDbVertex
100
AcDb2dVertex
 10
117.8198540287048
 20
194.7133517308356
 30
0.0
  0
VERTEX
  5
37C
330
37A
100
AcDbEntity
  8
0
 62
   248
100
AcDbVertex
100
AcDb2dVertex
 10
91.27642684350035
 20
194.7133517308356
 30
0.0
  0
SEQEND
  5
37D
330
37A
100
AcDbEntity
  8
0
  0
SPLINE
  5
37E
330
1F
100
AcDbEntity
  8
0
 62
   248
100
AcDbSpline
210
0.0
220
0.0
230
1.0
 70
     8
 71
     3
 72
    11
 73
     7
 74
     0
 42
0.0000000001
 43
0.0000000001
 40
0.0
 40
0.0
 40
0.0
 40
0.0
 40
1.0
 40
1.0
 40
1.0
 40
2.0
 40
2.0
 40
2.0
 40
2.0
 10
91.27642684350035
 20
208.6480739495741
 30
0.0
 10
87.46132810313468
 20
208.6480739495741
 30
0.0
 10
84.36832137647737
 20
205.5547227133683
 30
0.0
 10
84.36832137647737
 20
201.7392794634541
 30
0.0
 10
84.36832137647737
 20
197.9245252326369
 30
0.0
 10
87.46132810313468
 20
194.8311739964311
 30
0.0
 10
91.27642684350035
 20
194.8311739964311
 30
0.0
  0
SPLINE
  5
37F
330
1F
100
AcDbEntity
  8
0
 62
   248
100
AcDbSpline
210
0.0
220
0.0
230
1.0
 70
     8
 71
     3
 72
     8
 73
     4
 74
     0
 42
0.0000000001
 43
0.0000000001
 40
0.0
 40
0.0
 40
0.0
 40
0.0
 40
1.0
 40
1.0
 40
1.0
 40
1.0
 10
91.53687606218523
 20
208.7658962151696
 30
0.0
 10
94.84278968983098
 20
208.7658962151696
 30
0.0
 10
97.5223849582583
 20
211.445491483597
 30
0.0
 10
97.5223849582583
 20
214.7510606016942
 30
0.0
  0
SPLINE
  5
380
330
1F
100
AcDbEntity
  8
0
 62
   248
100
AcDbSpline
210
0.0
220
0.0
230
1.0
 70
     8
 71
     3
 72
    11
 73
     7
 74
     0
 42
0.0000000001
 43
0.0000000001
 40
0.0
 40
0.0
 40
0.0
 40
0.0
 40
1.0
 40
1.0
 40
1.0
 40
2.0
 40
2.0
 40
2.0
 40
2.0
 10
117.8198540287048
 20
194.8311739964311
 30
0.0
 10
121.6356417881675
 20
194.8311739964311
 30
0.0
 10
124.7286485148248
 20
197.9245252326369
 30
0.0
 10
124.7286485148248
 20
201.7399684825511
 30
0.0
 10
124.7286485148248
 20
205.5547227133683
 30
0.0
 10
121.6356417881675
 20
208.6480739495741
 30
0.0
 10
117.8198540287048
 20
208.6480739495741
 30
0.0
  0
SPLINE
  5
381
330
1F
100
AcDbEntity
  8
0
 62
   248
100
AcDbSpline
210
0.0
220
0.0
230
1.0
 70
     8
 71
     3
 72
    11
 73
     7
 74
     0
 42
0.0000000001
 43
0.0000000001
 40
0.0
 40
0.0
 40
0.0
 40
0.0
 40
1.0
 40
1.0
 40
1.0
 40
2.0
 40
2.0
 40
2.0
 40
2.0
 10
111.4564181578998
 20
216.8329318034307
 30
0.0
 10
111.4564181578998
 20
220.6483750533449
 30
0.0
 10
108.3634114312425
 20
223.7410372704536
 30
0.0
 10
104.5483126908768
 20
223.7410372704536
 30
0.0
 10
100.7332139505111
 20
223.7410372704536
 30
0.0
 10
97.63986271430532
 20
220.6483750533449
 30
0.0
 10
97.63986271430532
 20
216.8329318034307
 30
0.0
  0
SPLINE
  5
382
330
1F
100
AcDbEntity
  8
0
 62
   248
100
AcDbSpline
210
0.0
220
0.0
230
1.0
 70
     8
 71
     3
 72
     8
 73
     4
 74
     0
 42
0.0000000001
 43
0.0000000001
 40
0.0
 40
0.0
 40
0.0
 40
0.0
 40
1.0
 40
1.0
 40
1.0
 40
1.0
 10
111.5745849330439
 20
214.7514051112427
 30
0.0
 10
111.5745849330439
 20
211.445491483597
 30
0.0
 10
114.2541802014712
 20
208.7658962151696
 30
0.0
 10
117.5597493195684
 20
208.7658962151696
 30
0.0
  0
SPLINE
  5
383
330
1F
100
AcDbEntity
  8
0
 62
   248
100
AcDbSpline
210
0.0
220
0.0
230
1.0
 70
     8
 71
     3
 72
     8
 73
     4
 74
     0
 42
0.0000000001
 43
0.0000000001
 40
0.0
 40
0.0
 40
0.0
 40
0.0
 40
1.0
 40
1.0
 40
1.0
 40
1.0
 10
112.0951388608651
 20
214.7514051112427
 30
0.0
 10
112.0951388608651
 20
211.7328124470668
 30
0.0
 10
114.5418456744896
 20
209.2861056334424
 30
0.0
 10
117.5597493195684
 20
209.2861056334424
 30
0.0
  0
POLYLINE
  5
384
330
1F
100
AcDbEntity
  8
0
 62
    29
100
AcDb2dPolyline
 66
     1
 10
0.0
 20
0.0
 30
0.0
  0
VERTEX
  5
385
330
384
100
AcDbEntity
  8
0
 62
    29
100
AcDbVertex
100
AcDb2dVertex
 10
68.38376734401517
 20
177.8564995215081
 30
0.0
  0
VERTEX
  5
386
330
384
100
AcDbEntity
  8
0
 62
    29
100
AcDbVertex
100
AcDb2dVertex
 10
62.03376734560267
 20
177.8564995215081
 30
0.0
  0
VERTEX
  5
387
330
384
100
AcDbEntity
  8
0
 62
    29
100
AcDbVertex
100
AcDb2dVertex
 10
62.03376734560267
 20
234.6538939843053
 30
0.0
  0
VERTEX
  5
388
330
384
100
AcDbEntity
  8
0
 62
    29
100
AcDbVertex
100
AcDb2dVertex
 10
68.38376734401517
 20
234.6538939843053
 30
0.0
  0
SEQEND
  5
389
330
384
100
AcDbEntity
  8
0
  0
MTEXT
  5
38A
330
1F
100
AcDbEntity
  8
0
 62
    29
100
AcDbMText
 10
59.20396591401845
 20
202.6842691550581
 30
0.0
 40
3.870843115721784
 41
0.0
 71
     7
 72
     1
  1
\fMSGothic|b0|i0|c0|p34;\W0.900001;108
 11
-4.371139000186241E-8
 21
0.999999999999999
 31
0.0
  0
MTEXT
  5
38B
330
1F
100
AcDbEntity
  8
0
 62
    29
100
AcDbMText
 10
101.5698553891041
 20
163.9965358747995
 30
0.0
 40
2.878666665947001
 41
0.0
 71
     7
 72
     1
  1
\fMS Gothic|b0|i0|c0|p34;\W1;47
  0
MTEXT
  5
38C
330
1F
100
AcDbEntity
  8
0
 62
    29
100
AcDbMText
 10
86.24865449232674
 20
152.9911783471689
 30
0.0
 40
3.870837610892389
 41
0.0
 71
     7
 72
     1
  1
\fMSGothic|b0|i0|c0|p34;\W0.750002; ベース平面　1：2
  0
MTEXT
  5
38D
330
1F
100
AcDbEntity
  8
0
 62
    29
100
AcDbMText
 10
86.41281329219889
 20
153.6963893929995
 30
0.0
 40
3.870837610892389
 41
0.0
 71
     7
 72
     1
  1
\fMS Gothic|b0|i0|c0|p34;\W0.750002; 
  0
POLYLINE
  5
38E
330
1F
100
AcDbEntity
  8
0
 62
    29
100
AcDb2dPolyline
 66
     1
 10
0.0
 20
0.0
 30
0.0
  0
VERTEX
  5
38F
330
38E
100
AcDbEntity
  8
0
 62
    29
100
AcDbVertex
100
AcDb2dVertex
 10
131.7993624887515
 20
151.2031737903242
 30
0.0
  0
VERTEX
  5
390
330
38E
100
AcDbEntity
  8
0
 62
    29
100
AcDbVertex
100
AcDb2dVertex
 10
76.01120874835831
 20
151.2031737903242
 30
0.0
  0
VERTEX
  5
391
330
38E
100
AcDbEntity
  8
0
 62
    29
100
AcDbVertex
100
AcDb2dVertex
 10
76.01120874835831
 20
160.0270968566946
 30
0.0
  0
VERTEX
  5
392
330
38E
100
AcDbEntity
  8
0
 62
    29
100
AcDbVertex
100
AcDb2dVertex
 10
131.7993624887515
 20
160.0270968566946
 30
0.0
  0
VERTEX
  5
393
330
38E
100
AcDbEntity
  8
0
 62
    29
100
AcDbVertex
100
AcDb2dVertex
 10
131.7993624887515
 20
151.2031737903242
 30
0.0
  0
SEQEND
  5
394
330
38E
100
AcDbEntity
  8
0
  0
POLYLINE
  5
395
330
1F
100
AcDbEntity
  8
0
 62
   248
100
AcDb2dPolyline
 66
     1
 10
0.0
 20
0.0
 30
0.0
  0
VERTEX
  5
396
330
395
100
AcDbEntity
  8
0
 62
   248
100
AcDbVertex
100
AcDb2dVertex
 10
116.0001545933958
 20
183.8421806723554
 30
0.0
  0
VERTEX
  5
397
330
395
100
AcDbEntity
  8
0
 62
   248
100
AcDbVertex
100
AcDb2dVertex
 10
92.75041094686449
 20
183.8421806723554
 30
0.0
  0
VERTEX
  5
398
330
395
100
AcDbEntity
  8
0
 62
   248
100
AcDbVertex
100
AcDb2dVertex
 10
92.75041094686449
 20
192.3801608134501
 30
0.0
  0
VERTEX
  5
399
330
395
100
AcDbEntity
  8
0
 62
   248
100
AcDbVertex
100
AcDb2dVertex
 10
116.0001545933958
 20
192.3801608134501
 30
0.0
  0
VERTEX
  5
39A
330
395
100
AcDbEntity
  8
0
 62
   248
100
AcDbVertex
100
AcDb2dVertex
 10
116.0001545933958
 20
183.8421806723554
 30
0.0
  0
SEQEND
  5
39B
330
395
100
AcDbEntity
  8
0
  0
POLYLINE
  5
39C
330
1F
100
AcDbEntity
  8
0
 62
   248
100
AcDb2dPolyline
 66
     1
 10
0.0
 20
0.0
 30
0.0
  0
VERTEX
  5
39D
330
39C
100
AcDbEntity
  8
0
 62
   248
100
AcDbVertex
100
AcDb2dVertex
 10
112.8888888606667
 20
227.5023925212494
 30
0.0
  0
VERTEX
  5
39E
330
39C
100
AcDbEntity
  8
0
 62
   248
100
AcDbVertex
100
AcDb2dVertex
 10
118.2659938940446
 20
248.4802679500327
 30
0.0
  0
VERTEX
  5
39F
330
39C
100
AcDbEntity
  8
0
 62
   248
100
AcDbVertex
100
AcDb2dVertex
 10
144.3715494430738
 20
248.4802679500327
 30
0.0
  0
SEQEND
  5
3A0
330
39C
100
AcDbEntity
  8
0
  0
MTEXT
  5
3A1
330
1F
100
AcDbEntity
  8
0
 62
    29
100
AcDbMText
 10
118.6187716717342
 20
250.2448458575777
 30
0.0
 40
2.638777777118084
 41
0.0
 71
     7
 72
     1
  1
\fMS Gothic|b0|i0|c0|p34;\W1;ソーラーパネル
  0
POLYLINE
  5
3A2
330
1F
100
AcDbEntity
  8
0
 62
   248
100
AcDb2dPolyline
 66
     1
 10
0.0
 20
0.0
 30
0.0
  0
VERTEX
  5
3A3
330
3A2
100
AcDbEntity
  8
0
 62
   248
100
AcDbVertex
100
AcDb2dVertex
 10
116.1017849102107
 20
175.6442314556549
 30
0.0
  0
VERTEX
  5
3A4
330
3A2
100
AcDbEntity
  8
0
 62
   248
100
AcDbVertex
100
AcDb2dVertex
 10
116.1017849102107
 20
169.1174980588491
 30
0.0
  0
VERTEX
  5
3A5
330
3A2
100
AcDbEntity
  8
0
 62
   248
100
AcDbVertex
100
AcDb2dVertex
 10
92.77831622029501
 20
169.1174980588491
 30
0.0
  0
VERTEX
  5
3A6
330
3A2
100
AcDbEntity
  8
0
 62
   248
100
AcDbVertex
100
AcDb2dVertex
 10
92.77831622029501
 20
175.6442314556549
 30
0.0
  0
SEQEND
  5
3A7
330
3A2
100
AcDbEntity
  8
0
  0
POLYLINE
  5
3A8
330
1F
100
AcDbEntity
  8
0
 62
   248
100
AcDb2dPolyline
 66
     1
 10
0.0
 20
0.0
 30
0.0
  0
VERTEX
  5
3A9
330
3A8
100
AcDbEntity
  8
0
 62
   248
100
AcDbVertex
100
AcDb2dVertex
 10
123.9104383370779
 20
119.1872124268004
 30
0.0
  0
VERTEX
  5
3AA
330
3A8
100
AcDbEntity
  8
0
 62
   248
100
AcDbVertex
100
AcDb2dVertex
 10
129.0257161135769
 20
127.8302679801952
 30
0.0
  0
VERTEX
  5
3AB
330
3A8
100
AcDbEntity
  8
0
 62
   248
100
AcDbVertex
100
AcDb2dVertex
 10
155.1312716626061
 20
127.8302679801952
 30
0.0
  0
SEQEND
  5
3AC
330
3A8
100
AcDbEntity
  8
0
  0
MTEXT
  5
3AD
330
1F
100
AcDbEntity
  8
0
 62
    29
100
AcDbMText
 10
141.1055989230569
 20
180.5801920121466
 30
0.0
 40
2.638777777118084
 41
0.0
 71
     7
 72
     1
  1
\fMS Gothic|b0|i0|c0|p34;\W1;LED（白色）
  0
POLYLINE
  5
3AE
330
1F
100
AcDbEntity
  8
0
 62
   248
100
AcDb2dPolyline
 66
     1
 10
0.0
 20
0.0
 30
0.0
  0
VERTEX
  5
3AF
330
3AE
100
AcDbEntity
  8
0
 62
   248
100
AcDbVertex
100
AcDb2dVertex
 10
123.648611080199
 20
186.9329480869473
 30
0.0
  0
VERTEX
  5
3B0
330
3AE
100
AcDbEntity
  8
0
 62
   248
100
AcDbVertex
100
AcDb2dVertex
 10
137.4923827781269
 20
178.9830457451848
 30
0.0
  0
VERTEX
  5
3B1
330
3AE
100
AcDbEntity
  8
0
 62
   248
100
AcDbVertex
100
AcDb2dVertex
 10
163.5979383271561
 20
178.9830457451848
 30
0.0
  0
SEQEND
  5
3B2
330
3AE
100
AcDbEntity
  8
0
  0
POLYLINE
  5
3B3
330
1F
100
AcDbEntity
  8
0
 62
   248
100
AcDb2dPolyline
 66
     1
 10
0.0
 20
0.0
 30
0.0
  0
VERTEX
  5
3B4
330
3B3
100
AcDbEntity
  8
0
 62
   248
100
AcDbVertex
100
AcDb2dVertex
 10
123.3051350603196
 20
207.4796698157516
 30
0.0
  0
VERTEX
  5
3B5
330
3B3
100
AcDbEntity
  8
0
 62
   248
100
AcDbVertex
100
AcDb2dVertex
 10
108.2269856500266
 20
225.1776420878028
 30
0.0
  0
VERTEX
  5
3B6
330
3B3
100
AcDbEntity
  8
0
 62
   248
100
AcDbVertex
100
AcDb2dVertex
 10
114.7261582829504
 20
230.7145995516964
 30
0.0
  0
VERTEX
  5
3B7
330
3B3
100
AcDbEntity
  8
0
 62
   248
100
AcDbVertex
100
AcDb2dVertex
 10
129.8039631836949
 20
213.0166272796451
 30
0.0
  0
VERTEX
  5
3B8
330
3B3
100
AcDbEntity
  8
0
 62
   248
100
AcDbVertex
100
AcDb2dVertex
 10
123.3051350603196
 20
207.4796698157516
 30
0.0
  0
SEQEND
  5
3B9
330
3B3
100
AcDbEntity
  8
0
  0
POLYLINE
  5
3BA
330
1F
100
AcDbEntity
  8
0
 62
   248
100
AcDb2dPolyline
 66
     1
 10
0.0
 20
0.0
 30
0.0
  0
VERTEX
  5
3BB
330
3BA
100
AcDbEntity
  8
0
 62
   248
100
AcDbVertex
100
AcDb2dVertex
 10
85.79820825763031
 20
207.4502142493527
 30
0.0
  0
VERTEX
  5
3BC
330
3BA
100
AcDbEntity
  8
0
 62
   248
100
AcDbVertex
100
AcDb2dVertex
 10
100.8763576679233
 20
225.1481865214039
 30
0.0
  0
VERTEX
  5
3BD
330
3BA
100
AcDbEntity
  8
0
 62
   248
100
AcDbVertex
100
AcDb2dVertex
 10
94.37718503499946
 20
230.6851439852975
 30
0.0
  0
VERTEX
  5
3BE
330
3BA
100
AcDbEntity
  8
0
 62
   248
100
AcDbVertex
100
AcDb2dVertex
 10
79.29938013425502
 20
212.9871717132463
 30
0.0
  0
VERTEX
  5
3BF
330
3BA
100
AcDbEntity
  8
0
 62
   248
100
AcDbVertex
100
AcDb2dVertex
 10
85.79820825763031
 20
207.4502142493527
 30
0.0
  0
SEQEND
  5
3C0
330
3BA
100
AcDbEntity
  8
0
  0
MTEXT
  5
3C1
330
1F
100
AcDbEntity
  8
0
 62
    29
100
AcDbMText
 10
137.0148925438713
 20
229.709665198649
 30
0.0
 40
2.878662547981303
 41
0.0
 71
     7
 72
     1
  1
\fMS Gothic|b0|i0|c0|p34;\W0.999999;47
 11
-0.6086209063647019
 21
0.7934611473385504
 31
0.0
  0
POLYLINE
  5
3C2
330
1F
100
AcDbEntity
  8
0
 62
   248
100
AcDb2dPolyline
 66
     1
 10
0.0
 20
0.0
 30
0.0
  0
VERTEX
  5
3C3
330
3C2
100
AcDbEntity
  8
0
 62
   248
100
AcDbVertex
100
AcDb2dVertex
 10
118.9501898574152
 20
234.1538383746213
 30
0.0
  0
VERTEX
  5
3C4
330
3C2
100
AcDbEntity
  8
0
 62
   248
100
AcDbVertex
100
AcDb2dVertex
 10
124.1288573908428
 20
238.1260334691143
 30
0.0
  0
VERTEX
  5
3C5
330
3C2
100
AcDbEntity
  8
0
 62
   248
100
AcDbVertex
100
AcDb2dVertex
 10
138.3240288282662
 20
219.6198417962235
 30
0.0
  0
VERTEX
  5
3C6
330
3C2
100
AcDbEntity
  8
0
 62
   248
100
AcDbVertex
100
AcDb2dVertex
 10
133.1453612948387
 20
215.6476467017305
 30
0.0
  0
SEQEND
  5
3C7
330
3C2
100
AcDbEntity
  8
0
  0
MTEXT
  5
3C8
330
1F
100
AcDbEntity
  8
0
 62
    29
100
AcDbMText
 10
76.25994464239335
 20
234.9860011890834
 30
0.0
 40
2.878671699016186
 41
0.0
 71
     7
 72
     1
  1
\fMS Gothic|b0|i0|c0|p34;\W1;47
 11
-0.6625489304583653
 21
-0.7490186344467514
 31
0.0
  0
POLYLINE
  5
3C9
330
1F
100
AcDbEntity
  8
0
 62
   248
100
AcDb2dPolyline
 66
     1
 10
0.0
 20
0.0
 30
0.0
  0
VERTEX
  5
3CA
330
3C9
100
AcDbEntity
  8
0
 62
   248
100
AcDbVertex
100
AcDb2dVertex
 10
75.36387530667987
 20
216.3657768556308
 30
0.0
  0
VERTEX
  5
3CB
330
3C9
100
AcDbEntity
  8
0
 62
   248
100
AcDbVertex
100
AcDb2dVertex
 10
70.47528481311035
 20
220.6900607087164
 30
0.0
  0
VERTEX
  5
3CC
330
3C9
100
AcDbEntity
  8
0
 62
   248
100
AcDbVertex
100
AcDb2dVertex
 10
85.9282606121985
 20
238.1597954048698
 30
0.0
  0
VERTEX
  5
3CD
330
3C9
100
AcDbEntity
  8
0
 62
   248
100
AcDbVertex
100
AcDb2dVertex
 10
90.81685110576801
 20
233.8356838065584
 30
0.0
  0
SEQEND
  5
3CE
330
3C9
100
AcDbEntity
  8
0
  0
ENDSEC
  0
SECTION
  2
OBJECTS
  0
DICTIONARY
  5
C
330
0
100
AcDbDictionary
  3
ACAD_GROUP
350
D
  3
ACAD_LAYOUT
350
1A
  3
ACAD_MLINESTYLE
350
17
  3
ACAD_PLOTSETTINGS
350
19
  3
ACAD_TABLESTYLE
350
3EF
  3
ACAD_VISUALSTYLE
350
2A
  3
ACDBHEADERROUNDTRIPXREC
350
3CF
  0
DICTIONARY
  5
D
102
{ACAD_REACTORS
330
C
102
}
330
C
100
AcDbDictionary
  0
DICTIONARY
  5
1A
102
{ACAD_REACTORS
330
C
102
}
330
C
100
AcDbDictionary
  0
DICTIONARY
  5
17
102
{ACAD_REACTORS
330
C
102
}
330
C
100
AcDbDictionary
  3
STANDARD
350
18
  0
DICTIONARY
  5
19
102
{ACAD_REACTORS
330
C
102
}
330
C
100
AcDbDictionary
  0
DICTIONARY
  5
3EF
102
{ACAD_REACTORS
330
C
102
}
330
C
100
AcDbDictionary
  0
DICTIONARY
  5
2A
102
{ACAD_REACTORS
330
C
102
}
330
C
100
AcDbDictionary
  3
2DWIREFRAME
350
2F
  3
3D_HIDDEN
350
31
  3
3DWIREFRAME
350
30
  3
BASIC
350
32
  3
BRIGHTEN
350
36
  3
COLORCHANGE
350
3A
  3
CONCEPTUAL
350
34
  3
DIM
350
35
  3
FACEPATTERN
350
39
  3
FLAT
350
2B
  3
FLATWITHEDGES
350
2C
  3
GOURAUD
350
2D
  3
GOURAUDWITHEDGES
350
2E
  3
LINEPATTERN
350
38
  3
REALISTIC
350
33
  3
THICKEN
350
37
  0
DICTIONARY
  5
3CF
102
{ACAD_REACTORS
330
C
102
}
330
C
100
AcDbDictionary
  3
CEPSNTYPE
350
3D8
  3
DIMSTYLEDATA
350
3EE
  3
FINGERPRINTGUID
350
3D9
  3
HYPERLINKBASE
350
3D2
  3
INSUNITS
350
3D7
  3
LAYOUTDICT
350
3D4
  3
LWETCUNION
350
3D6
  3
PLOTSETDICT
350
3D5
  3
PSVPSCALE
350
3DB
  3
PUCSBASE
350
3DE
  3
PUCSORGBACK
350
3E4
  3
PUCSORGBOTTOM
350
3E0
  3
PUCSORGFRONT
350
3E3
  3
PUCSORGLEFT
350
3E1
  3
PUCSORGRIGHT
350
3E2
  3
PUCSORGTOP
350
3DF
  3
PUCSORTHOREF
350
3DC
  3
PUCSORTHOVIEW
350
3DD
  3
STYLESHEET
350
3D3
  3
TSTACKALIGN
350
3D0
  3
TSTACKSIZE
350
3D1
  3
UCSBASE
350
3E7
  3
UCSORGBACK
350
3ED
  3
UCSORGBOTTOM
350
3E9
  3
UCSORGFRONT
350
3EC
  3
UCSORGLEFT
350
3EA
  3
UCSORGRIGHT
350
3EB
  3
UCSORGTOP
350
3E8
  3
UCSORTHOREF
350
3E5
  3
UCSORTHOVIEW
350
3E6
  3
VERSIONGUID
350
3DA
  0
MLINESTYLE
  5
18
102
{ACAD_REACTORS
330
17
102
}
330
17
100
AcDbMlineStyle
  2
Standard
 70
     0
  3

 62
   256
 51
90.0
 52
90.0
 71
     2
 49
0.5
 62
   256
  6
BYLAYER
 49
-0.5
 62
   256
  6
BYLAYER
  0
VISUALSTYLE
  5
2F
102
{ACAD_REACTORS
330
2A
102
}
330
2A
100
AcDbVisualStyle
  2
2dWireframe
 70
     4
 71
     0
 72
     2
 73
     0
 90
        0
 40
-0.6
 41
-30.0
 62
     5
 63
     7
 74
     1
 91
        4
 64
     7
 65
   257
 75
     1
175
     1
 42
1.0
 92
        0
 66
   257
 43
1.0
 76
     1
 77
     6
 78
     2
 67
     7
 79
     5
170
     0
171
     0
290
     0
174
     0
 93
        1
 44
0.0
173
     0
291
     0
 45
0.0
1001
ACAD
1000
AcDbSavedByObjectVersion
1070
     0
  0
VISUALSTYLE
  5
31
102
{ACAD_REACTORS
330
2A
102
}
330
2A
100
AcDbVisualStyle
  2
3D Hidden
 70
     6
 71
     1
 72
     2
 73
     2
 90
        0
 40
-0.6
 41
-30.0
 62
     5
 63
     7
 74
     2
 91
        2
 64
     7
 65
   257
 75
     2
175
     1
 42
40.0
 92
        0
 66
   257
 43
1.0
 76
     1
 77
     6
 78
     2
 67
     7
 79
     3
170
     0
171
     0
290
     0
174
     0
 93
        1
 44
0.0
173
     0
291
     0
 45
0.0
1001
ACAD
1000
AcDbSavedByObjectVersion
1070
     0
  0
VISUALSTYLE
  5
30
102
{ACAD_REACTORS
330
2A
102
}
330
2A
100
AcDbVisualStyle
  2
3dWireframe
 70
     5
 71
     0
 72
     2
 73
     0
 90
        0
 40
-0.6
 41
-30.0
 62
     5
 63
     7
 74
     1
 91
        4
 64
     7
 65
   257
 75
     1
175
     1
 42
1.0
 92
        0
 66
   257
 43
1.0
 76
     1
 77
     6
 78
     2
 67
     7
 79
     5
170
     0
171
     0
290
     0
174
     0
 93
        1
 44
0.0
173
     0
291
     0
 45
0.0
1001
ACAD
1000
AcDbSavedByObjectVersion
1070
     0
  0
VISUALSTYLE
  5
32
102
{ACAD_REACTORS
330
2A
102
}
330
2A
100
AcDbVisualStyle
  2
Basic
 70
     7
 71
     1
 72
     0
 73
     1
 90
        0
 40
-0.6
 41
-30.0
 62
     5
 63
     7
 74
     0
 91
        4
 64
     7
 65
   257
 75
     1
175
     1
 42
1.0
 92
        8
 66
     7
 43
1.0
 76
     1
 77
     6
 78
     2
 67
     7
 79
     5
170
     0
171
     0
290
     0
174
     0
 93
        1
 44
0.0
173
     0
291
     1
 45
0.0
1001
ACAD
1000
AcDbSavedByObjectVersion
1070
     0
  0
VISUALSTYLE
  5
36
102
{ACAD_REACTORS
330
2A
102
}
330
2A
100
AcDbVisualStyle
  2
Brighten
 70
    12
 71
     2
 72
     2
 73
     0
 90
        0
 40
-0.6
 41
-30.0
 62
     5
 63
     7
 74
     1
 91
        4
 64
     7
 65
   257
 75
     1
175
     1
 42
1.0
 92
        8
 66
     7
 43
1.0
 76
     1
 77
     6
 78
     2
 67
     7
 79
     5
170
     0
171
     0
290
     0
174
     0
 93
        1
 44
50.0
173
     0
291
     1
 45
0.0
1001
ACAD
1000
AcDbSavedByObjectVersion
1070
     0
  0
VISUALSTYLE
  5
3A
102
{ACAD_REACTORS
330
2A
102
}
330
2A
100
AcDbVisualStyle
  2
ColorChange
 70
    16
 71
     2
 72
     2
 73
     3
 90
        0
 40
-0.6
 41
-30.0
 62
     5
 63
     8
 74
     1
 91
        4
 64
     7
 65
   257
 75
     1
175
     1
 42
1.0
 92
        8
 66
     8
 43
1.0
 76
     1
 77
     6
 78
     2
 67
     7
 79
     5
170
     0
171
     0
290
     0
174
     0
 93
        1
 44
0.0
173
     0
291
     1
 45
0.0
1001
ACAD
1000
AcDbSavedByObjectVersion
1070
     0
  0
VISUALSTYLE
  5
34
102
{ACAD_REACTORS
330
2A
102
}
330
2A
100
AcDbVisualStyle
  2
Conceptual
 70
     9
 71
     3
 72
     2
 73
     0
 90
        0
 40
-0.6
 41
-30.0
 62
     5
 63
     7
 74
     2
 91
        2
 64
     7
 65
   257
 75
     1
175
     1
 42
40.0
 92
        8
 66
     7
 43
1.0
 76
     1
 77
     6
 78
     2
 67
     7
 79
     3
170
     0
171
     0
290
     0
174
     0
 93
        1
 44
0.0
173
     0
291
     0
 45
0.0
1001
ACAD
1000
AcDbSavedByObjectVersion
1070
     0
  0
VISUALSTYLE
  5
35
102
{ACAD_REACTORS
330
2A
102
}
330
2A
100
AcDbVisualStyle
  2
Dim
 70
    11
 71
     2
 72
     2
 73
     0
 90
        0
 40
-0.6
 41
-30.0
 62
     5
 63
     7
 74
     1
 91
        4
 64
     7
 65
   257
 75
     1
175
     1
 42
1.0
 92
        8
 66
     7
 43
1.0
 76
     1
 77
     6
 78
     2
 67
     7
 79
     5
170
     0
171
     0
290
     0
174
     0
 93
        1
 44
-50.0
173
     0
291
     1
 45
0.0
1001
ACAD
1000
AcDbSavedByObjectVersion
1070
     0
  0
VISUALSTYLE
  5
39
102
{ACAD_REACTORS
330
2A
102
}
330
2A
100
AcDbVisualStyle
  2
Facepattern
 70
    15
 71
     2
 72
     2
 73
     0
 90
        0
 40
-0.6
 41
-30.0
 62
     5
 63
     7
 74
     1
 91
        4
 64
     7
 65
   257
 75
     1
175
     1
 42
1.0
 92
        8
 66
     7
 43
1.0
 76
     1
 77
     6
 78
     2
 67
     7
 79
     5
170
     0
171
     0
290
     0
174
     0
 93
        1
 44
0.0
173
     0
291
     1
 45
0.0
1001
ACAD
1000
AcDbSavedByObjectVersion
1070
     0
  0
VISUALSTYLE
  5
2B
102
{ACAD_REACTORS
330
2A
102
}
330
2A
100
AcDbVisualStyle
  2
Flat
 70
     0
 71
     2
 72
     1
 73
     1
 90
        2
 40
-0.6
 41
30.0
 62
     5
 63
     7
 74
     0
 91
        4
 64
     7
 65
   257
 75
     1
175
     1
 42
1.0
 92
        8
 66
     7
 43
1.0
 76
     1
 77
     6
 78
     2
 67
     7
 79
     5
170
     0
171
     0
290
     0
174
     0
 93
       13
 44
0.0
173
     0
291
     1
 45
0.0
1001
ACAD
1000
AcDbSavedByObjectVersion
1070
     0
  0
VISUALSTYLE
  5
2C
102
{ACAD_REACTORS
330
2A
102
}
330
2A
100
AcDbVisualStyle
  2
FlatWithEdges
 70
     1
 71
     2
 72
     1
 73
     1
 90
        2
 40
-0.6
 41
30.0
 62
     5
 63
     7
 74
     1
 91
        4
 64
     7
 65
   257
 75
     1
175
     1
 42
1.0
 92
        0
 66
   257
 43
1.0
 76
     1
 77
     6
 78
     2
 67
     7
 79
     5
170
     0
171
     0
290
     0
174
     0
 93
       13
 44
0.0
173
     0
291
     1
 45
0.0
1001
ACAD
1000
AcDbSavedByObjectVersion
1070
     0
  0
VISUALSTYLE
  5
2D
102
{ACAD_REACTORS
330
2A
102
}
330
2A
100
AcDbVisualStyle
  2
Gouraud
 70
     2
 71
     2
 72
     2
 73
     1
 90
        2
 40
-0.6
 41
30.0
 62
     5
 63
     7
 74
     0
 91
        4
 64
     7
 65
   257
 75
     1
175
     1
 42
1.0
 92
        0
 66
     7
 43
1.0
 76
     1
 77
     6
 78
     2
 67
     7
 79
     5
170
     0
171
     0
290
     0
174
     0
 93
       13
 44
0.0
173
     0
291
     1
 45
0.0
1001
ACAD
1000
AcDbSavedByObjectVersion
1070
     0
  0
VISUALSTYLE
  5
2E
102
{ACAD_REACTORS
330
2A
102
}
330
2A
100
AcDbVisualStyle
  2
GouraudWithEdges
 70
     3
 71
     2
 72
     2
 73
     1
 90
        2
 40
-0.6
 41
30.0
 62
     5
 63
     7
 74
     1
 91
        4
 64
     7
 65
   257
 75
     1
175
     1
 42
1.0
 92
        0
 66
   257
 43
1.0
 76
     1
 77
     6
 78
     2
 67
     7
 79
     5
170
     0
171
     0
290
     0
174
     0
 93
       13
 44
0.0
173
     0
291
     1
 45
0.0
1001
ACAD
1000
AcDbSavedByObjectVersion
1070
     0
  0
VISUALSTYLE
  5
38
102
{ACAD_REACTORS
330
2A
102
}
330
2A
100
AcDbVisualStyle
  2
Linepattern
 70
    14
 71
     2
 72
     2
 73
     0
 90
        0
 40
-0.6
 41
-30.0
 62
     5
 63
     7
 74
     1
 91
        4
 64
     7
 65
   257
 75
     7
175
     7
 42
1.0
 92
        8
 66
     7
 43
1.0
 76
     1
 77
     6
 78
     2
 67
     7
 79
     5
170
     0
171
     0
290
     0
174
     0
 93
        1
 44
0.0
173
     0
291
     1
 45
0.0
1001
ACAD
1000
AcDbSavedByObjectVersion
1070
     0
  0
VISUALSTYLE
  5
33
102
{ACAD_REACTORS
330
2A
102
}
330
2A
100
AcDbVisualStyle
  2
Realistic
 70
     8
 71
     2
 72
     2
 73
     0
 90
        0
 40
-0.6
 41
-30.0
 62
     5
 63
     7
 74
     1
 91
        0
 64
     7
 65
   257
 75
     1
175
     1
 42
1.0
 92
        8
 66
     8
 43
1.0
 76
     1
 77
     6
 78
     2
 67
     7
 79
     5
170
     0
171
     0
290
     0
174
     0
 93
       13
 44
0.0
173
     0
291
     0
 45
0.0
1001
ACAD
1000
AcDbSavedByObjectVersion
1070
     0
  0
VISUALSTYLE
  5
37
102
{ACAD_REACTORS
330
2A
102
}
330
2A
100
AcDbVisualStyle
  2
Thicken
 70
    13
 71
     2
 72
     2
 73
     0
 90
        0
 40
-0.6
 41
-30.0
 62
     5
 63
     7
 74
     1
 91
        4
 64
     7
 65
   257
 75
     1
175
     1
 42
1.0
 92
       12
 66
     7
 43
1.0
 76
     1
 77
     6
 78
     2
 67
     7
 79
     5
170
     0
171
     0
290
     0
174
     0
 93
        1
 44
0.0
173
     0
291
     1
 45
0.0
1001
ACAD
1000
AcDbSavedByObjectVersion
1070
     0
  0
XRECORD
  5
3D8
102
{ACAD_REACTORS
330
3CF
102
}
330
3CF
100
AcDbXrecord
 90
        0
  0
XRECORD
  5
3EE
102
{ACAD_REACTORS
330
3CF
102
}
330
3CF
100
AcDbXrecord
1000
DSTYLE
1002
{
1070
   340
340
11
1002
}
  0
XRECORD
  5
3D9
102
{ACAD_REACTORS
330
3CF
102
}
330
3CF
100
AcDbXrecord
  1
{F9E8CD8C-FD3D-4320-8C2F-2E27A5EDCD19}
  0
XRECORD
  5
3D2
102
{ACAD_REACTORS
330
3CF
102
}
330
3CF
100
AcDbXrecord
  1

  0
XRECORD
  5
3D7
102
{ACAD_REACTORS
330
3CF
102
}
330
3CF
100
AcDbXrecord
 90
        1
  0
XRECORD
  5
3D4
102
{ACAD_REACTORS
330
3CF
102
}
330
3CF
100
AcDbXrecord
340
1A
  0
XRECORD
  5
3D6
102
{ACAD_REACTORS
330
3CF
102
}
330
3CF
100
AcDbXrecord
 90
    10269
  0
XRECORD
  5
3D5
102
{ACAD_REACTORS
330
3CF
102
}
330
3CF
100
AcDbXrecord
340
19
  0
XRECORD
  5
3DB
102
{ACAD_REACTORS
330
3CF
102
}
330
3CF
100
AcDbXrecord
 40
0.0
  0
XRECORD
  5
3DE
102
{ACAD_REACTORS
330
3CF
102
}
330
3CF
100
AcDbXrecord
340
0
  0
XRECORD
  5
3E4
102
{ACAD_REACTORS
330
3CF
102
}
330
3CF
100
AcDbXrecord
 10
0.0
 20
0.0
 30
0.0
  0
XRECORD
  5
3E0
102
{ACAD_REACTORS
330
3CF
102
}
330
3CF
100
AcDbXrecord
 10
0.0
 20
0.0
 30
0.0
  0
XRECORD
  5
3E3
102
{ACAD_REACTORS
330
3CF
102
}
330
3CF
100
AcDbXrecord
 10
0.0
 20
0.0
 30
0.0
  0
XRECORD
  5
3E1
102
{ACAD_REACTORS
330
3CF
102
}
330
3CF
100
AcDbXrecord
 10
0.0
 20
0.0
 30
0.0
  0
XRECORD
  5
3E2
102
{ACAD_REACTORS
330
3CF
102
}
330
3CF
100
AcDbXrecord
 10
0.0
 20
0.0
 30
0.0
  0
XRECORD
  5
3DF
102
{ACAD_REACTORS
330
3CF
102
}
330
3CF
100
AcDbXrecord
 10
0.0
 20
0.0
 30
0.0
  0
XRECORD
  5
3DC
102
{ACAD_REACTORS
330
3CF
102
}
330
3CF
100
AcDbXrecord
340
0
  0
XRECORD
  5
3DD
102
{ACAD_REACTORS
330
3CF
102
}
330
3CF
100
AcDbXrecord
 70
     0
  0
XRECORD
  5
3D3
102
{ACAD_REACTORS
330
3CF
102
}
330
3CF
100
AcDbXrecord
  1

  0
XRECORD
  5
3D0
102
{ACAD_REACTORS
330
3CF
102
}
330
3CF
100
AcDbXrecord
 90
        1
  0
XRECORD
  5
3D1
102
{ACAD_REACTORS
330
3CF
102
}
330
3CF
100
AcDbXrecord
 90
       70
  0
XRECORD
  5
3E7
102
{ACAD_REACTORS
330
3CF
102
}
330
3CF
100
AcDbXrecord
340
0
  0
XRECORD
  5
3ED
102
{ACAD_REACTORS
330
3CF
102
}
330
3CF
100
AcDbXrecord
 10
0.0
 20
0.0
 30
0.0
  0
XRECORD
  5
3E9
102
{ACAD_REACTORS
330
3CF
102
}
330
3CF
100
AcDbXrecord
 10
0.0
 20
0.0
 30
0.0
  0
XRECORD
  5
3EC
102
{ACAD_REACTORS
330
3CF
102
}
330
3CF
100
AcDbXrecord
 10
0.0
 20
0.0
 30
0.0
  0
XRECORD
  5
3EA
102
{ACAD_REACTORS
330
3CF
102
}
330
3CF
100
AcDbXrecord
 10
0.0
 20
0.0
 30
0.0
  0
XRECORD
  5
3EB
102
{ACAD_REACTORS
330
3CF
102
}
330
3CF
100
AcDbXrecord
 10
0.0
 20
0.0
 30
0.0
  0
XRECORD
  5
3E8
102
{ACAD_REACTORS
330
3CF
102
}
330
3CF
100
AcDbXrecord
 10
0.0
 20
0.0
 30
0.0
  0
XRECORD
  5
3E5
102
{ACAD_REACTORS
330
3CF
102
}
330
3CF
100
AcDbXrecord
340
0
  0
XRECORD
  5
3E6
102
{ACAD_REACTORS
330
3CF
102
}
330
3CF
100
AcDbXrecord
 70
     0
  0
XRECORD
  5
3DA
102
{ACAD_REACTORS
330
3CF
102
}
330
3CF
100
AcDbXrecord
  1
{FAEB1C32-E019-11D5-929B-00C0DF256EC4}
  0
ENDSEC
  0
EOF
