  0
SECTION
  2
HEADER
  9
$ACADVER
  1
AC1015
  9
$ACADMAINTVER
 70
     6
  9
$DWGCODEPAGE
  3
ANSI_932
  9
$INSBASE
 10
0.0
 20
0.0
 30
0.0
  9
$EXTMIN
 10
11.93656684027777
 20
14.11111111111111
 30
-0.00000001
  9
$EXTMAX
 10
200.4074055989583
 20
286.7888685438367
 30
0.00000001
  9
$LIMMIN
 10
11.76017795138888
 20
13.93472222222222
  9
$LIMMAX
 10
200.5837944878472
 20
286.9652574327256
  9
$ORTHOMODE
 70
     0
  9
$REGENMODE
 70
     1
  9
$FILLMODE
 70
     1
  9
$QTEXTMODE
 70
     0
  9
$MIRRTEXT
 70
     1
  9
$LTSCALE
 40
1.0
  9
$ATTMODE
 70
     1
  9
$TEXTSIZE
 40
0.0
  9
$TRACEWID
 40
0.05
  9
$TEXTSTYLE
  7
Standard
  9
$CLAYER
  8
0
  9
$CELTYPE
  6
Continuous
  9
$CECOLOR
 62
   256
  9
$CELTSCALE
 40
1.0
  9
$DISPSILH
 70
     0
  9
$DIMSCALE
 40
1.0
  9
$DIMASZ
 40
0.18
  9
$DIMEXO
 40
0.0625
  9
$DIMDLI
 40
0.38
  9
$DIMRND
 40
0.0
  9
$DIMDLE
 40
0.0
  9
$DIMEXE
 40
0.18
  9
$DIMTP
 40
0.0
  9
$DIMTM
 40
0.0
  9
$DIMTXT
 40
0.18
  9
$DIMCEN
 40
0.09
  9
$DIMTSZ
 40
0.0
  9
$DIMTOL
 70
     0
  9
$DIMLIM
 70
     0
  9
$DIMTIH
 70
     1
  9
$DIMTOH
 70
     1
  9
$DIMSE1
 70
     0
  9
$DIMSE2
 70
     0
  9
$DIMTAD
 70
     0
  9
$DIMZIN
 70
     0
  9
$DIMBLK
  1

  9
$DIMASO
 70
     1
  9
$DIMSHO
 70
     1
  9
$DIMPOST
  1

  9
$DIMAPOST
  1

  9
$DIMALT
 70
     0
  9
$DIMALTD
 70
     2
  9
$DIMALTF
 40
25.4
  9
$DIMLFAC
 40
1.0
  9
$DIMTOFL
 70
     0
  9
$DIMTVP
 40
0.0
  9
$DIMTIX
 70
     0
  9
$DIMSOXD
 70
     0
  9
$DIMSAH
 70
     0
  9
$DIMBLK1
  1

  9
$DIMBLK2
  1

  9
$DIMSTYLE
  2
Standard
  9
$DIMCLRD
 70
     0
  9
$DIMCLRE
 70
     0
  9
$DIMCLRT
 70
     0
  9
$DIMTFAC
 40
1.0
  9
$DIMGAP
 40
0.09
  9
$DIMJUST
 70
     0
  9
$DIMSD1
 70
     0
  9
$DIMSD2
 70
     0
  9
$DIMTOLJ
 70
     1
  9
$DIMTZIN
 70
     0
  9
$DIMALTZ
 70
     0
  9
$DIMALTTZ
 70
     0
  9
$DIMUPT
 70
     0
  9
$DIMDEC
 70
     4
  9
$DIMTDEC
 70
     4
  9
$DIMALTU
 70
     2
  9
$DIMALTTD
 70
     2
  9
$DIMTXSTY
  7
Standard
  9
$DIMAUNIT
 70
     0
  9
$DIMADEC
 70
     0
  9
$DIMALTRND
 40
0.0
  9
$DIMAZIN
 70
     0
  9
$DIMDSEP
 70
     0
  9
$DIMATFIT
 70
     3
  9
$DIMFRAC
 70
     0
  9
$DIMLDRBLK
  1

  9
$DIMLUNIT
 70
     2
  9
$DIMLWD
 70
     0
  9
$DIMLWE
 70
     0
  9
$DIMTMOVE
 70
     0
  9
$LUNITS
 70
     2
  9
$LUPREC
 70
     4
  9
$SKETCHINC
 40
0.1
  9
$FILLETRAD
 40
0.0
  9
$AUNITS
 70
     0
  9
$AUPREC
 70
     0
  9
$MENU
  1
acad
  9
$ELEVATION
 40
0.0
  9
$PELEVATION
 40
0.0
  9
$THICKNESS
 40
0.0
  9
$LIMCHECK
 70
     0
  9
$CHAMFERA
 40
0.0
  9
$CHAMFERB
 40
0.0
  9
$CHAMFERC
 40
0.0
  9
$CHAMFERD
 40
0.0
  9
$SKPOLY
 70
     0
  9
$TDCREATE
 40
2454999.428659757
  9
$TDUCREATE
 40
2454999.053659757
  9
$TDUPDATE
 40
2454999.430693171
  9
$TDUUPDATE
 40
2454999.055693171
  9
$TDINDWG
 40
0.0020402894
  9
$TDUSRTIMER
 40
0.0020402894
  9
$USRTIMER
 70
     1
  9
$ANGBASE
 50
0.0
  9
$ANGDIR
 70
     0
  9
$PDMODE
 70
     0
  9
$PDSIZE
 40
0.0
  9
$PLINEWID
 40
0.0
  9
$SPLFRAME
 70
     0
  9
$SPLINETYPE
 70
     6
  9
$SPLINESEGS
 70
     8
  9
$HANDSEED
  5
507
  9
$SURFTAB1
 70
     6
  9
$SURFTAB2
 70
     6
  9
$SURFTYPE
 70
     6
  9
$SURFU
 70
     6
  9
$SURFV
 70
     6
  9
$UCSBASE
  2

  9
$UCSNAME
  2

  9
$UCSORG
 10
0.0
 20
0.0
 30
0.0
  9
$UCSXDIR
 10
1.0
 20
0.0
 30
0.0
  9
$UCSYDIR
 10
0.0
 20
1.0
 30
0.0
  9
$UCSORTHOREF
  2

  9
$UCSORTHOVIEW
 70
     0
  9
$UCSORGTOP
 10
0.0
 20
0.0
 30
0.0
  9
$UCSORGBOTTOM
 10
0.0
 20
0.0
 30
0.0
  9
$UCSORGLEFT
 10
0.0
 20
0.0
 30
0.0
  9
$UCSORGRIGHT
 10
0.0
 20
0.0
 30
0.0
  9
$UCSORGFRONT
 10
0.0
 20
0.0
 30
0.0
  9
$UCSORGBACK
 10
0.0
 20
0.0
 30
0.0
  9
$PUCSBASE
  2

  9
$PUCSNAME
  2

  9
$PUCSORG
 10
0.0
 20
0.0
 30
0.0
  9
$PUCSXDIR
 10
1.0
 20
0.0
 30
0.0
  9
$PUCSYDIR
 10
0.0
 20
1.0
 30
0.0
  9
$PUCSORTHOREF
  2

  9
$PUCSORTHOVIEW
 70
     0
  9
$PUCSORGTOP
 10
0.0
 20
0.0
 30
0.0
  9
$PUCSORGBOTTOM
 10
0.0
 20
0.0
 30
0.0
  9
$PUCSORGLEFT
 10
0.0
 20
0.0
 30
0.0
  9
$PUCSORGRIGHT
 10
0.0
 20
0.0
 30
0.0
  9
$PUCSORGFRONT
 10
0.0
 20
0.0
 30
0.0
  9
$PUCSORGBACK
 10
0.0
 20
0.0
 30
0.0
  9
$USERI1
 70
     0
  9
$USERI2
 70
     0
  9
$USERI3
 70
     0
  9
$USERI4
 70
     0
  9
$USERI5
 70
     0
  9
$USERR1
 40
0.0
  9
$USERR2
 40
0.0
  9
$USERR3
 40
0.0
  9
$USERR4
 40
0.0
  9
$USERR5
 40
0.0
  9
$WORLDVIEW
 70
     1
  9
$SHADEDGE
 70
     3
  9
$SHADEDIF
 70
    70
  9
$TILEMODE
 70
     1
  9
$MAXACTVP
 70
    16
  9
$PINSBASE
 10
0.0
 20
0.0
 30
0.0
  9
$PLIMCHECK
 70
     0
  9
$PEXTMIN
 10
1.000000000000000E+20
 20
1.000000000000000E+20
 30
1.000000000000000E+20
  9
$PEXTMAX
 10
-1.000000000000000E+20
 20
-1.000000000000000E+20
 30
-1.000000000000000E+20
  9
$PLIMMIN
 10
0.0
 20
0.0
  9
$PLIMMAX
 10
12.0
 20
9.0
  9
$UNITMODE
 70
     0
  9
$VISRETAIN
 70
     0
  9
$PLINEGEN
 70
     1
  9
$PSLTSCALE
 70
     0
  9
$TREEDEPTH
 70
  3020
  9
$CMLSTYLE
  2
Standard
  9
$CMLJUST
 70
     0
  9
$CMLSCALE
 40
1.0
  9
$PROXYGRAPHICS
 70
     0
  9
$MEASUREMENT
 70
     0
  9
$CELWEIGHT
370
     0
  9
$ENDCAPS
280
     0
  9
$JOINSTYLE
280
     0
  9
$LWDISPLAY
290
     0
  9
$INSUNITS
 70
     0
  9
$HYPERLINKBASE
  1

  9
$STYLESHEET
  1

  9
$XEDIT
290
     1
  9
$CEPSNTYPE
380
     0
  9
$PSTYLEMODE
290
     1
  9
$FINGERPRINTGUID
  2

  9
$VERSIONGUID
  2

  9
$EXTNAMES
290
     1
  9
$PSVPSCALE
 40
0.0
  9
$OLESTARTUP
290
     0
  0
ENDSEC
  0
SECTION
  2
CLASSES
  0
CLASS
  1
LWPOLYLINE
  2
AcDbPolyline
  3
AutoCAD 2000
 90
    32768
280
     0
281
     1
  0
CLASS
  1
IMAGE
  2
AcDbRasterImage
  3
ISM
 90
    32895
280
     0
281
     1
  0
CLASS
  1
OLE2FRAME
  2
AcDbOle2Frame
  3
AutoCAD 2000
 90
    32768
280
     0
281
     1
  0
CLASS
  1
HATCH
  2
AcDbHatch
  3
AutoCAD 2000
 90
    32768
280
     0
281
     1
  0
CLASS
  1
DICTIONARYVAR
  2
AcDbDictionaryVar
  3
AutoCAD 2000
 90
    32768
280
     0
281
     0
  0
CLASS
  1
RASTERVARIABLES
  2
AcDbRasterVariables
  3
ISM
 90
    32768
280
     0
281
     0
  0
CLASS
  1
IMAGEDEF
  2
AcDbRasterImageDef
  3
ISM
 90
    32768
280
     0
281
     0
  0
CLASS
  1
IMAGEDEF_REACTOR
  2
AcDbRasterImageDefReactor
  3
ISM
 90
    32769
280
     0
281
     0
  0
CLASS
  1
IDBUFFER
  2
AcDbIdBuffer
  3
AutoCAD 2000
 90
    32768
280
     0
281
     0
  0
CLASS
  1
SPATIAL_FILTER
  2
AcDbSpatialFilter
  3
AutoCAD 2000
 90
    32768
280
     0
281
     0
  0
CLASS
  1
XRECORD
  2
AcDbXrecord
  3
AutoCAD 2000
 90
    32768
280
     0
281
     0
  0
CLASS
  1
SORTENTSTABLE
  2
AcDbSortentsTable
  3
AutoCAD 2000
 90
    32768
280
     0
281
     0
  0
CLASS
  1
LAYER_INDEX
  2
AcDbLayerIndex
  3
AutoCAD 2000
 90
    32768
280
     0
281
     0
  0
CLASS
  1
SPATIAL_INDEX
  2
AcDbSpatialIndex
  3
AutoCAD 2000
 90
    32768
280
     0
281
     0
  0
CLASS
  1
OBJECT_PTR
  2
CAseDLPNTableRecord
  3
"ASE-LPNTableRecord"
 90
    32769
280
     0
281
     0
  0
CLASS
  1
LAYOUT
  2
AcDbLayout
  3
AutoCAD 2000
 90
        0
280
     0
281
     0
  0
CLASS
  1
PLOTSETTINGS
  2
AcDbPlotSettings
  3
AutoCAD 2000
 90
    32768
280
     0
281
     0
  0
CLASS
  1
ACDBDICTIONARYWDFLT
  2
AcDbDictionaryWithDefault
  3
AutoCAD 2000
 90
        0
280
     0
281
     0
  0
CLASS
  1
ACDBPLACEHOLDER
  2
AcDbPlaceHolder
  3
AutoCAD 2000
 90
        0
280
     0
281
     0
  0
CLASS
  1
VBA_PROJECT
  2
AcDbVbaProject
  3
"acadvba"
 90
    32769
280
     0
281
     0
  0
CLASS
  1
WIPEOUT
  2
AcDbWipeout
  3
WipeOut|AutoCAD Express Tool|expresstools@autodesk.com
 90
    32895
280
     0
281
     1
  0
CLASS
  1
WIPEOUTVARIABLES
  2
AcDbWipeoutVariables
  3
WipeOut|AutoCAD Express Tool|expresstools@autodesk.com
 90
        0
280
     0
281
     0
  0
CLASS
  1
RTEXT
  2
RText
  3
RText|AutoCAD Express Tool|expresstools@autodesk.com
 90
    32768
280
     0
281
     1
  0
CLASS
  1
ARCALIGNEDTEXT
  2
AcDbArcAlignedText
  3
ATEXT|AutoCAD Express Tool|expresstools@autodesk.com
 90
    32768
280
     0
281
     1
  0
ENDSEC
  0
SECTION
  2
TABLES
  0
TABLE
  2
VPORT
  5
7
330
0
100
AcDbSymbolTable
 70
     2
  0
VPORT
  5
506
330
7
100
AcDbSymbolTableRecord
100
AcDbViewportTableRecord
  2
*Active
 70
     0
 10
0.0
 20
0.0
 11
1.0
 21
1.0
 12
10.21970012841924
 22
4.579183999999999
 13
0.0
 23
0.0
 14
1.0
 24
1.0
 15
0.0
 25
0.0
 16
0.0
 26
0.0
 36
1.0
 17
0.0
 27
0.0
 37
0.0
 40
9.158369
 41
1.480934809348093
 42
50.0
 43
0.0
 44
0.0
 50
0.0
 51
0.0
 71
     0
 72
   100
 73
     1
 74
     1
 75
     0
 76
     0
 77
     0
 78
     0
281
     0
 65
     0
110
0.0
120
0.0
130
0.0
111
1.0
121
0.0
131
0.0
112
0.0
122
1.0
132
0.0
 79
     0
146
0.0
  0
ENDTAB
  0
TABLE
  2
LTYPE
  5
4
330
0
100
AcDbSymbolTable
 70
     7
  0
LTYPE
  5
11
330
4
100
AcDbSymbolTableRecord
100
AcDbLinetypeTableRecord
  2
ByBlock
 70
     0
  3

 72
    65
 73
     0
 40
0.0
  0
LTYPE
  5
12
330
4
100
AcDbSymbolTableRecord
100
AcDbLinetypeTableRecord
  2
ByLayer
 70
     0
  3

 72
    65
 73
     0
 40
0.0
  0
LTYPE
  5
13
330
4
100
AcDbSymbolTableRecord
100
AcDbLinetypeTableRecord
  2
Continuous
 70
     0
  3
Solid line
 72
    65
 73
     0
 40
0.0
  0
LTYPE
  5
87
330
4
100
AcDbSymbolTableRecord
100
AcDbLinetypeTableRecord
  2
AI9-LType1
 70
     0
  3
Illustrator Dash Style No.1
 72
    65
 73
     4
 40
9.80104870531294
 49
6.534044133292303
 74
     0
 49
-0.816751143005159
 74
     0
 49
1.633502286010318
 74
     0
 49
-0.816751143005159
 74
     0
  0
LTYPE
  5
23E
330
4
100
AcDbSymbolTableRecord
100
AcDbLinetypeTableRecord
  2
AI9-LType2
 70
     0
  3
Illustrator Dash Style No.2
 72
    65
 73
     4
 40
1.909268596106105
 49
1.272857477929856
 74
     0
 49
-0.1591027795440621
 74
     0
 49
0.3182055590881241
 74
     0
 49
-0.1591027795440621
 74
     0
  0
LTYPE
  5
271
330
4
100
AcDbSymbolTableRecord
100
AcDbLinetypeTableRecord
  2
AI9-LType3
 70
     0
  3
Illustrator Dash Style No.3
 72
    65
 73
     4
 40
3.999935515721638
 49
0.9999838789304096
 74
     0
 49
-0.9999838789304096
 74
     0
 49
0.9999838789304096
 74
     0
 49
-0.9999838789304096
 74
     0
  0
LTYPE
  5
2AF
330
4
100
AcDbSymbolTableRecord
100
AcDbLinetypeTableRecord
  2
AI9-LType4
 70
     0
  3
Illustrator Dash Style No.4
 72
    65
 73
     4
 40
1.960174423787328
 49
1.306794696384006
 74
     0
 49
-0.1633361109428935
 74
     0
 49
0.3267075055175357
 74
     0
 49
-0.1633361109428935
 74
     0
  0
LTYPE
  5
2E6
330
4
100
AcDbSymbolTableRecord
100
AcDbLinetypeTableRecord
  2
AI9-LType5
 70
     0
  3
Illustrator Dash Style No.5
 72
    65
 73
     4
 40
5.880629122257231
 49
3.920419414838154
 74
     0
 49
-0.4900435954332351
 74
     0
 49
0.9801225165526071
 74
     0
 49
-0.4900435954332351
 74
     0
  0
LTYPE
  5
3DB
330
4
100
AcDbSymbolTableRecord
100
AcDbLinetypeTableRecord
  2
AI9-LType6
 70
     0
  3
Illustrator Dash Style No.6
 72
    65
 73
     4
 40
3.999935515721638
 49
0.9999838789304096
 74
     0
 49
-0.9999838789304096
 74
     0
 49
0.9999838789304096
 74
     0
 49
-0.9999838789304096
 74
     0
  0
ENDTAB
  0
TABLE
  2
LAYER
  5
2
330
0
100
AcDbSymbolTable
 70
     2
  0
LAYER
  5
14
330
2
100
AcDbSymbolTableRecord
100
AcDbLayerTableRecord
  2
0
 70
     0
 62
     7
  6
Continuous
370
    -3
390
1D
  0
LAYER
  5
28
330
2
100
AcDbSymbolTableRecord
100
AcDbLayerTableRecord
  2
0
 70
     0
 62
     7
  6
Continuous
370
    -3
390
1F
  0
ENDTAB
  0
TABLE
  2
STYLE
  5
3
330
0
100
AcDbSymbolTable
 70
     5
  0
STYLE
  5
17
330
3
100
AcDbSymbolTableRecord
100
AcDbTextStyleTableRecord
  2
Standard
 70
     0
 40
0.0
 41
1.0
 50
0.0
 71
     0
 42
0.0
  3
txt
  4

  0
STYLE
  5
24
330
3
100
AcDbSymbolTableRecord
100
AcDbTextStyleTableRecord
  2
STD
 70
     0
 40
0.0
 41
1.0
 50
0.0
 71
     0
 42
0.0
  3
txt
  4

  0
STYLE
  5
25
330
3
100
AcDbSymbolTableRecord
100
AcDbTextStyleTableRecord
  2
TATESTD
 70
     4
 40
0.0
 41
1.0
 50
0.0
 71
     0
 42
0.0
  3
txt
  4

  0
STYLE
  5
26
330
3
100
AcDbSymbolTableRecord
100
AcDbTextStyleTableRecord
  2
KANJISTD
 70
     0
 40
0.0
 41
1.0
 50
0.0
 71
     0
 42
0.0
  3
txt
  4
extfont
  0
STYLE
  5
27
330
3
100
AcDbSymbolTableRecord
100
AcDbTextStyleTableRecord
  2
KANJITATE
 70
     4
 40
0.0
 41
1.0
 50
0.0
 71
     0
 42
0.0
  3
txt
  4
extfont
  0
ENDTAB
  0
TABLE
  2
VIEW
  5
5
330
0
100
AcDbSymbolTable
 70
     0
  0
ENDTAB
  0
TABLE
  2
UCS
  5
6
330
0
100
AcDbSymbolTable
 70
     0
  0
ENDTAB
  0
TABLE
  2
APPID
  5
8
330
0
100
AcDbSymbolTable
 70
     1
  0
APPID
  5
16
330
8
100
AcDbSymbolTableRecord
100
AcDbRegAppTableRecord
  2
ACAD
 70
     0
  0
ENDTAB
  0
TABLE
  2
DIMSTYLE
  5
9
330
0
100
AcDbSymbolTable
 70
     1
100
AcDbDimStyleTable
 71
     0
  0
DIMSTYLE
105
18
330
9
100
AcDbSymbolTableRecord
100
AcDbDimStyleTableRecord
  2
Standard
 70
     0
289
     0
340
17
  0
ENDTAB
  0
TABLE
  2
BLOCK_RECORD
  5
1
330
0
100
AcDbSymbolTable
 70
   184
  0
BLOCK_RECORD
  5
A
330
1
100
AcDbSymbolTableRecord
100
AcDbBlockTableRecord
  2
*MODEL_SPACE
340
20
  0
BLOCK_RECORD
  5
B
330
1
100
AcDbSymbolTableRecord
100
AcDbBlockTableRecord
  2
*PAPER_SPACE
340
21
  0
BLOCK_RECORD
  5
8B
330
1
100
AcDbSymbolTableRecord
100
AcDbBlockTableRecord
  2
AI9-BLK1
340
0
102
{BLKREFS
331
8C
102
}
  0
BLOCK_RECORD
  5
8E
330
1
100
AcDbSymbolTableRecord
100
AcDbBlockTableRecord
  2
AI9-BLK2
340
0
102
{BLKREFS
331
8F
102
}
  0
BLOCK_RECORD
  5
91
330
1
100
AcDbSymbolTableRecord
100
AcDbBlockTableRecord
  2
AI9-BLK3
340
0
102
{BLKREFS
331
92
102
}
  0
BLOCK_RECORD
  5
97
330
1
100
AcDbSymbolTableRecord
100
AcDbBlockTableRecord
  2
AI9-BLK4
340
0
102
{BLKREFS
331
98
102
}
  0
BLOCK_RECORD
  5
9A
330
1
100
AcDbSymbolTableRecord
100
AcDbBlockTableRecord
  2
AI9-BLK5
340
0
102
{BLKREFS
331
9B
102
}
  0
BLOCK_RECORD
  5
A0
330
1
100
AcDbSymbolTableRecord
100
AcDbBlockTableRecord
  2
AI9-BLK6
340
0
102
{BLKREFS
331
A1
102
}
  0
BLOCK_RECORD
  5
A3
330
1
100
AcDbSymbolTableRecord
100
AcDbBlockTableRecord
  2
AI9-BLK7
340
0
102
{BLKREFS
331
A4
102
}
  0
BLOCK_RECORD
  5
B0
330
1
100
AcDbSymbolTableRecord
100
AcDbBlockTableRecord
  2
AI9-BLK8
340
0
102
{BLKREFS
331
B1
102
}
  0
BLOCK_RECORD
  5
B3
330
1
100
AcDbSymbolTableRecord
100
AcDbBlockTableRecord
  2
AI9-BLK9
340
0
102
{BLKREFS
331
B4
102
}
  0
BLOCK_RECORD
  5
B6
330
1
100
AcDbSymbolTableRecord
100
AcDbBlockTableRecord
  2
AI9-BLK10
340
0
102
{BLKREFS
331
B7
102
}
  0
BLOCK_RECORD
  5
BC
330
1
100
AcDbSymbolTableRecord
100
AcDbBlockTableRecord
  2
AI9-BLK11
340
0
102
{BLKREFS
331
BD
102
}
  0
BLOCK_RECORD
  5
BF
330
1
100
AcDbSymbolTableRecord
100
AcDbBlockTableRecord
  2
AI9-BLK12
340
0
102
{BLKREFS
331
C0
102
}
  0
BLOCK_RECORD
  5
C5
330
1
100
AcDbSymbolTableRecord
100
AcDbBlockTableRecord
  2
AI9-BLK13
340
0
102
{BLKREFS
331
C6
102
}
  0
BLOCK_RECORD
  5
C8
330
1
100
AcDbSymbolTableRecord
100
AcDbBlockTableRecord
  2
AI9-BLK14
340
0
102
{BLKREFS
331
C9
102
}
  0
BLOCK_RECORD
  5
DA
330
1
100
AcDbSymbolTableRecord
100
AcDbBlockTableRecord
  2
AI9-BLK15
340
0
102
{BLKREFS
331
DB
102
}
  0
BLOCK_RECORD
  5
DD
330
1
100
AcDbSymbolTableRecord
100
AcDbBlockTableRecord
  2
AI9-BLK16
340
0
102
{BLKREFS
331
DE
102
}
  0
BLOCK_RECORD
  5
110
330
1
100
AcDbSymbolTableRecord
100
AcDbBlockTableRecord
  2
AI9-BLK17
340
0
102
{BLKREFS
331
111
102
}
  0
BLOCK_RECORD
  5
113
330
1
100
AcDbSymbolTableRecord
100
AcDbBlockTableRecord
  2
AI9-BLK18
340
0
102
{BLKREFS
331
114
102
}
  0
BLOCK_RECORD
  5
116
330
1
100
AcDbSymbolTableRecord
100
AcDbBlockTableRecord
  2
AI9-BLK19
340
0
102
{BLKREFS
331
117
102
}
  0
BLOCK_RECORD
  5
11C
330
1
100
AcDbSymbolTableRecord
100
AcDbBlockTableRecord
  2
AI9-BLK20
340
0
102
{BLKREFS
331
11D
102
}
  0
BLOCK_RECORD
  5
11F
330
1
100
AcDbSymbolTableRecord
100
AcDbBlockTableRecord
  2
AI9-BLK21
340
0
102
{BLKREFS
331
120
102
}
  0
BLOCK_RECORD
  5
125
330
1
100
AcDbSymbolTableRecord
100
AcDbBlockTableRecord
  2
AI9-BLK22
340
0
102
{BLKREFS
331
126
102
}
  0
BLOCK_RECORD
  5
128
330
1
100
AcDbSymbolTableRecord
100
AcDbBlockTableRecord
  2
AI9-BLK23
340
0
102
{BLKREFS
331
129
102
}
  0
BLOCK_RECORD
  5
12F
330
1
100
AcDbSymbolTableRecord
100
AcDbBlockTableRecord
  2
AI9-BLK24
340
0
102
{BLKREFS
331
130
102
}
  0
BLOCK_RECORD
  5
132
330
1
100
AcDbSymbolTableRecord
100
AcDbBlockTableRecord
  2
AI9-BLK25
340
0
102
{BLKREFS
331
133
102
}
  0
BLOCK_RECORD
  5
138
330
1
100
AcDbSymbolTableRecord
100
AcDbBlockTableRecord
  2
AI9-BLK26
340
0
102
{BLKREFS
331
139
102
}
  0
BLOCK_RECORD
  5
13B
330
1
100
AcDbSymbolTableRecord
100
AcDbBlockTableRecord
  2
AI9-BLK27
340
0
102
{BLKREFS
331
13C
102
}
  0
BLOCK_RECORD
  5
141
330
1
100
AcDbSymbolTableRecord
100
AcDbBlockTableRecord
  2
AI9-BLK28
340
0
102
{BLKREFS
331
142
102
}
  0
BLOCK_RECORD
  5
144
330
1
100
AcDbSymbolTableRecord
100
AcDbBlockTableRecord
  2
AI9-BLK29
340
0
102
{BLKREFS
331
145
102
}
  0
BLOCK_RECORD
  5
147
330
1
100
AcDbSymbolTableRecord
100
AcDbBlockTableRecord
  2
AI9-BLK30
340
0
102
{BLKREFS
331
148
102
}
  0
BLOCK_RECORD
  5
14D
330
1
100
AcDbSymbolTableRecord
100
AcDbBlockTableRecord
  2
AI9-BLK31
340
0
102
{BLKREFS
331
14E
102
}
  0
BLOCK_RECORD
  5
150
330
1
100
AcDbSymbolTableRecord
100
AcDbBlockTableRecord
  2
AI9-BLK32
340
0
102
{BLKREFS
331
151
102
}
  0
BLOCK_RECORD
  5
15C
330
1
100
AcDbSymbolTableRecord
100
AcDbBlockTableRecord
  2
AI9-BLK33
340
0
102
{BLKREFS
331
15D
102
}
  0
BLOCK_RECORD
  5
15F
330
1
100
AcDbSymbolTableRecord
100
AcDbBlockTableRecord
  2
AI9-BLK34
340
0
102
{BLKREFS
331
160
102
}
  0
BLOCK_RECORD
  5
165
330
1
100
AcDbSymbolTableRecord
100
AcDbBlockTableRecord
  2
AI9-BLK35
340
0
102
{BLKREFS
331
166
102
}
  0
BLOCK_RECORD
  5
168
330
1
100
AcDbSymbolTableRecord
100
AcDbBlockTableRecord
  2
AI9-BLK36
340
0
102
{BLKREFS
331
169
102
}
  0
BLOCK_RECORD
  5
173
330
1
100
AcDbSymbolTableRecord
100
AcDbBlockTableRecord
  2
AI9-BLK37
340
0
102
{BLKREFS
331
174
102
}
  0
BLOCK_RECORD
  5
176
330
1
100
AcDbSymbolTableRecord
100
AcDbBlockTableRecord
  2
AI9-BLK38
340
0
102
{BLKREFS
331
177
102
}
  0
BLOCK_RECORD
  5
179
330
1
100
AcDbSymbolTableRecord
100
AcDbBlockTableRecord
  2
AI9-BLK39
340
0
102
{BLKREFS
331
17A
102
}
  0
BLOCK_RECORD
  5
17F
330
1
100
AcDbSymbolTableRecord
100
AcDbBlockTableRecord
  2
AI9-BLK40
340
0
102
{BLKREFS
331
180
102
}
  0
BLOCK_RECORD
  5
182
330
1
100
AcDbSymbolTableRecord
100
AcDbBlockTableRecord
  2
AI9-BLK41
340
0
102
{BLKREFS
331
183
102
}
  0
BLOCK_RECORD
  5
188
330
1
100
AcDbSymbolTableRecord
100
AcDbBlockTableRecord
  2
AI9-BLK42
340
0
102
{BLKREFS
331
189
102
}
  0
BLOCK_RECORD
  5
18B
330
1
100
AcDbSymbolTableRecord
100
AcDbBlockTableRecord
  2
AI9-BLK43
340
0
102
{BLKREFS
331
18C
102
}
  0
BLOCK_RECORD
  5
192
330
1
100
AcDbSymbolTableRecord
100
AcDbBlockTableRecord
  2
AI9-BLK44
340
0
102
{BLKREFS
331
193
102
}
  0
BLOCK_RECORD
  5
195
330
1
100
AcDbSymbolTableRecord
100
AcDbBlockTableRecord
  2
AI9-BLK45
340
0
102
{BLKREFS
331
196
102
}
  0
BLOCK_RECORD
  5
198
330
1
100
AcDbSymbolTableRecord
100
AcDbBlockTableRecord
  2
AI9-BLK46
340
0
102
{BLKREFS
331
199
102
}
  0
BLOCK_RECORD
  5
19E
330
1
100
AcDbSymbolTableRecord
100
AcDbBlockTableRecord
  2
AI9-BLK47
340
0
102
{BLKREFS
331
19F
102
}
  0
BLOCK_RECORD
  5
1A1
330
1
100
AcDbSymbolTableRecord
100
AcDbBlockTableRecord
  2
AI9-BLK48
340
0
102
{BLKREFS
331
1A2
102
}
  0
BLOCK_RECORD
  5
1BC
330
1
100
AcDbSymbolTableRecord
100
AcDbBlockTableRecord
  2
AI9-BLK49
340
0
102
{BLKREFS
331
1BD
102
}
  0
BLOCK_RECORD
  5
1BF
330
1
100
AcDbSymbolTableRecord
100
AcDbBlockTableRecord
  2
AI9-BLK50
340
0
102
{BLKREFS
331
1C0
102
}
  0
BLOCK_RECORD
  5
1C5
330
1
100
AcDbSymbolTableRecord
100
AcDbBlockTableRecord
  2
AI9-BLK51
340
0
102
{BLKREFS
331
1C6
102
}
  0
BLOCK_RECORD
  5
1C8
330
1
100
AcDbSymbolTableRecord
100
AcDbBlockTableRecord
  2
AI9-BLK52
340
0
102
{BLKREFS
331
1C9
102
}
  0
BLOCK_RECORD
  5
1CE
330
1
100
AcDbSymbolTableRecord
100
AcDbBlockTableRecord
  2
AI9-BLK53
340
0
102
{BLKREFS
331
1CF
102
}
  0
BLOCK_RECORD
  5
1D1
330
1
100
AcDbSymbolTableRecord
100
AcDbBlockTableRecord
  2
AI9-BLK54
340
0
102
{BLKREFS
331
1D2
102
}
  0
BLOCK_RECORD
  5
1D7
330
1
100
AcDbSymbolTableRecord
100
AcDbBlockTableRecord
  2
AI9-BLK55
340
0
102
{BLKREFS
331
1D8
102
}
  0
BLOCK_RECORD
  5
1DA
330
1
100
AcDbSymbolTableRecord
100
AcDbBlockTableRecord
  2
AI9-BLK56
340
0
102
{BLKREFS
331
1DB
102
}
  0
BLOCK_RECORD
  5
1DD
330
1
100
AcDbSymbolTableRecord
100
AcDbBlockTableRecord
  2
AI9-BLK57
340
0
102
{BLKREFS
331
1DE
102
}
  0
BLOCK_RECORD
  5
1E3
330
1
100
AcDbSymbolTableRecord
100
AcDbBlockTableRecord
  2
AI9-BLK58
340
0
102
{BLKREFS
331
1E4
102
}
  0
BLOCK_RECORD
  5
1E6
330
1
100
AcDbSymbolTableRecord
100
AcDbBlockTableRecord
  2
AI9-BLK59
340
0
102
{BLKREFS
331
1E7
102
}
  0
BLOCK_RECORD
  5
1F2
330
1
100
AcDbSymbolTableRecord
100
AcDbBlockTableRecord
  2
AI9-BLK60
340
0
102
{BLKREFS
331
1F3
102
}
  0
BLOCK_RECORD
  5
1F5
330
1
100
AcDbSymbolTableRecord
100
AcDbBlockTableRecord
  2
AI9-BLK61
340
0
102
{BLKREFS
331
1F6
102
}
  0
BLOCK_RECORD
  5
1FB
330
1
100
AcDbSymbolTableRecord
100
AcDbBlockTableRecord
  2
AI9-BLK62
340
0
102
{BLKREFS
331
1FC
102
}
  0
BLOCK_RECORD
  5
1FE
330
1
100
AcDbSymbolTableRecord
100
AcDbBlockTableRecord
  2
AI9-BLK63
340
0
102
{BLKREFS
331
1FF
102
}
  0
BLOCK_RECORD
  5
204
330
1
100
AcDbSymbolTableRecord
100
AcDbBlockTableRecord
  2
AI9-BLK64
340
0
102
{BLKREFS
331
205
102
}
  0
BLOCK_RECORD
  5
207
330
1
100
AcDbSymbolTableRecord
100
AcDbBlockTableRecord
  2
AI9-BLK65
340
0
102
{BLKREFS
331
208
102
}
  0
BLOCK_RECORD
  5
20D
330
1
100
AcDbSymbolTableRecord
100
AcDbBlockTableRecord
  2
AI9-BLK66
340
0
102
{BLKREFS
331
20E
102
}
  0
BLOCK_RECORD
  5
210
330
1
100
AcDbSymbolTableRecord
100
AcDbBlockTableRecord
  2
AI9-BLK67
340
0
102
{BLKREFS
331
211
102
}
  0
BLOCK_RECORD
  5
216
330
1
100
AcDbSymbolTableRecord
100
AcDbBlockTableRecord
  2
AI9-BLK68
340
0
102
{BLKREFS
331
217
102
}
  0
BLOCK_RECORD
  5
219
330
1
100
AcDbSymbolTableRecord
100
AcDbBlockTableRecord
  2
AI9-BLK69
340
0
102
{BLKREFS
331
21A
102
}
  0
BLOCK_RECORD
  5
21C
330
1
100
AcDbSymbolTableRecord
100
AcDbBlockTableRecord
  2
AI9-BLK70
340
0
102
{BLKREFS
331
21D
102
}
  0
BLOCK_RECORD
  5
222
330
1
100
AcDbSymbolTableRecord
100
AcDbBlockTableRecord
  2
AI9-BLK71
340
0
102
{BLKREFS
331
223
102
}
  0
BLOCK_RECORD
  5
225
330
1
100
AcDbSymbolTableRecord
100
AcDbBlockTableRecord
  2
AI9-BLK72
340
0
102
{BLKREFS
331
226
102
}
  0
BLOCK_RECORD
  5
22B
330
1
100
AcDbSymbolTableRecord
100
AcDbBlockTableRecord
  2
AI9-BLK73
340
0
102
{BLKREFS
331
22C
102
}
  0
BLOCK_RECORD
  5
22E
330
1
100
AcDbSymbolTableRecord
100
AcDbBlockTableRecord
  2
AI9-BLK74
340
0
102
{BLKREFS
331
22F
102
}
  0
BLOCK_RECORD
  5
235
330
1
100
AcDbSymbolTableRecord
100
AcDbBlockTableRecord
  2
AI9-BLK75
340
0
102
{BLKREFS
331
236
102
}
  0
BLOCK_RECORD
  5
249
330
1
100
AcDbSymbolTableRecord
100
AcDbBlockTableRecord
  2
AI9-BLK76
340
0
102
{BLKREFS
331
24A
102
}
  0
BLOCK_RECORD
  5
24C
330
1
100
AcDbSymbolTableRecord
100
AcDbBlockTableRecord
  2
AI9-BLK77
340
0
102
{BLKREFS
331
24D
102
}
  0
BLOCK_RECORD
  5
24F
330
1
100
AcDbSymbolTableRecord
100
AcDbBlockTableRecord
  2
AI9-BLK78
340
0
102
{BLKREFS
331
250
102
}
  0
BLOCK_RECORD
  5
255
330
1
100
AcDbSymbolTableRecord
100
AcDbBlockTableRecord
  2
AI9-BLK79
340
0
102
{BLKREFS
331
256
102
}
  0
BLOCK_RECORD
  5
258
330
1
100
AcDbSymbolTableRecord
100
AcDbBlockTableRecord
  2
AI9-BLK80
340
0
102
{BLKREFS
331
259
102
}
  0
BLOCK_RECORD
  5
25E
330
1
100
AcDbSymbolTableRecord
100
AcDbBlockTableRecord
  2
AI9-BLK81
340
0
102
{BLKREFS
331
25F
102
}
  0
BLOCK_RECORD
  5
261
330
1
100
AcDbSymbolTableRecord
100
AcDbBlockTableRecord
  2
AI9-BLK82
340
0
102
{BLKREFS
331
262
102
}
  0
BLOCK_RECORD
  5
26D
330
1
100
AcDbSymbolTableRecord
100
AcDbBlockTableRecord
  2
AI9-BLK83
340
0
102
{BLKREFS
331
26E
102
}
  0
BLOCK_RECORD
  5
2B5
330
1
100
AcDbSymbolTableRecord
100
AcDbBlockTableRecord
  2
AI9-BLK84
340
0
102
{BLKREFS
331
2B6
102
}
  0
BLOCK_RECORD
  5
2BB
330
1
100
AcDbSymbolTableRecord
100
AcDbBlockTableRecord
  2
AI9-BLK85
340
0
102
{BLKREFS
331
2BC
102
}
  0
BLOCK_RECORD
  5
2C3
330
1
100
AcDbSymbolTableRecord
100
AcDbBlockTableRecord
  2
AI9-BLK86
340
0
102
{BLKREFS
331
2C4
102
}
  0
BLOCK_RECORD
  5
2C6
330
1
100
AcDbSymbolTableRecord
100
AcDbBlockTableRecord
  2
AI9-BLK87
340
0
102
{BLKREFS
331
2C7
102
}
  0
BLOCK_RECORD
  5
2D3
330
1
100
AcDbSymbolTableRecord
100
AcDbBlockTableRecord
  2
AI9-BLK88
340
0
102
{BLKREFS
331
2D4
102
}
  0
BLOCK_RECORD
  5
2D6
330
1
100
AcDbSymbolTableRecord
100
AcDbBlockTableRecord
  2
AI9-BLK89
340
0
102
{BLKREFS
331
2D7
102
}
  0
BLOCK_RECORD
  5
2DC
330
1
100
AcDbSymbolTableRecord
100
AcDbBlockTableRecord
  2
AI9-BLK90
340
0
102
{BLKREFS
331
2DD
102
}
  0
BLOCK_RECORD
  5
2DF
330
1
100
AcDbSymbolTableRecord
100
AcDbBlockTableRecord
  2
AI9-BLK91
340
0
102
{BLKREFS
331
2E0
102
}
  0
BLOCK_RECORD
  5
307
330
1
100
AcDbSymbolTableRecord
100
AcDbBlockTableRecord
  2
AI9-BLK92
340
0
102
{BLKREFS
331
308
102
}
  0
BLOCK_RECORD
  5
30A
330
1
100
AcDbSymbolTableRecord
100
AcDbBlockTableRecord
  2
AI9-BLK93
340
0
102
{BLKREFS
331
30B
102
}
  0
BLOCK_RECORD
  5
310
330
1
100
AcDbSymbolTableRecord
100
AcDbBlockTableRecord
  2
AI9-BLK94
340
0
102
{BLKREFS
331
311
102
}
  0
BLOCK_RECORD
  5
313
330
1
100
AcDbSymbolTableRecord
100
AcDbBlockTableRecord
  2
AI9-BLK95
340
0
102
{BLKREFS
331
314
102
}
  0
BLOCK_RECORD
  5
316
330
1
100
AcDbSymbolTableRecord
100
AcDbBlockTableRecord
  2
AI9-BLK96
340
0
102
{BLKREFS
331
317
102
}
  0
BLOCK_RECORD
  5
31C
330
1
100
AcDbSymbolTableRecord
100
AcDbBlockTableRecord
  2
AI9-BLK97
340
0
102
{BLKREFS
331
31D
102
}
  0
BLOCK_RECORD
  5
31F
330
1
100
AcDbSymbolTableRecord
100
AcDbBlockTableRecord
  2
AI9-BLK98
340
0
102
{BLKREFS
331
320
102
}
  0
BLOCK_RECORD
  5
325
330
1
100
AcDbSymbolTableRecord
100
AcDbBlockTableRecord
  2
AI9-BLK99
340
0
102
{BLKREFS
331
326
102
}
  0
BLOCK_RECORD
  5
328
330
1
100
AcDbSymbolTableRecord
100
AcDbBlockTableRecord
  2
AI9-BLK100
340
0
102
{BLKREFS
331
329
102
}
  0
BLOCK_RECORD
  5
32F
330
1
100
AcDbSymbolTableRecord
100
AcDbBlockTableRecord
  2
AI9-BLK101
340
0
102
{BLKREFS
331
330
102
}
  0
BLOCK_RECORD
  5
332
330
1
100
AcDbSymbolTableRecord
100
AcDbBlockTableRecord
  2
AI9-BLK102
340
0
102
{BLKREFS
331
333
102
}
  0
BLOCK_RECORD
  5
335
330
1
100
AcDbSymbolTableRecord
100
AcDbBlockTableRecord
  2
AI9-BLK103
340
0
102
{BLKREFS
331
336
102
}
  0
BLOCK_RECORD
  5
33B
330
1
100
AcDbSymbolTableRecord
100
AcDbBlockTableRecord
  2
AI9-BLK104
340
0
102
{BLKREFS
331
33C
102
}
  0
BLOCK_RECORD
  5
33E
330
1
100
AcDbSymbolTableRecord
100
AcDbBlockTableRecord
  2
AI9-BLK105
340
0
102
{BLKREFS
331
33F
102
}
  0
BLOCK_RECORD
  5
344
330
1
100
AcDbSymbolTableRecord
100
AcDbBlockTableRecord
  2
AI9-BLK106
340
0
102
{BLKREFS
331
345
102
}
  0
BLOCK_RECORD
  5
347
330
1
100
AcDbSymbolTableRecord
100
AcDbBlockTableRecord
  2
AI9-BLK107
340
0
102
{BLKREFS
331
348
102
}
  0
BLOCK_RECORD
  5
34E
330
1
100
AcDbSymbolTableRecord
100
AcDbBlockTableRecord
  2
AI9-BLK108
340
0
102
{BLKREFS
331
34F
102
}
  0
BLOCK_RECORD
  5
351
330
1
100
AcDbSymbolTableRecord
100
AcDbBlockTableRecord
  2
AI9-BLK109
340
0
102
{BLKREFS
331
352
102
}
  0
BLOCK_RECORD
  5
354
330
1
100
AcDbSymbolTableRecord
100
AcDbBlockTableRecord
  2
AI9-BLK110
340
0
102
{BLKREFS
331
355
102
}
  0
BLOCK_RECORD
  5
35A
330
1
100
AcDbSymbolTableRecord
100
AcDbBlockTableRecord
  2
AI9-BLK111
340
0
102
{BLKREFS
331
35B
102
}
  0
BLOCK_RECORD
  5
35D
330
1
100
AcDbSymbolTableRecord
100
AcDbBlockTableRecord
  2
AI9-BLK112
340
0
102
{BLKREFS
331
35E
102
}
  0
BLOCK_RECORD
  5
363
330
1
100
AcDbSymbolTableRecord
100
AcDbBlockTableRecord
  2
AI9-BLK113
340
0
102
{BLKREFS
331
364
102
}
  0
BLOCK_RECORD
  5
366
330
1
100
AcDbSymbolTableRecord
100
AcDbBlockTableRecord
  2
AI9-BLK114
340
0
102
{BLKREFS
331
367
102
}
  0
BLOCK_RECORD
  5
377
330
1
100
AcDbSymbolTableRecord
100
AcDbBlockTableRecord
  2
AI9-BLK115
340
0
102
{BLKREFS
331
378
102
}
  0
BLOCK_RECORD
  5
37A
330
1
100
AcDbSymbolTableRecord
100
AcDbBlockTableRecord
  2
AI9-BLK116
340
0
102
{BLKREFS
331
37B
102
}
  0
BLOCK_RECORD
  5
37D
330
1
100
AcDbSymbolTableRecord
100
AcDbBlockTableRecord
  2
AI9-BLK117
340
0
102
{BLKREFS
331
37E
102
}
  0
BLOCK_RECORD
  5
383
330
1
100
AcDbSymbolTableRecord
100
AcDbBlockTableRecord
  2
AI9-BLK118
340
0
102
{BLKREFS
331
384
102
}
  0
BLOCK_RECORD
  5
386
330
1
100
AcDbSymbolTableRecord
100
AcDbBlockTableRecord
  2
AI9-BLK119
340
0
102
{BLKREFS
331
387
102
}
  0
BLOCK_RECORD
  5
38C
330
1
100
AcDbSymbolTableRecord
100
AcDbBlockTableRecord
  2
AI9-BLK120
340
0
102
{BLKREFS
331
38D
102
}
  0
BLOCK_RECORD
  5
38F
330
1
100
AcDbSymbolTableRecord
100
AcDbBlockTableRecord
  2
AI9-BLK121
340
0
102
{BLKREFS
331
390
102
}
  0
BLOCK_RECORD
  5
396
330
1
100
AcDbSymbolTableRecord
100
AcDbBlockTableRecord
  2
AI9-BLK122
340
0
102
{BLKREFS
331
397
102
}
  0
BLOCK_RECORD
  5
399
330
1
100
AcDbSymbolTableRecord
100
AcDbBlockTableRecord
  2
AI9-BLK123
340
0
102
{BLKREFS
331
39A
102
}
  0
BLOCK_RECORD
  5
39C
330
1
100
AcDbSymbolTableRecord
100
AcDbBlockTableRecord
  2
AI9-BLK124
340
0
102
{BLKREFS
331
39D
102
}
  0
BLOCK_RECORD
  5
3A2
330
1
100
AcDbSymbolTableRecord
100
AcDbBlockTableRecord
  2
AI9-BLK125
340
0
102
{BLKREFS
331
3A3
102
}
  0
BLOCK_RECORD
  5
3A5
330
1
100
AcDbSymbolTableRecord
100
AcDbBlockTableRecord
  2
AI9-BLK126
340
0
102
{BLKREFS
331
3A6
102
}
  0
BLOCK_RECORD
  5
3AB
330
1
100
AcDbSymbolTableRecord
100
AcDbBlockTableRecord
  2
AI9-BLK127
340
0
102
{BLKREFS
331
3AC
102
}
  0
BLOCK_RECORD
  5
3AE
330
1
100
AcDbSymbolTableRecord
100
AcDbBlockTableRecord
  2
AI9-BLK128
340
0
102
{BLKREFS
331
3AF
102
}
  0
BLOCK_RECORD
  5
3D7
330
1
100
AcDbSymbolTableRecord
100
AcDbBlockTableRecord
  2
AI9-BLK129
340
0
102
{BLKREFS
331
3D8
102
}
  0
BLOCK_RECORD
  5
3EF
330
1
100
AcDbSymbolTableRecord
100
AcDbBlockTableRecord
  2
AI9-BLK130
340
0
102
{BLKREFS
331
3F0
102
}
  0
BLOCK_RECORD
  5
3F2
330
1
100
AcDbSymbolTableRecord
100
AcDbBlockTableRecord
  2
AI9-BLK131
340
0
102
{BLKREFS
331
3F3
102
}
  0
BLOCK_RECORD
  5
3F8
330
1
100
AcDbSymbolTableRecord
100
AcDbBlockTableRecord
  2
AI9-BLK132
340
0
102
{BLKREFS
331
3F9
102
}
  0
BLOCK_RECORD
  5
3FB
330
1
100
AcDbSymbolTableRecord
100
AcDbBlockTableRecord
  2
AI9-BLK133
340
0
102
{BLKREFS
331
3FC
102
}
  0
BLOCK_RECORD
  5
3FE
330
1
100
AcDbSymbolTableRecord
100
AcDbBlockTableRecord
  2
AI9-BLK134
340
0
102
{BLKREFS
331
3FF
102
}
  0
BLOCK_RECORD
  5
404
330
1
100
AcDbSymbolTableRecord
100
AcDbBlockTableRecord
  2
AI9-BLK135
340
0
102
{BLKREFS
331
405
102
}
  0
BLOCK_RECORD
  5
407
330
1
100
AcDbSymbolTableRecord
100
AcDbBlockTableRecord
  2
AI9-BLK136
340
0
102
{BLKREFS
331
408
102
}
  0
BLOCK_RECORD
  5
40D
330
1
100
AcDbSymbolTableRecord
100
AcDbBlockTableRecord
  2
AI9-BLK137
340
0
102
{BLKREFS
331
40E
102
}
  0
BLOCK_RECORD
  5
410
330
1
100
AcDbSymbolTableRecord
100
AcDbBlockTableRecord
  2
AI9-BLK138
340
0
102
{BLKREFS
331
411
102
}
  0
BLOCK_RECORD
  5
416
330
1
100
AcDbSymbolTableRecord
100
AcDbBlockTableRecord
  2
AI9-BLK139
340
0
102
{BLKREFS
331
417
102
}
  0
BLOCK_RECORD
  5
419
330
1
100
AcDbSymbolTableRecord
100
AcDbBlockTableRecord
  2
AI9-BLK140
340
0
102
{BLKREFS
331
41A
102
}
  0
BLOCK_RECORD
  5
41F
330
1
100
AcDbSymbolTableRecord
100
AcDbBlockTableRecord
  2
AI9-BLK141
340
0
102
{BLKREFS
331
420
102
}
  0
BLOCK_RECORD
  5
422
330
1
100
AcDbSymbolTableRecord
100
AcDbBlockTableRecord
  2
AI9-BLK142
340
0
102
{BLKREFS
331
423
102
}
  0
BLOCK_RECORD
  5
428
330
1
100
AcDbSymbolTableRecord
100
AcDbBlockTableRecord
  2
AI9-BLK143
340
0
102
{BLKREFS
331
429
102
}
  0
BLOCK_RECORD
  5
42B
330
1
100
AcDbSymbolTableRecord
100
AcDbBlockTableRecord
  2
AI9-BLK144
340
0
102
{BLKREFS
331
42C
102
}
  0
BLOCK_RECORD
  5
431
330
1
100
AcDbSymbolTableRecord
100
AcDbBlockTableRecord
  2
AI9-BLK145
340
0
102
{BLKREFS
331
432
102
}
  0
BLOCK_RECORD
  5
434
330
1
100
AcDbSymbolTableRecord
100
AcDbBlockTableRecord
  2
AI9-BLK146
340
0
102
{BLKREFS
331
435
102
}
  0
BLOCK_RECORD
  5
43B
330
1
100
AcDbSymbolTableRecord
100
AcDbBlockTableRecord
  2
AI9-BLK147
340
0
102
{BLKREFS
331
43C
102
}
  0
BLOCK_RECORD
  5
43E
330
1
100
AcDbSymbolTableRecord
100
AcDbBlockTableRecord
  2
AI9-BLK148
340
0
102
{BLKREFS
331
43F
102
}
  0
BLOCK_RECORD
  5
441
330
1
100
AcDbSymbolTableRecord
100
AcDbBlockTableRecord
  2
AI9-BLK149
340
0
102
{BLKREFS
331
442
102
}
  0
BLOCK_RECORD
  5
447
330
1
100
AcDbSymbolTableRecord
100
AcDbBlockTableRecord
  2
AI9-BLK150
340
0
102
{BLKREFS
331
448
102
}
  0
BLOCK_RECORD
  5
44A
330
1
100
AcDbSymbolTableRecord
100
AcDbBlockTableRecord
  2
AI9-BLK151
340
0
102
{BLKREFS
331
44B
102
}
  0
BLOCK_RECORD
  5
450
330
1
100
AcDbSymbolTableRecord
100
AcDbBlockTableRecord
  2
AI9-BLK152
340
0
102
{BLKREFS
331
451
102
}
  0
BLOCK_RECORD
  5
453
330
1
100
AcDbSymbolTableRecord
100
AcDbBlockTableRecord
  2
AI9-BLK153
340
0
102
{BLKREFS
331
454
102
}
  0
BLOCK_RECORD
  5
459
330
1
100
AcDbSymbolTableRecord
100
AcDbBlockTableRecord
  2
AI9-BLK154
340
0
102
{BLKREFS
331
45A
102
}
  0
BLOCK_RECORD
  5
45C
330
1
100
AcDbSymbolTableRecord
100
AcDbBlockTableRecord
  2
AI9-BLK155
340
0
102
{BLKREFS
331
45D
102
}
  0
BLOCK_RECORD
  5
463
330
1
100
AcDbSymbolTableRecord
100
AcDbBlockTableRecord
  2
AI9-BLK156
340
0
102
{BLKREFS
331
464
102
}
  0
BLOCK_RECORD
  5
466
330
1
100
AcDbSymbolTableRecord
100
AcDbBlockTableRecord
  2
AI9-BLK157
340
0
102
{BLKREFS
331
467
102
}
  0
BLOCK_RECORD
  5
469
330
1
100
AcDbSymbolTableRecord
100
AcDbBlockTableRecord
  2
AI9-BLK158
340
0
102
{BLKREFS
331
46A
102
}
  0
BLOCK_RECORD
  5
46F
330
1
100
AcDbSymbolTableRecord
100
AcDbBlockTableRecord
  2
AI9-BLK159
340
0
102
{BLKREFS
331
470
102
}
  0
BLOCK_RECORD
  5
472
330
1
100
AcDbSymbolTableRecord
100
AcDbBlockTableRecord
  2
AI9-BLK160
340
0
102
{BLKREFS
331
473
102
}
  0
BLOCK_RECORD
  5
478
330
1
100
AcDbSymbolTableRecord
100
AcDbBlockTableRecord
  2
AI9-BLK161
340
0
102
{BLKREFS
331
479
102
}
  0
BLOCK_RECORD
  5
47B
330
1
100
AcDbSymbolTableRecord
100
AcDbBlockTableRecord
  2
AI9-BLK162
340
0
102
{BLKREFS
331
47C
102
}
  0
BLOCK_RECORD
  5
481
330
1
100
AcDbSymbolTableRecord
100
AcDbBlockTableRecord
  2
AI9-BLK163
340
0
102
{BLKREFS
331
482
102
}
  0
BLOCK_RECORD
  5
484
330
1
100
AcDbSymbolTableRecord
100
AcDbBlockTableRecord
  2
AI9-BLK164
340
0
102
{BLKREFS
331
485
102
}
  0
BLOCK_RECORD
  5
48C
330
1
100
AcDbSymbolTableRecord
100
AcDbBlockTableRecord
  2
AI9-BLK165
340
0
102
{BLKREFS
331
48D
102
}
  0
BLOCK_RECORD
  5
48F
330
1
100
AcDbSymbolTableRecord
100
AcDbBlockTableRecord
  2
AI9-BLK166
340
0
102
{BLKREFS
331
490
102
}
  0
BLOCK_RECORD
  5
492
330
1
100
AcDbSymbolTableRecord
100
AcDbBlockTableRecord
  2
AI9-BLK167
340
0
102
{BLKREFS
331
493
102
}
  0
BLOCK_RECORD
  5
498
330
1
100
AcDbSymbolTableRecord
100
AcDbBlockTableRecord
  2
AI9-BLK168
340
0
102
{BLKREFS
331
499
102
}
  0
BLOCK_RECORD
  5
49B
330
1
100
AcDbSymbolTableRecord
100
AcDbBlockTableRecord
  2
AI9-BLK169
340
0
102
{BLKREFS
331
49C
102
}
  0
BLOCK_RECORD
  5
4AD
330
1
100
AcDbSymbolTableRecord
100
AcDbBlockTableRecord
  2
AI9-BLK170
340
0
102
{BLKREFS
331
4AE
102
}
  0
BLOCK_RECORD
  5
4B0
330
1
100
AcDbSymbolTableRecord
100
AcDbBlockTableRecord
  2
AI9-BLK171
340
0
102
{BLKREFS
331
4B1
102
}
  0
BLOCK_RECORD
  5
4B3
330
1
100
AcDbSymbolTableRecord
100
AcDbBlockTableRecord
  2
AI9-BLK172
340
0
102
{BLKREFS
331
4B4
102
}
  0
BLOCK_RECORD
  5
4B9
330
1
100
AcDbSymbolTableRecord
100
AcDbBlockTableRecord
  2
AI9-BLK173
340
0
102
{BLKREFS
331
4BA
102
}
  0
BLOCK_RECORD
  5
4BC
330
1
100
AcDbSymbolTableRecord
100
AcDbBlockTableRecord
  2
AI9-BLK174
340
0
102
{BLKREFS
331
4BD
102
}
  0
BLOCK_RECORD
  5
4C2
330
1
100
AcDbSymbolTableRecord
100
AcDbBlockTableRecord
  2
AI9-BLK175
340
0
102
{BLKREFS
331
4C3
102
}
  0
BLOCK_RECORD
  5
4C5
330
1
100
AcDbSymbolTableRecord
100
AcDbBlockTableRecord
  2
AI9-BLK176
340
0
102
{BLKREFS
331
4C6
102
}
  0
BLOCK_RECORD
  5
4CB
330
1
100
AcDbSymbolTableRecord
100
AcDbBlockTableRecord
  2
AI9-BLK177
340
0
102
{BLKREFS
331
4CC
102
}
  0
BLOCK_RECORD
  5
4CE
330
1
100
AcDbSymbolTableRecord
100
AcDbBlockTableRecord
  2
AI9-BLK178
340
0
102
{BLKREFS
331
4CF
102
}
  0
BLOCK_RECORD
  5
4D4
330
1
100
AcDbSymbolTableRecord
100
AcDbBlockTableRecord
  2
AI9-BLK179
340
0
102
{BLKREFS
331
4D5
102
}
  0
BLOCK_RECORD
  5
4D7
330
1
100
AcDbSymbolTableRecord
100
AcDbBlockTableRecord
  2
AI9-BLK180
340
0
102
{BLKREFS
331
4D8
102
}
  0
BLOCK_RECORD
  5
4DD
330
1
100
AcDbSymbolTableRecord
100
AcDbBlockTableRecord
  2
AI9-BLK181
340
0
102
{BLKREFS
331
4DE
102
}
  0
BLOCK_RECORD
  5
4E0
330
1
100
AcDbSymbolTableRecord
100
AcDbBlockTableRecord
  2
AI9-BLK182
340
0
102
{BLKREFS
331
4E1
102
}
  0
BLOCK_RECORD
  5
4E6
330
1
100
AcDbSymbolTableRecord
100
AcDbBlockTableRecord
  2
AI9-BLK183
340
0
102
{BLKREFS
331
4E7
102
}
  0
BLOCK_RECORD
  5
4E9
330
1
100
AcDbSymbolTableRecord
100
AcDbBlockTableRecord
  2
AI9-BLK184
340
0
102
{BLKREFS
331
4EA
102
}
  0
ENDTAB
  0
ENDSEC
  0
SECTION
  2
BLOCKS
  0
BLOCK
  5
D
330
A
100
AcDbEntity
  8
0
100
AcDbBlockBegin
  2
*MODEL_SPACE
 70
     0
 71
     1
 10
0.0
 20
0.0
 30
0.0
  3
*MODEL_SPACE
  1

  0
ENDBLK
  5
E
330
A
100
AcDbEntity
  8
0
100
AcDbBlockEnd
  0
BLOCK
  5
F
330
B
100
AcDbEntity
 67
     1
  8
0
100
AcDbBlockBegin
  2
*PAPER_SPACE
 70
     0
 71
     1
 10
0.0
 20
0.0
 30
0.0
  3
*PAPER_SPACE
  1

  0
ENDBLK
  5
10
330
B
100
AcDbEntity
 67
     1
  8
0
100
AcDbBlockEnd
  0
BLOCK
  5
8D
330
8B
100
AcDbEntity
  8
0
 62
     7
100
AcDbBlockBegin
  2
AI9-BLK1
 70
     0
 71
     1
 10
0.0
 20
0.0
 30
0.0
  3
AI9-BLK1
  1

  0
INSERT
  5
A1
330
8B
100
AcDbEntity
  8
0
  6
AI9-LType1
 62
     7
100
AcDbBlockReference
  2
AI9-BLK6
 10
-2.381249999999999
 20
0.0
 30
0.0
  0
INSERT
  5
98
330
8B
100
AcDbEntity
  8
0
  6
AI9-LType1
 62
     7
100
AcDbBlockReference
  2
AI9-BLK4
 10
0.79375
 20
0.0
 30
0.0
  0
INSERT
  5
8F
330
8B
100
AcDbEntity
  8
0
  6
AI9-LType1
 62
     7
100
AcDbBlockReference
  2
AI9-BLK2
 10
3.174999999999999
 20
0.0
 30
0.0
  0
ENDBLK
  5
A9
330
8B
100
AcDbEntity
  8
0
100
AcDbBlockEnd
  0
BLOCK
  5
90
330
8E
100
AcDbEntity
  8
0
 62
     7
100
AcDbBlockBegin
  2
AI9-BLK2
 70
     0
 71
     1
 10
0.0
 20
0.0
 30
0.0
  3
AI9-BLK2
  1

  0
INSERT
  5
92
330
8E
100
AcDbEntity
  8
0
  6
AI9-LType1
 62
     7
100
AcDbBlockReference
  2
AI9-BLK3
 10
0.0
 20
0.0
 30
0.0
  0
ENDBLK
  5
96
330
8E
100
AcDbEntity
  8
0
100
AcDbBlockEnd
  0
BLOCK
  5
93
330
91
100
AcDbEntity
  8
0
 62
     7
100
AcDbBlockBegin
  2
AI9-BLK3
 70
     0
 71
     1
 10
0.0
 20
0.0
 30
0.0
  3
AI9-BLK3
  1

  0
MTEXT
  5
94
330
91
100
AcDbEntity
  8
0
  6
AI9-LType1
 62
     7
100
AcDbMText
 10
-0.79375
 20
1.350149045860947
 30
0.0
 40
2.624834375722067
 41
0.0
 71
     1
 72
     2
  1
\W0.90;\fMS Gothic|b0|i0|c128;2
  7
STD
 11
1.000000999999999
 21
0.0
 31
0.0
 73
     1
 44
1.0
  0
ENDBLK
  5
95
330
91
100
AcDbEntity
  8
0
100
AcDbBlockEnd
  0
BLOCK
  5
99
330
97
100
AcDbEntity
  8
0
 62
     7
100
AcDbBlockBegin
  2
AI9-BLK4
 70
     0
 71
     1
 10
0.0
 20
0.0
 30
0.0
  3
AI9-BLK4
  1

  0
INSERT
  5
9B
330
97
100
AcDbEntity
  8
0
  6
AI9-LType1
 62
     7
100
AcDbBlockReference
  2
AI9-BLK5
 10
0.0
 20
0.0
 30
0.0
  0
ENDBLK
  5
9F
330
97
100
AcDbEntity
  8
0
100
AcDbBlockEnd
  0
BLOCK
  5
9C
330
9A
100
AcDbEntity
  8
0
 62
     7
100
AcDbBlockBegin
  2
AI9-BLK5
 70
     0
 71
     1
 10
0.0
 20
0.0
 30
0.0
  3
AI9-BLK5
  1

  0
MTEXT
  5
9D
330
9A
100
AcDbEntity
  8
0
  6
AI9-LType1
 62
     7
100
AcDbMText
 10
-1.587499999999999
 20
1.350149045860947
 30
0.0
 40
2.624834375722067
 41
0.0
 71
     1
 72
     2
  1
\W0.90;\fMS Gothic|b0|i0|c128;±
  7
KANJISTD
 11
1.000000999999999
 21
0.0
 31
0.0
 73
     1
 44
1.0
  0
ENDBLK
  5
9E
330
9A
100
AcDbEntity
  8
0
100
AcDbBlockEnd
  0
BLOCK
  5
A2
330
A0
100
AcDbEntity
  8
0
 62
     7
100
AcDbBlockBegin
  2
AI9-BLK6
 70
     0
 71
     1
 10
0.0
 20
0.0
 30
0.0
  3
AI9-BLK6
  1

  0
INSERT
  5
A4
330
A0
100
AcDbEntity
  8
0
  6
AI9-LType1
 62
     7
100
AcDbBlockReference
  2
AI9-BLK7
 10
0.0
 20
0.0
 30
0.0
  0
ENDBLK
  5
A8
330
A0
100
AcDbEntity
  8
0
100
AcDbBlockEnd
  0
BLOCK
  5
A5
330
A3
100
AcDbEntity
  8
0
 62
     7
100
AcDbBlockBegin
  2
AI9-BLK7
 70
     0
 71
     1
 10
0.0
 20
0.0
 30
0.0
  3
AI9-BLK7
  1

  0
MTEXT
  5
A6
330
A3
100
AcDbEntity
  8
0
  6
AI9-LType1
 62
     7
100
AcDbMText
 10
-1.587499999999999
 20
1.350149045860947
 30
0.0
 40
2.624834375722067
 41
0.0
 71
     1
 72
     2
  1
\W0.90;\fMS Gothic|b0|i0|c128;85
  7
STD
 11
1.000000999999999
 21
0.0
 31
0.0
 73
     1
 44
1.0
  0
ENDBLK
  5
A7
330
A3
100
AcDbEntity
  8
0
100
AcDbBlockEnd
  0
BLOCK
  5
B2
330
B0
100
AcDbEntity
  8
0
 62
     7
100
AcDbBlockBegin
  2
AI9-BLK8
 70
     0
 71
     1
 10
0.0
 20
0.0
 30
0.0
  3
AI9-BLK8
  1

  0
INSERT
  5
C6
330
B0
100
AcDbEntity
  8
0
  6
AI9-LType1
 62
     7
100
AcDbBlockReference
  2
AI9-BLK13
 10
0.0
 20
-2.381249999999999
 30
0.0
  0
INSERT
  5
BD
330
B0
100
AcDbEntity
  8
0
  6
AI9-LType1
 62
     7
100
AcDbBlockReference
  2
AI9-BLK11
 10
0.0
 20
1.587499999999999
 30
0.0
  0
INSERT
  5
B4
330
B0
100
AcDbEntity
  8
0
  6
AI9-LType1
 62
     7
100
AcDbBlockReference
  2
AI9-BLK9
 10
0.0
 20
3.968749999999999
 30
0.0
  0
ENDBLK
  5
CE
330
B0
100
AcDbEntity
  8
0
100
AcDbBlockEnd
  0
BLOCK
  5
B5
330
B3
100
AcDbEntity
  8
0
 62
     7
100
AcDbBlockBegin
  2
AI9-BLK9
 70
     0
 71
     1
 10
0.0
 20
0.0
 30
0.0
  3
AI9-BLK9
  1

  0
INSERT
  5
B7
330
B3
100
AcDbEntity
  8
0
  6
AI9-LType1
 62
     7
100
AcDbBlockReference
  2
AI9-BLK10
 10
0.0
 20
0.0
 30
0.0
  0
ENDBLK
  5
BB
330
B3
100
AcDbEntity
  8
0
100
AcDbBlockEnd
  0
BLOCK
  5
B8
330
B6
100
AcDbEntity
  8
0
 62
     7
100
AcDbBlockBegin
  2
AI9-BLK10
 70
     0
 71
     1
 10
0.0
 20
0.0
 30
0.0
  3
AI9-BLK10
  1

  0
MTEXT
  5
B9
330
B6
100
AcDbEntity
  8
0
  6
AI9-LType1
 62
     7
100
AcDbMText
 10
-1.350149045860947
 20
-0.79375
 30
0.0
 40
2.624834375722067
 41
0.0
 71
     1
 72
     2
  1
\W0.90;\fMS Gothic|b0|i0|c128;2
  7
STD
 11
0.0
 21
1.0
 31
0.0
 73
     1
 44
1.0
  0
ENDBLK
  5
BA
330
B6
100
AcDbEntity
  8
0
100
AcDbBlockEnd
  0
BLOCK
  5
BE
330
BC
100
AcDbEntity
  8
0
 62
     7
100
AcDbBlockBegin
  2
AI9-BLK11
 70
     0
 71
     1
 10
0.0
 20
0.0
 30
0.0
  3
AI9-BLK11
  1

  0
INSERT
  5
C0
330
BC
100
AcDbEntity
  8
0
  6
AI9-LType1
 62
     7
100
AcDbBlockReference
  2
AI9-BLK12
 10
0.0
 20
0.0
 30
0.0
  0
ENDBLK
  5
C4
330
BC
100
AcDbEntity
  8
0
100
AcDbBlockEnd
  0
BLOCK
  5
C1
330
BF
100
AcDbEntity
  8
0
 62
     7
100
AcDbBlockBegin
  2
AI9-BLK12
 70
     0
 71
     1
 10
0.0
 20
0.0
 30
0.0
  3
AI9-BLK12
  1

  0
MTEXT
  5
C2
330
BF
100
AcDbEntity
  8
0
  6
AI9-LType1
 62
     7
100
AcDbMText
 10
-1.350149045860947
 20
-1.587499999999999
 30
0.0
 40
2.624834375722067
 41
0.0
 71
     1
 72
     2
  1
\W0.90;\fMS Gothic|b0|i0|c128;±
  7
KANJISTD
 11
0.0
 21
1.0
 31
0.0
 73
     1
 44
1.0
  0
ENDBLK
  5
C3
330
BF
100
AcDbEntity
  8
0
100
AcDbBlockEnd
  0
BLOCK
  5
C7
330
C5
100
AcDbEntity
  8
0
 62
     7
100
AcDbBlockBegin
  2
AI9-BLK13
 70
     0
 71
     1
 10
0.0
 20
0.0
 30
0.0
  3
AI9-BLK13
  1

  0
INSERT
  5
C9
330
C5
100
AcDbEntity
  8
0
  6
AI9-LType1
 62
     7
100
AcDbBlockReference
  2
AI9-BLK14
 10
0.0
 20
0.0
 30
0.0
  0
ENDBLK
  5
CD
330
C5
100
AcDbEntity
  8
0
100
AcDbBlockEnd
  0
BLOCK
  5
CA
330
C8
100
AcDbEntity
  8
0
 62
     7
100
AcDbBlockBegin
  2
AI9-BLK14
 70
     0
 71
     1
 10
0.0
 20
0.0
 30
0.0
  3
AI9-BLK14
  1

  0
MTEXT
  5
CB
330
C8
100
AcDbEntity
  8
0
  6
AI9-LType1
 62
     7
100
AcDbMText
 10
-1.350149045860947
 20
-2.381249999999999
 30
0.0
 40
2.624834375722067
 41
0.0
 71
     1
 72
     2
  1
\W0.90;\fMS Gothic|b0|i0|c128;110
  7
STD
 11
0.0
 21
1.0
 31
0.0
 73
     1
 44
1.0
  0
ENDBLK
  5
CC
330
C8
100
AcDbEntity
  8
0
100
AcDbBlockEnd
  0
BLOCK
  5
DC
330
DA
100
AcDbEntity
  8
0
 62
     7
100
AcDbBlockBegin
  2
AI9-BLK15
 70
     0
 71
     1
 10
0.0
 20
0.0
 30
0.0
  3
AI9-BLK15
  1

  0
INSERT
  5
DE
330
DA
100
AcDbEntity
  8
0
 62
     7
100
AcDbBlockReference
  2
AI9-BLK16
 10
0.0
 20
0.0
 30
0.0
  0
ENDBLK
  5
E2
330
DA
100
AcDbEntity
  8
0
100
AcDbBlockEnd
  0
BLOCK
  5
DF
330
DD
100
AcDbEntity
  8
0
 62
     7
100
AcDbBlockBegin
  2
AI9-BLK16
 70
     0
 71
     1
 10
0.0
 20
0.0
 30
0.0
  3
AI9-BLK16
  1

  0
MTEXT
  5
E0
330
DD
100
AcDbEntity
  8
0
 62
     7
100
AcDbMText
 10
-0.6614583333333333
 20
1.350148625317085
 30
0.0
 40
2.624833955178184
 41
0.0
 71
     1
 72
     2
  1
\W0.75;\fMS Gothic|b0|i0|c128; 
  7
STD
 11
1.000000999999999
 21
0.0
 31
0.0
 73
     1
 44
1.0
  0
ENDBLK
  5
E1
330
DD
100
AcDbEntity
  8
0
100
AcDbBlockEnd
  0
BLOCK
  5
112
330
110
100
AcDbEntity
  8
0
 62
     7
100
AcDbBlockBegin
  2
AI9-BLK17
 70
     0
 71
     1
 10
0.0
 20
0.0
 30
0.0
  3
AI9-BLK17
  1

  0
INSERT
  5
126
330
110
100
AcDbEntity
  8
0
 62
     7
100
AcDbBlockReference
  2
AI9-BLK22
 10
-2.381249999999999
 20
0.0
 30
0.0
  0
INSERT
  5
11D
330
110
100
AcDbEntity
  8
0
 62
     7
100
AcDbBlockReference
  2
AI9-BLK20
 10
1.587499999999999
 20
0.0
 30
0.0
  0
INSERT
  5
114
330
110
100
AcDbEntity
  8
0
 62
     7
100
AcDbBlockReference
  2
AI9-BLK18
 10
3.968749999999999
 20
0.0
 30
0.0
  0
ENDBLK
  5
12E
330
110
100
AcDbEntity
  8
0
100
AcDbBlockEnd
  0
BLOCK
  5
115
330
113
100
AcDbEntity
  8
0
 62
     7
100
AcDbBlockBegin
  2
AI9-BLK18
 70
     0
 71
     1
 10
0.0
 20
0.0
 30
0.0
  3
AI9-BLK18
  1

  0
INSERT
  5
117
330
113
100
AcDbEntity
  8
0
 62
     7
100
AcDbBlockReference
  2
AI9-BLK19
 10
0.0
 20
0.0
 30
0.0
  0
ENDBLK
  5
11B
330
113
100
AcDbEntity
  8
0
100
AcDbBlockEnd
  0
BLOCK
  5
118
330
116
100
AcDbEntity
  8
0
 62
     7
100
AcDbBlockBegin
  2
AI9-BLK19
 70
     0
 71
     1
 10
0.0
 20
0.0
 30
0.0
  3
AI9-BLK19
  1

  0
MTEXT
  5
119
330
116
100
AcDbEntity
  8
0
 62
     7
100
AcDbMText
 10
-0.79375
 20
1.350149045860947
 30
0.0
 40
2.624834375722067
 41
0.0
 71
     1
 72
     2
  1
\W0.90;\fMS Gothic|b0|i0|c128;2
  7
STD
 11
1.000000999999999
 21
0.0
 31
0.0
 73
     1
 44
1.0
  0
ENDBLK
  5
11A
330
116
100
AcDbEntity
  8
0
100
AcDbBlockEnd
  0
BLOCK
  5
11E
330
11C
100
AcDbEntity
  8
0
 62
     7
100
AcDbBlockBegin
  2
AI9-BLK20
 70
     0
 71
     1
 10
0.0
 20
0.0
 30
0.0
  3
AI9-BLK20
  1

  0
INSERT
  5
120
330
11C
100
AcDbEntity
  8
0
 62
     7
100
AcDbBlockReference
  2
AI9-BLK21
 10
0.0
 20
0.0
 30
0.0
  0
ENDBLK
  5
124
330
11C
100
AcDbEntity
  8
0
100
AcDbBlockEnd
  0
BLOCK
  5
121
330
11F
100
AcDbEntity
  8
0
 62
     7
100
AcDbBlockBegin
  2
AI9-BLK21
 70
     0
 71
     1
 10
0.0
 20
0.0
 30
0.0
  3
AI9-BLK21
  1

  0
MTEXT
  5
122
330
11F
100
AcDbEntity
  8
0
 62
     7
100
AcDbMText
 10
-1.587499999999999
 20
1.350149045860947
 30
0.0
 40
2.624834375722067
 41
0.0
 71
     1
 72
     2
  1
\W0.90;\fMS Gothic|b0|i0|c128;±
  7
KANJISTD
 11
1.000000999999999
 21
0.0
 31
0.0
 73
     1
 44
1.0
  0
ENDBLK
  5
123
330
11F
100
AcDbEntity
  8
0
100
AcDbBlockEnd
  0
BLOCK
  5
127
330
125
100
AcDbEntity
  8
0
 62
     7
100
AcDbBlockBegin
  2
AI9-BLK22
 70
     0
 71
     1
 10
0.0
 20
0.0
 30
0.0
  3
AI9-BLK22
  1

  0
INSERT
  5
129
330
125
100
AcDbEntity
  8
0
 62
     7
100
AcDbBlockReference
  2
AI9-BLK23
 10
0.0
 20
0.0
 30
0.0
  0
ENDBLK
  5
12D
330
125
100
AcDbEntity
  8
0
100
AcDbBlockEnd
  0
BLOCK
  5
12A
330
128
100
AcDbEntity
  8
0
 62
     7
100
AcDbBlockBegin
  2
AI9-BLK23
 70
     0
 71
     1
 10
0.0
 20
0.0
 30
0.0
  3
AI9-BLK23
  1

  0
MTEXT
  5
12B
330
128
100
AcDbEntity
  8
0
 62
     7
100
AcDbMText
 10
-2.381249999999999
 20
1.350149045860947
 30
0.0
 40
2.624834375722067
 41
0.0
 71
     1
 72
     2
  1
\W0.90;\fMS Gothic|b0|i0|c128;140
  7
STD
 11
1.000000999999999
 21
0.0
 31
0.0
 73
     1
 44
1.0
  0
ENDBLK
  5
12C
330
128
100
AcDbEntity
  8
0
100
AcDbBlockEnd
  0
BLOCK
  5
131
330
12F
100
AcDbEntity
  8
0
 62
     7
100
AcDbBlockBegin
  2
AI9-BLK24
 70
     0
 71
     1
 10
0.0
 20
0.0
 30
0.0
  3
AI9-BLK24
  1

  0
INSERT
  5
133
330
12F
100
AcDbEntity
  8
0
 62
     7
100
AcDbBlockReference
  2
AI9-BLK25
 10
0.0
 20
0.0
 30
0.0
  0
ENDBLK
  5
137
330
12F
100
AcDbEntity
  8
0
100
AcDbBlockEnd
  0
BLOCK
  5
134
330
132
100
AcDbEntity
  8
0
 62
     7
100
AcDbBlockBegin
  2
AI9-BLK25
 70
     0
 71
     1
 10
0.0
 20
0.0
 30
0.0
  3
AI9-BLK25
  1

  0
MTEXT
  5
135
330
132
100
AcDbEntity
  8
0
 62
     7
100
AcDbMText
 10
-21.16666666666666
 20
1.350148625317075
 30
0.0
 40
2.624833955178184
 41
0.0
 71
     1
 72
     2
  1
\W0.75;\fMS Gothic|b0|i0|c128;ベース・セットピン：スチレニクス
  7
KANJISTD
 11
1.000000999999999
 21
0.0
 31
0.0
 73
     1
 44
1.0
  0
ENDBLK
  5
136
330
132
100
AcDbEntity
  8
0
100
AcDbBlockEnd
  0
BLOCK
  5
13A
330
138
100
AcDbEntity
  8
0
 62
     7
100
AcDbBlockBegin
  2
AI9-BLK26
 70
     0
 71
     1
 10
0.0
 20
0.0
 30
0.0
  3
AI9-BLK26
  1

  0
INSERT
  5
13C
330
138
100
AcDbEntity
  8
0
 62
     7
100
AcDbBlockReference
  2
AI9-BLK27
 10
0.0
 20
0.0
 30
0.0
  0
ENDBLK
  5
140
330
138
100
AcDbEntity
  8
0
100
AcDbBlockEnd
  0
BLOCK
  5
13D
330
13B
100
AcDbEntity
  8
0
 62
     7
100
AcDbBlockBegin
  2
AI9-BLK27
 70
     0
 71
     1
 10
0.0
 20
0.0
 30
0.0
  3
AI9-BLK27
  1

  0
MTEXT
  5
13E
330
13B
100
AcDbEntity
  8
0
 62
     7
100
AcDbMText
 10
-13.22916666666666
 20
1.350148625317075
 30
0.0
 40
2.624833955178184
 41
0.0
 71
     1
 72
     2
  1
\W0.75;\fMS Gothic|b0|i0|c128;ポスト：ポリウレタン
  7
KANJISTD
 11
1.000000999999999
 21
0.0
 31
0.0
 73
     1
 44
1.0
  0
ENDBLK
  5
13F
330
13B
100
AcDbEntity
  8
0
100
AcDbBlockEnd
  0
BLOCK
  5
143
330
141
100
AcDbEntity
  8
0
 62
     7
100
AcDbBlockBegin
  2
AI9-BLK28
 70
     0
 71
     1
 10
0.0
 20
0.0
 30
0.0
  3
AI9-BLK28
  1

  0
INSERT
  5
14E
330
141
100
AcDbEntity
  8
0
 62
     7
100
AcDbBlockReference
  2
AI9-BLK31
 10
-1.984374999999999
 20
0.0
 30
0.0
  0
INSERT
  5
145
330
141
100
AcDbEntity
  8
0
 62
     7
100
AcDbBlockReference
  2
AI9-BLK29
 10
10.58333333333333
 20
0.0
 30
0.0
  0
ENDBLK
  5
156
330
141
100
AcDbEntity
  8
0
100
AcDbBlockEnd
  0
BLOCK
  5
146
330
144
100
AcDbEntity
  8
0
 62
     7
100
AcDbBlockBegin
  2
AI9-BLK29
 70
     0
 71
     1
 10
0.0
 20
0.0
 30
0.0
  3
AI9-BLK29
  1

  0
INSERT
  5
148
330
144
100
AcDbEntity
  8
0
 62
     7
100
AcDbBlockReference
  2
AI9-BLK30
 10
0.0
 20
0.0
 30
0.0
  0
ENDBLK
  5
14C
330
144
100
AcDbEntity
  8
0
100
AcDbBlockEnd
  0
BLOCK
  5
149
330
147
100
AcDbEntity
  8
0
 62
     7
100
AcDbBlockBegin
  2
AI9-BLK30
 70
     0
 71
     1
 10
0.0
 20
0.0
 30
0.0
  3
AI9-BLK30
  1

  0
MTEXT
  5
14A
330
147
100
AcDbEntity
  8
0
 62
     7
100
AcDbMText
 10
-1.984374999999999
 20
1.350148625317065
 30
0.0
 40
2.624833955178184
 41
0.0
 71
     1
 72
     2
  1
\W0.75;\fMS Gothic|b0|i0|c128;-10
  7
STD
 11
1.000000999999999
 21
0.0
 31
0.0
 73
     1
 44
1.0
  0
ENDBLK
  5
14B
330
147
100
AcDbEntity
  8
0
100
AcDbBlockEnd
  0
BLOCK
  5
14F
330
14D
100
AcDbEntity
  8
0
 62
     7
100
AcDbBlockBegin
  2
AI9-BLK31
 70
     0
 71
     1
 10
0.0
 20
0.0
 30
0.0
  3
AI9-BLK31
  1

  0
INSERT
  5
151
330
14D
100
AcDbEntity
  8
0
 62
     7
100
AcDbBlockReference
  2
AI9-BLK32
 10
0.0
 20
0.0
 30
0.0
  0
ENDBLK
  5
155
330
14D
100
AcDbEntity
  8
0
100
AcDbBlockEnd
  0
BLOCK
  5
152
330
150
100
AcDbEntity
  8
0
 62
     7
100
AcDbBlockBegin
  2
AI9-BLK32
 70
     0
 71
     1
 10
0.0
 20
0.0
 30
0.0
  3
AI9-BLK32
  1

  0
MTEXT
  5
153
330
150
100
AcDbEntity
  8
0
 62
     7
100
AcDbMText
 10
-10.58333333333333
 20
1.350148625317065
 30
0.0
 40
2.624833955178184
 41
0.0
 71
     1
 72
     2
  1
\W0.75;\fMS Gothic|b0|i0|c128;アンカーホールΦ
  7
KANJISTD
 11
1.000000999999999
 21
0.0
 31
0.0
 73
     1
 44
1.0
  0
ENDBLK
  5
154
330
150
100
AcDbEntity
  8
0
100
AcDbBlockEnd
  0
BLOCK
  5
15E
330
15C
100
AcDbEntity
  8
0
 62
     7
100
AcDbBlockBegin
  2
AI9-BLK33
 70
     0
 71
     1
 10
0.0
 20
0.0
 30
0.0
  3
AI9-BLK33
  1

  0
INSERT
  5
160
330
15C
100
AcDbEntity
  8
0
 62
     7
100
AcDbBlockReference
  2
AI9-BLK34
 10
0.0
 20
0.0
 30
0.0
  0
ENDBLK
  5
164
330
15C
100
AcDbEntity
  8
0
100
AcDbBlockEnd
  0
BLOCK
  5
161
330
15F
100
AcDbEntity
  8
0
 62
     7
100
AcDbBlockBegin
  2
AI9-BLK34
 70
     0
 71
     1
 10
0.0
 20
0.0
 30
0.0
  3
AI9-BLK34
  1

  0
MTEXT
  5
162
330
15F
100
AcDbEntity
  8
0
 62
     7
100
AcDbMText
 10
-9.260416666666666
 20
1.350148625317065
 30
0.0
 40
2.624833955178184
 41
0.0
 71
     1
 72
     2
  1
\W0.75;\fMS Gothic|b0|i0|c128;アンカーホール
  7
KANJISTD
 11
1.000000999999999
 21
0.0
 31
0.0
 73
     1
 44
1.0
  0
ENDBLK
  5
163
330
15F
100
AcDbEntity
  8
0
100
AcDbBlockEnd
  0
BLOCK
  5
167
330
165
100
AcDbEntity
  8
0
 62
     7
100
AcDbBlockBegin
  2
AI9-BLK35
 70
     0
 71
     1
 10
0.0
 20
0.0
 30
0.0
  3
AI9-BLK35
  1

  0
INSERT
  5
169
330
165
100
AcDbEntity
  8
0
 62
     7
100
AcDbBlockReference
  2
AI9-BLK36
 10
0.0
 20
0.0
 30
0.0
  0
ENDBLK
  5
16D
330
165
100
AcDbEntity
  8
0
100
AcDbBlockEnd
  0
BLOCK
  5
16A
330
168
100
AcDbEntity
  8
0
 62
     7
100
AcDbBlockBegin
  2
AI9-BLK36
 70
     0
 71
     1
 10
0.0
 20
0.0
 30
0.0
  3
AI9-BLK36
  1

  0
MTEXT
  5
16B
330
168
100
AcDbEntity
  8
0
 62
     7
100
AcDbMText
 10
-10.58333333333333
 20
1.350148625317065
 30
0.0
 40
2.624833955178184
 41
0.0
 71
     1
 72
     2
  1
\W0.75;\fMS Gothic|b0|i0|c128;セットピンホール
  7
KANJISTD
 11
1.000000999999999
 21
0.0
 31
0.0
 73
     1
 44
1.0
  0
ENDBLK
  5
16C
330
168
100
AcDbEntity
  8
0
100
AcDbBlockEnd
  0
BLOCK
  5
175
330
173
100
AcDbEntity
  8
0
 62
     7
100
AcDbBlockBegin
  2
AI9-BLK37
 70
     0
 71
     1
 10
0.0
 20
0.0
 30
0.0
  3
AI9-BLK37
  1

  0
INSERT
  5
189
330
173
100
AcDbEntity
  8
0
 62
     7
100
AcDbBlockReference
  2
AI9-BLK42
 10
-3.307291666666666
 20
0.0
 30
0.0
  0
INSERT
  5
180
330
173
100
AcDbEntity
  8
0
 62
     7
100
AcDbBlockReference
  2
AI9-BLK40
 10
9.260416666666666
 20
0.0
 30
0.0
  0
INSERT
  5
177
330
173
100
AcDbEntity
  8
0
 62
     7
100
AcDbBlockReference
  2
AI9-BLK38
 10
12.56770833333333
 20
0.0
 30
0.0
  0
ENDBLK
  5
191
330
173
100
AcDbEntity
  8
0
100
AcDbBlockEnd
  0
BLOCK
  5
178
330
176
100
AcDbEntity
  8
0
 62
     7
100
AcDbBlockBegin
  2
AI9-BLK38
 70
     0
 71
     1
 10
0.0
 20
0.0
 30
0.0
  3
AI9-BLK38
  1

  0
INSERT
  5
17A
330
176
100
AcDbEntity
  8
0
 62
     7
100
AcDbBlockReference
  2
AI9-BLK39
 10
0.0
 20
0.0
 30
0.0
  0
ENDBLK
  5
17E
330
176
100
AcDbEntity
  8
0
100
AcDbBlockEnd
  0
BLOCK
  5
17B
330
179
100
AcDbEntity
  8
0
 62
     7
100
AcDbBlockBegin
  2
AI9-BLK39
 70
     0
 71
     1
 10
0.0
 20
0.0
 30
0.0
  3
AI9-BLK39
  1

  0
MTEXT
  5
17C
330
179
100
AcDbEntity
  8
0
 62
     7
100
AcDbMText
 10
-2.645833333333333
 20
1.350148625317065
 30
0.0
 40
2.624833955178184
 41
0.0
 71
     1
 72
     2
  1
\W0.75;\fMS Gothic|b0|i0|c128;本）
  7
KANJISTD
 11
1.000000999999999
 21
0.0
 31
0.0
 73
     1
 44
1.0
  0
ENDBLK
  5
17D
330
179
100
AcDbEntity
  8
0
100
AcDbBlockEnd
  0
BLOCK
  5
181
330
17F
100
AcDbEntity
  8
0
 62
     7
100
AcDbBlockBegin
  2
AI9-BLK40
 70
     0
 71
     1
 10
0.0
 20
0.0
 30
0.0
  3
AI9-BLK40
  1

  0
INSERT
  5
183
330
17F
100
AcDbEntity
  8
0
 62
     7
100
AcDbBlockReference
  2
AI9-BLK41
 10
0.0
 20
0.0
 30
0.0
  0
ENDBLK
  5
187
330
17F
100
AcDbEntity
  8
0
100
AcDbBlockEnd
  0
BLOCK
  5
184
330
182
100
AcDbEntity
  8
0
 62
     7
100
AcDbBlockBegin
  2
AI9-BLK41
 70
     0
 71
     1
 10
0.0
 20
0.0
 30
0.0
  3
AI9-BLK41
  1

  0
MTEXT
  5
185
330
182
100
AcDbEntity
  8
0
 62
     7
100
AcDbMText
 10
-0.6614583333333333
 20
1.350148625317065
 30
0.0
 40
2.624833955178184
 41
0.0
 71
     1
 72
     2
  1
\W0.75;\fMS Gothic|b0|i0|c128;2
  7
STD
 11
1.000000999999999
 21
0.0
 31
0.0
 73
     1
 44
1.0
  0
ENDBLK
  5
186
330
182
100
AcDbEntity
  8
0
100
AcDbBlockEnd
  0
BLOCK
  5
18A
330
188
100
AcDbEntity
  8
0
 62
     7
100
AcDbBlockBegin
  2
AI9-BLK42
 70
     0
 71
     1
 10
0.0
 20
0.0
 30
0.0
  3
AI9-BLK42
  1

  0
INSERT
  5
18C
330
188
100
AcDbEntity
  8
0
 62
     7
100
AcDbBlockReference
  2
AI9-BLK43
 10
0.0
 20
0.0
 30
0.0
  0
ENDBLK
  5
190
330
188
100
AcDbEntity
  8
0
100
AcDbBlockEnd
  0
BLOCK
  5
18D
330
18B
100
AcDbEntity
  8
0
 62
     7
100
AcDbBlockBegin
  2
AI9-BLK43
 70
     0
 71
     1
 10
0.0
 20
0.0
 30
0.0
  3
AI9-BLK43
  1

  0
MTEXT
  5
18E
330
18B
100
AcDbEntity
  8
0
 62
     7
100
AcDbMText
 10
-11.90624999999999
 20
1.350148625317065
 30
0.0
 40
2.624833955178184
 41
0.0
 71
     1
 72
     2
  1
\W0.75;\fMS Gothic|b0|i0|c128;セットピンホール（
  7
KANJISTD
 11
1.000000999999999
 21
0.0
 31
0.0
 73
     1
 44
1.0
  0
ENDBLK
  5
18F
330
18B
100
AcDbEntity
  8
0
100
AcDbBlockEnd
  0
BLOCK
  5
194
330
192
100
AcDbEntity
  8
0
 62
     7
100
AcDbBlockBegin
  2
AI9-BLK44
 70
     0
 71
     1
 10
0.0
 20
0.0
 30
0.0
  3
AI9-BLK44
  1

  0
INSERT
  5
19F
330
192
100
AcDbEntity
  8
0
 62
     7
100
AcDbBlockReference
  2
AI9-BLK47
 10
-3.968749999999999
 20
0.0
 30
0.0
  0
INSERT
  5
196
330
192
100
AcDbEntity
  8
0
 62
     7
100
AcDbBlockReference
  2
AI9-BLK45
 10
3.968749999999999
 20
0.0
 30
0.0
  0
ENDBLK
  5
1A7
330
192
100
AcDbEntity
  8
0
100
AcDbBlockEnd
  0
BLOCK
  5
197
330
195
100
AcDbEntity
  8
0
 62
     7
100
AcDbBlockBegin
  2
AI9-BLK45
 70
     0
 71
     1
 10
0.0
 20
0.0
 30
0.0
  3
AI9-BLK45
  1

  0
INSERT
  5
199
330
195
100
AcDbEntity
  8
0
 62
     7
100
AcDbBlockReference
  2
AI9-BLK46
 10
0.0
 20
0.0
 30
0.0
  0
ENDBLK
  5
19D
330
195
100
AcDbEntity
  8
0
100
AcDbBlockEnd
  0
BLOCK
  5
19A
330
198
100
AcDbEntity
  8
0
 62
     7
100
AcDbBlockBegin
  2
AI9-BLK46
 70
     0
 71
     1
 10
0.0
 20
0.0
 30
0.0
  3
AI9-BLK46
  1

  0
MTEXT
  5
19B
330
198
100
AcDbEntity
  8
0
 62
     7
100
AcDbMText
 10
-3.968749999999999
 20
1.350148625317085
 30
0.0
 40
2.624833955178184
 41
0.0
 71
     1
 72
     2
  1
\W0.75;\fMS Gothic|b0|i0|c128;PF-400
  7
STD
 11
1.000000999999999
 21
0.0
 31
0.0
 73
     1
 44
1.0
  0
ENDBLK
  5
19C
330
198
100
AcDbEntity
  8
0
100
AcDbBlockEnd
  0
BLOCK
  5
1A0
330
19E
100
AcDbEntity
  8
0
 62
     7
100
AcDbBlockBegin
  2
AI9-BLK47
 70
     0
 71
     1
 10
0.0
 20
0.0
 30
0.0
  3
AI9-BLK47
  1

  0
INSERT
  5
1A2
330
19E
100
AcDbEntity
  8
0
 62
     7
100
AcDbBlockReference
  2
AI9-BLK48
 10
0.0
 20
0.0
 30
0.0
  0
ENDBLK
  5
1A6
330
19E
100
AcDbEntity
  8
0
100
AcDbBlockEnd
  0
BLOCK
  5
1A3
330
1A1
100
AcDbEntity
  8
0
 62
     7
100
AcDbBlockBegin
  2
AI9-BLK48
 70
     0
 71
     1
 10
0.0
 20
0.0
 30
0.0
  3
AI9-BLK48
  1

  0
MTEXT
  5
1A4
330
1A1
100
AcDbEntity
  8
0
 62
     7
100
AcDbMText
 10
-3.968749999999999
 20
1.350148625317085
 30
0.0
 40
2.624833955178184
 41
0.0
 71
     1
 72
     2
  1
\W0.75;\fMS Gothic|b0|i0|c128;本体　
  7
KANJISTD
 11
1.000000999999999
 21
0.0
 31
0.0
 73
     1
 44
1.0
  0
ENDBLK
  5
1A5
330
1A1
100
AcDbEntity
  8
0
100
AcDbBlockEnd
  0
BLOCK
  5
1BE
330
1BC
100
AcDbEntity
  8
0
 62
     7
100
AcDbBlockBegin
  2
AI9-BLK49
 70
     0
 71
     1
 10
0.0
 20
0.0
 30
0.0
  3
AI9-BLK49
  1

  0
INSERT
  5
1C0
330
1BC
100
AcDbEntity
  8
0
 62
     7
100
AcDbBlockReference
  2
AI9-BLK50
 10
0.0
 20
0.0
 30
0.0
  0
ENDBLK
  5
1C4
330
1BC
100
AcDbEntity
  8
0
100
AcDbBlockEnd
  0
BLOCK
  5
1C1
330
1BF
100
AcDbEntity
  8
0
 62
     7
100
AcDbBlockBegin
  2
AI9-BLK50
 70
     0
 71
     1
 10
0.0
 20
0.0
 30
0.0
  3
AI9-BLK50
  1

  0
MTEXT
  5
1C2
330
1BF
100
AcDbEntity
  8
0
 62
     7
100
AcDbMText
 10
-14.55216946072048
 20
1.350148625317085
 30
0.0
 40
2.624833955178184
 41
0.0
 71
     1
 72
     2
  1
\W0.75;\fMS Gothic|b0|i0|c128;高輝度反射シート（白）
  7
KANJISTD
 11
1.000000999999999
 21
0.0
 31
0.0
 73
     1
 44
1.0
  0
ENDBLK
  5
1C3
330
1BF
100
AcDbEntity
  8
0
100
AcDbBlockEnd
  0
BLOCK
  5
1C7
330
1C5
100
AcDbEntity
  8
0
 62
     7
100
AcDbBlockBegin
  2
AI9-BLK51
 70
     0
 71
     1
 10
0.0
 20
0.0
 30
0.0
  3
AI9-BLK51
  1

  0
INSERT
  5
1C9
330
1C5
100
AcDbEntity
  8
0
 62
     7
100
AcDbBlockReference
  2
AI9-BLK52
 10
0.0
 20
0.0
 30
0.0
  0
ENDBLK
  5
1CD
330
1C5
100
AcDbEntity
  8
0
100
AcDbBlockEnd
  0
BLOCK
  5
1CA
330
1C8
100
AcDbEntity
  8
0
 62
     7
100
AcDbBlockBegin
  2
AI9-BLK52
 70
     0
 71
     1
 10
0.0
 20
0.0
 30
0.0
  3
AI9-BLK52
  1

  0
MTEXT
  5
1CB
330
1C8
100
AcDbEntity
  8
0
 62
     7
100
AcDbMText
 10
-1.350149045860947
 20
-0.79375
 30
0.0
 40
2.624834375722067
 41
0.0
 71
     1
 72
     2
  1
\W0.90;\fMS Gothic|b0|i0|c128;6
  7
STD
 11
0.0
 21
1.0
 31
0.0
 73
     1
 44
1.0
  0
ENDBLK
  5
1CC
330
1C8
100
AcDbEntity
  8
0
100
AcDbBlockEnd
  0
BLOCK
  5
1D0
330
1CE
100
AcDbEntity
  8
0
 62
     7
100
AcDbBlockBegin
  2
AI9-BLK53
 70
     0
 71
     1
 10
0.0
 20
0.0
 30
0.0
  3
AI9-BLK53
  1

  0
INSERT
  5
1D2
330
1CE
100
AcDbEntity
  8
0
 62
     7
100
AcDbBlockReference
  2
AI9-BLK54
 10
0.0
 20
0.0
 30
0.0
  0
ENDBLK
  5
1D6
330
1CE
100
AcDbEntity
  8
0
100
AcDbBlockEnd
  0
BLOCK
  5
1D3
330
1D1
100
AcDbEntity
  8
0
 62
     7
100
AcDbBlockBegin
  2
AI9-BLK54
 70
     0
 71
     1
 10
0.0
 20
0.0
 30
0.0
  3
AI9-BLK54
  1

  0
MTEXT
  5
1D4
330
1D1
100
AcDbEntity
  8
0
 62
     7
100
AcDbMText
 10
-1.587499999999999
 20
1.350149045860967
 30
0.0
 40
2.624834375722067
 41
0.0
 71
     1
 72
     2
  1
\W0.90;\fMS Gothic|b0|i0|c128;85
  7
STD
 11
1.000000999999999
 21
0.0
 31
0.0
 73
     1
 44
1.0
  0
ENDBLK
  5
1D5
330
1D1
100
AcDbEntity
  8
0
100
AcDbBlockEnd
  0
BLOCK
  5
1D9
330
1D7
100
AcDbEntity
  8
0
 62
     7
100
AcDbBlockBegin
  2
AI9-BLK55
 70
     0
 71
     1
 10
0.0
 20
0.0
 30
0.0
  3
AI9-BLK55
  1

  0
INSERT
  5
1E4
330
1D7
100
AcDbEntity
  8
0
 62
     7
100
AcDbBlockReference
  2
AI9-BLK58
 10
-0.3491604275173611
 20
0.0
 30
0.0
  0
INSERT
  5
1DB
330
1D7
100
AcDbEntity
  8
0
 62
     7
100
AcDbBlockReference
  2
AI9-BLK56
 10
1.14291042751736
 20
0.0
 30
0.0
  0
ENDBLK
  5
1EC
330
1D7
100
AcDbEntity
  8
0
100
AcDbBlockEnd
  0
BLOCK
  5
1DC
330
1DA
100
AcDbEntity
  8
0
 62
     7
100
AcDbBlockBegin
  2
AI9-BLK56
 70
     0
 71
     1
 10
0.0
 20
0.0
 30
0.0
  3
AI9-BLK56
  1

  0
INSERT
  5
1DE
330
1DA
100
AcDbEntity
  8
0
 62
     7
100
AcDbBlockReference
  2
AI9-BLK57
 10
0.0
 20
0.0
 30
0.0
  0
ENDBLK
  5
1E2
330
1DA
100
AcDbEntity
  8
0
100
AcDbBlockEnd
  0
BLOCK
  5
1DF
330
1DD
100
AcDbEntity
  8
0
 62
     7
100
AcDbBlockBegin
  2
AI9-BLK57
 70
     0
 71
     1
 10
0.0
 20
0.0
 30
0.0
  3
AI9-BLK57
  1

  0
MTEXT
  5
1E0
330
1DD
100
AcDbEntity
  8
0
 62
     7
100
AcDbMText
 10
-0.79375
 20
1.350149045860967
 30
0.0
 40
2.624834375722067
 41
0.0
 71
     1
 72
     2
  1
\W0.90;\fMS Gothic|b0|i0|c128;5
  7
STD
 11
1.000000999999999
 21
0.0
 31
0.0
 73
     1
 44
1.0
  0
ENDBLK
  5
1E1
330
1DD
100
AcDbEntity
  8
0
100
AcDbBlockEnd
  0
BLOCK
  5
1E5
330
1E3
100
AcDbEntity
  8
0
 62
     7
100
AcDbBlockBegin
  2
AI9-BLK58
 70
     0
 71
     1
 10
0.0
 20
0.0
 30
0.0
  3
AI9-BLK58
  1

  0
INSERT
  5
1E7
330
1E3
100
AcDbEntity
  8
0
 62
     7
100
AcDbBlockReference
  2
AI9-BLK59
 10
0.0
 20
0.0
 30
0.0
  0
ENDBLK
  5
1EB
330
1E3
100
AcDbEntity
  8
0
100
AcDbBlockEnd
  0
BLOCK
  5
1E8
330
1E6
100
AcDbEntity
  8
0
 62
     7
100
AcDbBlockBegin
  2
AI9-BLK59
 70
     0
 71
     1
 10
0.0
 20
0.0
 30
0.0
  3
AI9-BLK59
  1

  0
MTEXT
  5
1E9
330
1E6
100
AcDbEntity
  8
0
 62
     7
100
AcDbMText
 10
-1.587499999999999
 20
1.350149045860967
 30
0.0
 40
2.624834375722067
 41
0.0
 71
     1
 72
     2
  1
\W0.90;\fMS Gothic|b0|i0|c128;3.
  7
STD
 11
1.000000999999999
 21
0.0
 31
0.0
 73
     1
 44
1.0
  0
ENDBLK
  5
1EA
330
1E6
100
AcDbEntity
  8
0
100
AcDbBlockEnd
  0
BLOCK
  5
1F4
330
1F2
100
AcDbEntity
  8
0
 62
     7
100
AcDbBlockBegin
  2
AI9-BLK60
 70
     0
 71
     1
 10
0.0
 20
0.0
 30
0.0
  3
AI9-BLK60
  1

  0
INSERT
  5
1F6
330
1F2
100
AcDbEntity
  8
0
 62
     7
100
AcDbBlockReference
  2
AI9-BLK61
 10
0.0
 20
0.0
 30
0.0
  0
ENDBLK
  5
1FA
330
1F2
100
AcDbEntity
  8
0
100
AcDbBlockEnd
  0
BLOCK
  5
1F7
330
1F5
100
AcDbEntity
  8
0
 62
     7
100
AcDbBlockBegin
  2
AI9-BLK61
 70
     0
 71
     1
 10
0.0
 20
0.0
 30
0.0
  3
AI9-BLK61
  1

  0
MTEXT
  5
1F8
330
1F5
100
AcDbEntity
  8
0
 62
     7
100
AcDbMText
 10
-1.350149045860957
 20
-1.587499999999999
 30
0.0
 40
2.624834375722067
 41
0.0
 71
     1
 72
     2
  1
\W0.90;\fMS Gothic|b0|i0|c128;50
  7
STD
 11
0.0
 21
1.0
 31
0.0
 73
     1
 44
1.0
  0
ENDBLK
  5
1F9
330
1F5
100
AcDbEntity
  8
0
100
AcDbBlockEnd
  0
BLOCK
  5
1FD
330
1FB
100
AcDbEntity
  8
0
 62
     7
100
AcDbBlockBegin
  2
AI9-BLK62
 70
     0
 71
     1
 10
0.0
 20
0.0
 30
0.0
  3
AI9-BLK62
  1

  0
INSERT
  5
1FF
330
1FB
100
AcDbEntity
  8
0
 62
     7
100
AcDbBlockReference
  2
AI9-BLK63
 10
0.0
 20
0.0
 30
0.0
  0
ENDBLK
  5
203
330
1FB
100
AcDbEntity
  8
0
100
AcDbBlockEnd
  0
BLOCK
  5
200
330
1FE
100
AcDbEntity
  8
0
 62
     7
100
AcDbBlockBegin
  2
AI9-BLK63
 70
     0
 71
     1
 10
0.0
 20
0.0
 30
0.0
  3
AI9-BLK63
  1

  0
MTEXT
  5
201
330
1FE
100
AcDbEntity
  8
0
 62
     7
100
AcDbMText
 10
-1.350149045860957
 20
-1.587499999999999
 30
0.0
 40
2.624834375722067
 41
0.0
 71
     1
 72
     2
  1
\W0.90;\fMS Gothic|b0|i0|c128;50
  7
STD
 11
0.0
 21
1.0
 31
0.0
 73
     1
 44
1.0
  0
ENDBLK
  5
202
330
1FE
100
AcDbEntity
  8
0
100
AcDbBlockEnd
  0
BLOCK
  5
206
330
204
100
AcDbEntity
  8
0
 62
     7
100
AcDbBlockBegin
  2
AI9-BLK64
 70
     0
 71
     1
 10
0.0
 20
0.0
 30
0.0
  3
AI9-BLK64
  1

  0
INSERT
  5
208
330
204
100
AcDbEntity
  8
0
 62
     7
100
AcDbBlockReference
  2
AI9-BLK65
 10
0.0
 20
0.0
 30
0.0
  0
ENDBLK
  5
20C
330
204
100
AcDbEntity
  8
0
100
AcDbBlockEnd
  0
BLOCK
  5
209
330
207
100
AcDbEntity
  8
0
 62
     7
100
AcDbBlockBegin
  2
AI9-BLK65
 70
     0
 71
     1
 10
0.0
 20
0.0
 30
0.0
  3
AI9-BLK65
  1

  0
MTEXT
  5
20A
330
207
100
AcDbEntity
  8
0
 62
     7
100
AcDbMText
 10
-1.350149045860957
 20
-1.587499999999999
 30
0.0
 40
2.624834375722067
 41
0.0
 71
     1
 72
     2
  1
\W0.90;\fMS Gothic|b0|i0|c128;50
  7
STD
 11
0.0
 21
1.0
 31
0.0
 73
     1
 44
1.0
  0
ENDBLK
  5
20B
330
207
100
AcDbEntity
  8
0
100
AcDbBlockEnd
  0
BLOCK
  5
20F
330
20D
100
AcDbEntity
  8
0
 62
     7
100
AcDbBlockBegin
  2
AI9-BLK66
 70
     0
 71
     1
 10
0.0
 20
0.0
 30
0.0
  3
AI9-BLK66
  1

  0
INSERT
  5
211
330
20D
100
AcDbEntity
  8
0
 62
     7
100
AcDbBlockReference
  2
AI9-BLK67
 10
0.0
 20
0.0
 30
0.0
  0
ENDBLK
  5
215
330
20D
100
AcDbEntity
  8
0
100
AcDbBlockEnd
  0
BLOCK
  5
212
330
210
100
AcDbEntity
  8
0
 62
     7
100
AcDbBlockBegin
  2
AI9-BLK67
 70
     0
 71
     1
 10
0.0
 20
0.0
 30
0.0
  3
AI9-BLK67
  1

  0
MTEXT
  5
213
330
210
100
AcDbEntity
  8
0
 62
     7
100
AcDbMText
 10
-1.350149045860957
 20
-1.587499999999999
 30
0.0
 40
2.624834375722067
 41
0.0
 71
     1
 72
     2
  1
\W0.90;\fMS Gothic|b0|i0|c128;50
  7
STD
 11
0.0
 21
1.0
 31
0.0
 73
     1
 44
1.0
  0
ENDBLK
  5
214
330
210
100
AcDbEntity
  8
0
100
AcDbBlockEnd
  0
BLOCK
  5
218
330
216
100
AcDbEntity
  8
0
 62
     7
100
AcDbBlockBegin
  2
AI9-BLK68
 70
     0
 71
     1
 10
0.0
 20
0.0
 30
0.0
  3
AI9-BLK68
  1

  0
INSERT
  5
22C
330
216
100
AcDbEntity
  8
0
 62
     7
100
AcDbBlockReference
  2
AI9-BLK73
 10
0.0
 20
-2.381249999999999
 30
0.0
  0
INSERT
  5
223
330
216
100
AcDbEntity
  8
0
 62
     7
100
AcDbBlockReference
  2
AI9-BLK71
 10
0.0
 20
0.79375
 30
0.0
  0
INSERT
  5
21A
330
216
100
AcDbEntity
  8
0
 62
     7
100
AcDbBlockReference
  2
AI9-BLK69
 10
0.0
 20
3.174999999999999
 30
0.0
  0
ENDBLK
  5
234
330
216
100
AcDbEntity
  8
0
100
AcDbBlockEnd
  0
BLOCK
  5
21B
330
219
100
AcDbEntity
  8
0
 62
     7
100
AcDbBlockBegin
  2
AI9-BLK69
 70
     0
 71
     1
 10
0.0
 20
0.0
 30
0.0
  3
AI9-BLK69
  1

  0
INSERT
  5
21D
330
219
100
AcDbEntity
  8
0
 62
     7
100
AcDbBlockReference
  2
AI9-BLK70
 10
0.0
 20
0.0
 30
0.0
  0
ENDBLK
  5
221
330
219
100
AcDbEntity
  8
0
100
AcDbBlockEnd
  0
BLOCK
  5
21E
330
21C
100
AcDbEntity
  8
0
 62
     7
100
AcDbBlockBegin
  2
AI9-BLK70
 70
     0
 71
     1
 10
0.0
 20
0.0
 30
0.0
  3
AI9-BLK70
  1

  0
MTEXT
  5
21F
330
21C
100
AcDbEntity
  8
0
 62
     7
100
AcDbMText
 10
-1.350149045860957
 20
-0.79375
 30
0.0
 40
2.624834375722067
 41
0.0
 71
     1
 72
     2
  1
\W0.90;\fMS Gothic|b0|i0|c128;2
  7
STD
 11
0.0
 21
1.0
 31
0.0
 73
     1
 44
1.0
  0
ENDBLK
  5
220
330
21C
100
AcDbEntity
  8
0
100
AcDbBlockEnd
  0
BLOCK
  5
224
330
222
100
AcDbEntity
  8
0
 62
     7
100
AcDbBlockBegin
  2
AI9-BLK71
 70
     0
 71
     1
 10
0.0
 20
0.0
 30
0.0
  3
AI9-BLK71
  1

  0
INSERT
  5
226
330
222
100
AcDbEntity
  8
0
 62
     7
100
AcDbBlockReference
  2
AI9-BLK72
 10
0.0
 20
0.0
 30
0.0
  0
ENDBLK
  5
22A
330
222
100
AcDbEntity
  8
0
100
AcDbBlockEnd
  0
BLOCK
  5
227
330
225
100
AcDbEntity
  8
0
 62
     7
100
AcDbBlockBegin
  2
AI9-BLK72
 70
     0
 71
     1
 10
0.0
 20
0.0
 30
0.0
  3
AI9-BLK72
  1

  0
MTEXT
  5
228
330
225
100
AcDbEntity
  8
0
 62
     7
100
AcDbMText
 10
-1.350149045860957
 20
-1.587499999999999
 30
0.0
 40
2.624834375722067
 41
0.0
 71
     1
 72
     2
  1
\W0.90;\fMS Gothic|b0|i0|c128;±
  7
KANJISTD
 11
0.0
 21
1.0
 31
0.0
 73
     1
 44
1.0
  0
ENDBLK
  5
229
330
225
100
AcDbEntity
  8
0
100
AcDbBlockEnd
  0
BLOCK
  5
22D
330
22B
100
AcDbEntity
  8
0
 62
     7
100
AcDbBlockBegin
  2
AI9-BLK73
 70
     0
 71
     1
 10
0.0
 20
0.0
 30
0.0
  3
AI9-BLK73
  1

  0
INSERT
  5
22F
330
22B
100
AcDbEntity
  8
0
 62
     7
100
AcDbBlockReference
  2
AI9-BLK74
 10
0.0
 20
0.0
 30
0.0
  0
ENDBLK
  5
233
330
22B
100
AcDbEntity
  8
0
100
AcDbBlockEnd
  0
BLOCK
  5
230
330
22E
100
AcDbEntity
  8
0
 62
     7
100
AcDbBlockBegin
  2
AI9-BLK74
 70
     0
 71
     1
 10
0.0
 20
0.0
 30
0.0
  3
AI9-BLK74
  1

  0
MTEXT
  5
231
330
22E
100
AcDbEntity
  8
0
 62
     7
100
AcDbMText
 10
-1.350149045860957
 20
-1.587499999999999
 30
0.0
 40
2.624834375722067
 41
0.0
 71
     1
 72
     2
  1
\W0.90;\fMS Gothic|b0|i0|c128;50
  7
STD
 11
0.0
 21
1.0
 31
0.0
 73
     1
 44
1.0
  0
ENDBLK
  5
232
330
22E
100
AcDbEntity
  8
0
100
AcDbBlockEnd
  0
BLOCK
  5
237
330
235
100
AcDbEntity
  8
0
 62
     7
100
AcDbBlockBegin
  2
AI9-BLK75
 70
     0
 71
     1
 10
0.0
 20
0.0
 30
0.0
  3
AI9-BLK75
  1

  0
LINE
  5
23C
330
235
100
AcDbEntity
  8
0
 62
     7
100
AcDbLine
 10
10.25432671440972
 20
0.989431423611111
 30
0.0
 11
-9.523277452256943
 21
0.989431423611111
 31
0.0
  0
LINE
  5
23B
330
235
100
AcDbEntity
  8
0
 62
     7
100
AcDbLine
 10
10.25432671440972
 20
-0.989431423611111
 30
0.0
 11
-9.640927463107637
 21
-0.989431423611111
 31
0.0
  0
LINE
  5
23A
330
235
100
AcDbEntity
  8
0
 62
     7
100
AcDbLine
 10
-10.25415445963541
 20
0.4919596354166666
 30
0.0
 11
-10.25415445963541
 21
-0.5057400173611111
 31
0.0
  0
SPLINE
  5
239
330
235
100
AcDbEntity
  8
0
 62
     7
100
AcDbSpline
210
0.0
220
0.0
230
1.0
 70
     8
 71
     3
 72
     8
 73
     4
 74
     0
 42
0.0000000001
 43
0.0000000001
 40
0.0
 40
0.0
 40
0.0
 40
0.0
 40
1.0
 40
1.0
 40
1.0
 40
1.0
 10
-10.25415445963541
 20
-0.5057400173611111
 30
0.0
 10
-10.17732883029513
 20
-0.7641221788194443
 30
0.0
 10
-9.935655381944442
 20
-0.9549804687499998
 30
0.0
 10
-9.640927463107637
 20
-0.989431423611111
 30
0.0
  0
SPLINE
  5
238
330
235
100
AcDbEntity
  8
0
 62
     7
100
AcDbSpline
210
0.0
220
0.0
230
1.0
 70
     8
 71
     3
 72
     8
 73
     4
 74
     0
 42
0.0000000001
 43
0.0000000001
 40
0.0
 40
0.0
 40
0.0
 40
0.0
 40
1.0
 40
1.0
 40
1.0
 40
1.0
 10
-9.523277452256943
 20
0.989431423611111
 30
0.0
 10
-9.865375434027777
 20
0.9928765190972221
 30
0.0
 10
-10.16630452473958
 20
0.7861707899305555
 30
0.0
 10
-10.25415445963541
 20
0.4874810112847222
 30
0.0
  0
ENDBLK
  5
23D
330
235
100
AcDbEntity
  8
0
100
AcDbBlockEnd
  0
BLOCK
  5
24B
330
249
100
AcDbEntity
  8
0
 62
     7
100
AcDbBlockBegin
  2
AI9-BLK76
 70
     0
 71
     1
 10
0.0
 20
0.0
 30
0.0
  3
AI9-BLK76
  1

  0
INSERT
  5
25F
330
249
100
AcDbEntity
  8
0
  6
AI9-LType1
 62
     7
100
AcDbBlockReference
  2
AI9-BLK81
 10
-2.381249999999999
 20
0.0
 30
0.0
  0
INSERT
  5
256
330
249
100
AcDbEntity
  8
0
  6
AI9-LType1
 62
     7
100
AcDbBlockReference
  2
AI9-BLK79
 10
0.79375
 20
0.0
 30
0.0
  0
INSERT
  5
24D
330
249
100
AcDbEntity
  8
0
  6
AI9-LType1
 62
     7
100
AcDbBlockReference
  2
AI9-BLK77
 10
3.174999999999999
 20
0.0
 30
0.0
  0
ENDBLK
  5
267
330
249
100
AcDbEntity
  8
0
100
AcDbBlockEnd
  0
BLOCK
  5
24E
330
24C
100
AcDbEntity
  8
0
 62
     7
100
AcDbBlockBegin
  2
AI9-BLK77
 70
     0
 71
     1
 10
0.0
 20
0.0
 30
0.0
  3
AI9-BLK77
  1

  0
INSERT
  5
250
330
24C
100
AcDbEntity
  8
0
  6
AI9-LType1
 62
     7
100
AcDbBlockReference
  2
AI9-BLK78
 10
0.0
 20
0.0
 30
0.0
  0
ENDBLK
  5
254
330
24C
100
AcDbEntity
  8
0
100
AcDbBlockEnd
  0
BLOCK
  5
251
330
24F
100
AcDbEntity
  8
0
 62
     7
100
AcDbBlockBegin
  2
AI9-BLK78
 70
     0
 71
     1
 10
0.0
 20
0.0
 30
0.0
  3
AI9-BLK78
  1

  0
MTEXT
  5
252
330
24F
100
AcDbEntity
  8
0
  6
AI9-LType1
 62
     7
100
AcDbMText
 10
-0.79375
 20
1.350149045860967
 30
0.0
 40
2.624834375722067
 41
0.0
 71
     1
 72
     2
  1
\W0.90;\fMS Gothic|b0|i0|c128;2
  7
STD
 11
1.000000999999999
 21
0.0
 31
0.0
 73
     1
 44
1.0
  0
ENDBLK
  5
253
330
24F
100
AcDbEntity
  8
0
100
AcDbBlockEnd
  0
BLOCK
  5
257
330
255
100
AcDbEntity
  8
0
 62
     7
100
AcDbBlockBegin
  2
AI9-BLK79
 70
     0
 71
     1
 10
0.0
 20
0.0
 30
0.0
  3
AI9-BLK79
  1

  0
INSERT
  5
259
330
255
100
AcDbEntity
  8
0
  6
AI9-LType1
 62
     7
100
AcDbBlockReference
  2
AI9-BLK80
 10
0.0
 20
0.0
 30
0.0
  0
ENDBLK
  5
25D
330
255
100
AcDbEntity
  8
0
100
AcDbBlockEnd
  0
BLOCK
  5
25A
330
258
100
AcDbEntity
  8
0
 62
     7
100
AcDbBlockBegin
  2
AI9-BLK80
 70
     0
 71
     1
 10
0.0
 20
0.0
 30
0.0
  3
AI9-BLK80
  1

  0
MTEXT
  5
25B
330
258
100
AcDbEntity
  8
0
  6
AI9-LType1
 62
     7
100
AcDbMText
 10
-1.587499999999999
 20
1.350149045860967
 30
0.0
 40
2.624834375722067
 41
0.0
 71
     1
 72
     2
  1
\W0.90;\fMS Gothic|b0|i0|c128;±
  7
KANJISTD
 11
1.000000999999999
 21
0.0
 31
0.0
 73
     1
 44
1.0
  0
ENDBLK
  5
25C
330
258
100
AcDbEntity
  8
0
100
AcDbBlockEnd
  0
BLOCK
  5
260
330
25E
100
AcDbEntity
  8
0
 62
     7
100
AcDbBlockBegin
  2
AI9-BLK81
 70
     0
 71
     1
 10
0.0
 20
0.0
 30
0.0
  3
AI9-BLK81
  1

  0
INSERT
  5
262
330
25E
100
AcDbEntity
  8
0
  6
AI9-LType1
 62
     7
100
AcDbBlockReference
  2
AI9-BLK82
 10
0.0
 20
0.0
 30
0.0
  0
ENDBLK
  5
266
330
25E
100
AcDbEntity
  8
0
100
AcDbBlockEnd
  0
BLOCK
  5
263
330
261
100
AcDbEntity
  8
0
 62
     7
100
AcDbBlockBegin
  2
AI9-BLK82
 70
     0
 71
     1
 10
0.0
 20
0.0
 30
0.0
  3
AI9-BLK82
  1

  0
MTEXT
  5
264
330
261
100
AcDbEntity
  8
0
  6
AI9-LType1
 62
     7
100
AcDbMText
 10
-1.587499999999999
 20
1.350149045860967
 30
0.0
 40
2.624834375722067
 41
0.0
 71
     1
 72
     2
  1
\W0.90;\fMS Gothic|b0|i0|c128;76
  7
STD
 11
1.000000999999999
 21
0.0
 31
0.0
 73
     1
 44
1.0
  0
ENDBLK
  5
265
330
261
100
AcDbEntity
  8
0
100
AcDbBlockEnd
  0
BLOCK
  5
26F
330
26D
100
AcDbEntity
  8
0
 62
     7
100
AcDbBlockBegin
  2
AI9-BLK83
 70
     0
 71
     1
 10
0.0
 20
0.0
 30
0.0
  3
AI9-BLK83
  1

  0
LINE
  5
274
330
26D
100
AcDbEntity
  8
0
  6
AI9-LType1
 62
   222
100
AcDbLine
 10
0.02015380859375
 20
11.31610514322916
 30
0.0
 11
0.02015380859375
 21
-11.31610514322916
 31
0.0
  0
SPLINE
  5
273
330
26D
100
AcDbEntity
  8
0
 62
     7
100
AcDbSpline
210
0.0
220
0.0
230
1.0
 70
     9
 71
     3
 72
    35
 73
    31
 74
     0
 42
0.0000000001
 43
0.0000000001
 40
0.0
 40
0.0
 40
0.0
 40
0.0
 40
1.0
 40
1.0
 40
1.0
 40
2.0
 40
2.0
 40
2.0
 40
3.0
 40
3.0
 40
3.0
 40
4.0
 40
4.0
 40
4.0
 40
5.0
 40
5.0
 40
5.0
 40
6.0
 40
6.0
 40
6.0
 40
7.0
 40
7.0
 40
7.0
 40
8.0
 40
8.0
 40
8.0
 40
9.0
 40
9.0
 40
9.0
 40
10.0
 40
10.0
 40
10.0
 40
10.0
 10
-5.377621799045138
 20
-0.0093017578125
 30
0.0
 10
-2.455147298177083
 20
-0.2952446831597222
 30
0.0
 10
-2.771062554253472
 20
-3.030650499131944
 30
0.0
 10
-2.771062554253472
 20
-3.030650499131944
 30
0.0
 10
-2.771062554253472
 20
-4.56440700954861
 30
0.0
 10
-1.528072102864583
 20
-5.80774197048611
 30
0.0
 10
0.0056844075520833
 20
-5.80774197048611
 30
0.0
 10
1.539440917968749
 20
-5.80774197048611
 30
0.0
 10
2.782431369357638
 20
-4.56440700954861
 30
0.0
 10
2.782431369357638
 20
-3.030650499131944
 30
0.0
 10
2.782431369357638
 20
-3.030650499131944
 30
0.0
 10
2.498555501302083
 20
-0.2397786458333333
 30
0.0
 10
5.377277289496527
 20
-0.0093017578125
 30
0.0
 10
6.906210666232638
 20
0.1126546223958333
 30
0.0
 10
8.154368760850694
 20
1.233688693576388
 30
0.0
 10
8.154368760850694
 20
2.767445203993055
 30
0.0
 10
8.154368760850694
 20
4.301201714409721
 30
0.0
 10
6.911033799913194
 20
5.54419216579861
 30
0.0
 10
5.377277289496527
 20
5.54419216579861
 30
0.0
 10
5.377277289496527
 20
5.54419216579861
 30
0.0
 10
-0.1603691948784722
 20
5.661669921874999
 30
0.0
 10
-0.1603691948784722
 20
5.661669921874999
 30
0.0
 10
-0.1603691948784722
 20
5.661669921874999
 30
0.0
 10
-5.377621799045138
 20
5.54419216579861
 30
0.0
 10
-5.377621799045138
 20
5.54419216579861
 30
0.0
 10
-6.911378309461804
 20
5.54419216579861
 30
0.0
 10
-8.154368760850694
 20
4.301201714409721
 30
0.0
 10
-8.154368760850694
 20
2.767445203993055
 30
0.0
 10
-8.154368760850694
 20
1.233688693576388
 30
0.0
 10
-6.90379909939236
 20
0.1395263671875
 30
0.0
 10
-5.377621799045138
 20
-0.0093017578125
 30
0.0
  0
SPLINE
  5
272
330
26D
100
AcDbEntity
  8
0
  6
AI9-LType3
 62
     7
100
AcDbSpline
210
0.0
220
0.0
230
1.0
 70
     9
 71
     3
 72
    50
 73
    46
 74
     0
 42
0.0000000001
 43
0.0000000001
 40
0.0
 40
0.0
 40
0.0
 40
0.0
 40
1.0
 40
1.0
 40
1.0
 40
2.0
 40
2.0
 40
2.0
 40
3.0
 40
3.0
 40
3.0
 40
4.0
 40
4.0
 40
4.0
 40
5.0
 40
5.0
 40
5.0
 40
6.0
 40
6.0
 40
6.0
 40
7.0
 40
7.0
 40
7.0
 40
8.0
 40
8.0
 40
8.0
 40
9.0
 40
9.0
 40
9.0
 40
10.0
 40
10.0
 40
10.0
 40
11.0
 40
11.0
 40
11.0
 40
12.0
 40
12.0
 40
12.0
 40
13.0
 40
13.0
 40
13.0
 40
14.0
 40
14.0
 40
14.0
 40
15.0
 40
15.0
 40
15.0
 40
15.0
 10
2.18160671657986
 20
-3.038574218749999
 30
0.0
 10
2.178850640190971
 20
-2.995166015624999
 30
0.0
 10
2.17540554470486
 20
-2.933154296874999
 30
0.0
 10
2.17540554470486
 20
-2.834969075520833
 30
0.0
 10
2.17540554470486
 20
-2.367125108506944
 30
0.0
 10
2.262566460503471
 20
-1.351855468749999
 30
0.0
 10
2.942283799913194
 20
-0.5367458767361111
 30
0.0
 10
3.49625515407986
 20
0.1274685329861111
 30
0.0
 10
4.299651421440971
 20
0.5064290364583333
 30
0.0
 10
5.329734971788194
 20
0.5887668185763888
 30
0.0
 10
6.618889702690971
 20
0.6917751736111111
 30
0.0
 10
7.554577636718748
 20
1.607826063368055
 30
0.0
 10
7.554577636718748
 20
2.767445203993055
 30
0.0
 10
7.554577636718748
 20
3.967716471354166
 30
0.0
 10
6.577548556857638
 20
4.944401041666666
 30
0.0
 10
5.377277289496527
 20
4.944401041666666
 30
0.0
 10
5.377277289496527
 20
4.944401041666666
 30
0.0
 10
-0.1603691948784722
 20
5.061534288194444
 30
0.0
 10
-0.1603691948784722
 20
5.061534288194444
 30
0.0
 10
-0.1603691948784722
 20
5.061534288194444
 30
0.0
 10
-5.377621799045138
 20
4.944401041666666
 30
0.0
 10
-5.377621799045138
 20
4.944401041666666
 30
0.0
 10
-6.577893066406249
 20
4.944401041666666
 30
0.0
 10
-7.554233127170138
 20
3.967716471354166
 30
0.0
 10
-7.554233127170138
 20
2.767445203993055
 30
0.0
 10
-7.554233127170138
 20
1.479668511284722
 30
0.0
 10
-6.430098470052082
 20
0.6962537977430556
 30
0.0
 10
-5.31939968532986
 20
0.5877332899305556
 30
0.0
 10
-3.047359212239582
 20
0.3655246310763888
 30
0.0
 10
-2.413117133246527
 20
-1.148594835069444
 30
0.0
 10
-2.237072753906249
 20
-2.03122829861111
 30
0.0
 10
-2.175750054253472
 20
-2.339908854166666
 30
0.0
 10
-2.150945366753472
 20
-2.584510633680555
 30
0.0
 10
-2.150945366753472
 20
-2.779503038194444
 30
0.0
 10
-2.150945366753472
 20
-2.88699001736111
 30
0.0
 10
-2.165414767795138
 20
-2.963471137152777
 30
0.0
 10
-2.17850613064236
 20
-3.042708333333333
 30
0.0
 10
-2.177817111545138
 20
-3.04201931423611
 30
0.0
 10
-2.170926920572916
 20
-3.030650499131944
 30
0.0
 10
-2.170926920572916
 20
-3.030650499131944
 30
0.0
 10
-2.170926920572916
 20
-4.231266276041666
 30
0.0
 10
-1.194586859809027
 20
-5.207606336805555
 30
0.0
 10
0.0056844075520833
 20
-5.207606336805555
 30
0.0
 10
1.203199598524305
 20
-5.207606336805555
 30
0.0
 10
2.177472601996527
 20
-4.235400390624999
 30
0.0
 10
2.18160671657986
 20
-3.038574218749999
 30
0.0
  0
CIRCLE
  5
270
330
26D
100
AcDbEntity
  8
0
 62
     7
100
AcDbCircle
 10
-0.0253214518229167
 20
3.471278211805555
 30
0.0
 40
0.2762966579861111
  0
ENDBLK
  5
275
330
26D
100
AcDbEntity
  8
0
100
AcDbBlockEnd
  0
BLOCK
  5
2B7
330
2B5
100
AcDbEntity
  8
0
 62
     7
100
AcDbBlockBegin
  2
AI9-BLK84
 70
     0
 71
     1
 10
0.0
 20
0.0
 30
0.0
  3
AI9-BLK84
  1

  0
CIRCLE
  5
2B9
330
2B5
100
AcDbEntity
  8
0
 62
     7
100
AcDbCircle
 10
0.0
 20
0.0
 30
0.0
 40
1.999964057074652
  0
CIRCLE
  5
2B8
330
2B5
100
AcDbEntity
  8
0
 62
   189
100
AcDbCircle
 10
-0.0000861273871528
 20
0.0
 30
0.0
 40
1.349960666232638
  0
ENDBLK
  5
2BA
330
2B5
100
AcDbEntity
  8
0
100
AcDbBlockEnd
  0
BLOCK
  5
2BD
330
2BB
100
AcDbEntity
  8
0
 62
     7
100
AcDbBlockBegin
  2
AI9-BLK85
 70
     0
 71
     1
 10
0.0
 20
0.0
 30
0.0
  3
AI9-BLK85
  1

  0
CIRCLE
  5
2BF
330
2BB
100
AcDbEntity
  8
0
 62
     7
100
AcDbCircle
 10
0.0
 20
0.0
 30
0.0
 40
1.999964057074652
  0
CIRCLE
  5
2BE
330
2BB
100
AcDbEntity
  8
0
 62
   189
100
AcDbCircle
 10
-0.0000861273871528
 20
0.0
 30
0.0
 40
1.349960666232638
  0
ENDBLK
  5
2C0
330
2BB
100
AcDbEntity
  8
0
100
AcDbBlockEnd
  0
BLOCK
  5
2C5
330
2C3
100
AcDbEntity
  8
0
 62
     7
100
AcDbBlockBegin
  2
AI9-BLK86
 70
     0
 71
     1
 10
0.0
 20
0.0
 30
0.0
  3
AI9-BLK86
  1

  0
INSERT
  5
2C7
330
2C3
100
AcDbEntity
  8
0
  6
AI9-LType1
 62
     7
100
AcDbBlockReference
  2
AI9-BLK87
 10
0.0
 20
0.0
 30
0.0
  0
ENDBLK
  5
2CB
330
2C3
100
AcDbEntity
  8
0
100
AcDbBlockEnd
  0
BLOCK
  5
2C8
330
2C6
100
AcDbEntity
  8
0
 62
     7
100
AcDbBlockBegin
  2
AI9-BLK87
 70
     0
 71
     1
 10
0.0
 20
0.0
 30
0.0
  3
AI9-BLK87
  1

  0
MTEXT
  5
2C9
330
2C6
100
AcDbEntity
  8
0
  6
AI9-LType1
 62
     7
100
AcDbMText
 10
-3.444837103949652
 20
1.464861789049838
 30
0.0
 40
2.847895371949155
 41
0.0
 71
     1
 72
     2
  1
\W0.90;\fMS Gothic|b0|i0|c128;R-13
  7
STD
 11
1.000000999999999
 21
0.0
 31
0.0
 73
     1
 44
1.0
  0
ENDBLK
  5
2CA
330
2C6
100
AcDbEntity
  8
0
100
AcDbBlockEnd
  0
BLOCK
  5
2D5
330
2D3
100
AcDbEntity
  8
0
 62
     7
100
AcDbBlockBegin
  2
AI9-BLK88
 70
     0
 71
     1
 10
0.0
 20
0.0
 30
0.0
  3
AI9-BLK88
  1

  0
INSERT
  5
2D7
330
2D3
100
AcDbEntity
  8
0
 62
     7
100
AcDbBlockReference
  2
AI9-BLK89
 10
0.0
 20
0.0
 30
0.0
  0
ENDBLK
  5
2DB
330
2D3
100
AcDbEntity
  8
0
100
AcDbBlockEnd
  0
BLOCK
  5
2D8
330
2D6
100
AcDbEntity
  8
0
 62
     7
100
AcDbBlockBegin
  2
AI9-BLK89
 70
     0
 71
     1
 10
0.0
 20
0.0
 30
0.0
  3
AI9-BLK89
  1

  0
MTEXT
  5
2D9
330
2D6
100
AcDbEntity
  8
0
 62
     7
100
AcDbMText
 10
-3.734902901209099
 20
-0.2503768710683678
 30
0.0
 40
2.847895371949155
 41
0.0
 71
     1
 72
     2
  1
\W0.90;\fMS Gothic|b0|i0|c128;R-13
  7
STD
 11
0.8920000195503234
 21
0.4519999921321869
 31
0.0
 73
     1
 44
1.0
  0
ENDBLK
  5
2DA
330
2D6
100
AcDbEntity
  8
0
100
AcDbBlockEnd
  0
BLOCK
  5
2DE
330
2DC
100
AcDbEntity
  8
0
 62
     7
100
AcDbBlockBegin
  2
AI9-BLK90
 70
     0
 71
     1
 10
0.0
 20
0.0
 30
0.0
  3
AI9-BLK90
  1

  0
INSERT
  5
2E0
330
2DC
100
AcDbEntity
  8
0
 62
     7
100
AcDbBlockReference
  2
AI9-BLK91
 10
0.0
 20
0.0
 30
0.0
  0
ENDBLK
  5
2E4
330
2DC
100
AcDbEntity
  8
0
100
AcDbBlockEnd
  0
BLOCK
  5
2E1
330
2DF
100
AcDbEntity
  8
0
 62
     7
100
AcDbBlockBegin
  2
AI9-BLK91
 70
     0
 71
     1
 10
0.0
 20
0.0
 30
0.0
  3
AI9-BLK91
  1

  0
MTEXT
  5
2E2
330
2DF
100
AcDbEntity
  8
0
 62
     7
100
AcDbMText
 10
-2.575826055269375
 20
2.716303855900373
 30
0.0
 40
2.847895371949155
 41
0.0
 71
     1
 72
     2
  1
\W0.90;\fMS Gothic|b0|i0|c128;R-13
  7
STD
 11
0.9172000288963317
 21
-0.398499995470047
 31
0.0
 73
     1
 44
1.0
  0
ENDBLK
  5
2E3
330
2DF
100
AcDbEntity
  8
0
100
AcDbBlockEnd
  0
BLOCK
  5
309
330
307
100
AcDbEntity
  8
0
 62
     7
100
AcDbBlockBegin
  2
AI9-BLK92
 70
     0
 71
     1
 10
0.0
 20
0.0
 30
0.0
  3
AI9-BLK92
  1

  0
INSERT
  5
30B
330
307
100
AcDbEntity
  8
0
 62
     7
100
AcDbBlockReference
  2
AI9-BLK93
 10
0.0
 20
0.0
 30
0.0
  0
ENDBLK
  5
30F
330
307
100
AcDbEntity
  8
0
100
AcDbBlockEnd
  0
BLOCK
  5
30C
330
30A
100
AcDbEntity
  8
0
 62
     7
100
AcDbBlockBegin
  2
AI9-BLK93
 70
     0
 71
     1
 10
0.0
 20
0.0
 30
0.0
  3
AI9-BLK93
  1

  0
MTEXT
  5
30D
330
30A
100
AcDbEntity
  8
0
 62
     7
100
AcDbMText
 10
-0.79375
 20
1.350149045860957
 30
0.0
 40
2.624834375722067
 41
0.0
 71
     1
 72
     2
  1
\W0.90;\fMS Gothic|b0|i0|c128; 
  7
STD
 11
1.000000999999999
 21
0.0
 31
0.0
 73
     1
 44
1.0
  0
ENDBLK
  5
30E
330
30A
100
AcDbEntity
  8
0
100
AcDbBlockEnd
  0
BLOCK
  5
312
330
310
100
AcDbEntity
  8
0
 62
     7
100
AcDbBlockBegin
  2
AI9-BLK94
 70
     0
 71
     1
 10
0.0
 20
0.0
 30
0.0
  3
AI9-BLK94
  1

  0
INSERT
  5
326
330
310
100
AcDbEntity
  8
0
 62
     7
100
AcDbBlockReference
  2
AI9-BLK99
 10
-9.921874999999998
 20
0.0
 30
0.0
  0
INSERT
  5
31D
330
310
100
AcDbEntity
  8
0
 62
     7
100
AcDbBlockReference
  2
AI9-BLK97
 10
-0.6614583333333333
 20
0.0
 30
0.0
  0
INSERT
  5
314
330
310
100
AcDbEntity
  8
0
 62
     7
100
AcDbBlockReference
  2
AI9-BLK95
 10
9.260416666666666
 20
0.0
 30
0.0
  0
ENDBLK
  5
32E
330
310
100
AcDbEntity
  8
0
100
AcDbBlockEnd
  0
BLOCK
  5
315
330
313
100
AcDbEntity
  8
0
 62
     7
100
AcDbBlockBegin
  2
AI9-BLK95
 70
     0
 71
     1
 10
0.0
 20
0.0
 30
0.0
  3
AI9-BLK95
  1

  0
INSERT
  5
317
330
313
100
AcDbEntity
  8
0
 62
     7
100
AcDbBlockReference
  2
AI9-BLK96
 10
0.0
 20
0.0
 30
0.0
  0
ENDBLK
  5
31B
330
313
100
AcDbEntity
  8
0
100
AcDbBlockEnd
  0
BLOCK
  5
318
330
316
100
AcDbEntity
  8
0
 62
     7
100
AcDbBlockBegin
  2
AI9-BLK96
 70
     0
 71
     1
 10
0.0
 20
0.0
 30
0.0
  3
AI9-BLK96
  1

  0
MTEXT
  5
319
330
316
100
AcDbEntity
  8
0
 62
     7
100
AcDbMText
 10
-1.984374999999999
 20
1.350148625317075
 30
0.0
 40
2.624833955178184
 41
0.0
 71
     1
 72
     2
  1
\W0.75;\fMS Gothic|b0|i0|c128;1:5
  7
STD
 11
1.000000999999999
 21
0.0
 31
0.0
 73
     1
 44
1.0
  0
ENDBLK
  5
31A
330
316
100
AcDbEntity
  8
0
100
AcDbBlockEnd
  0
BLOCK
  5
31E
330
31C
100
AcDbEntity
  8
0
 62
     7
100
AcDbBlockBegin
  2
AI9-BLK97
 70
     0
 71
     1
 10
0.0
 20
0.0
 30
0.0
  3
AI9-BLK97
  1

  0
INSERT
  5
320
330
31C
100
AcDbEntity
  8
0
 62
     7
100
AcDbBlockReference
  2
AI9-BLK98
 10
0.0
 20
0.0
 30
0.0
  0
ENDBLK
  5
324
330
31C
100
AcDbEntity
  8
0
100
AcDbBlockEnd
  0
BLOCK
  5
321
330
31F
100
AcDbEntity
  8
0
 62
     7
100
AcDbBlockBegin
  2
AI9-BLK98
 70
     0
 71
     1
 10
0.0
 20
0.0
 30
0.0
  3
AI9-BLK98
  1

  0
MTEXT
  5
322
330
31F
100
AcDbEntity
  8
0
 62
     7
100
AcDbMText
 10
-7.937499999999999
 20
1.350148625317075
 30
0.0
 40
2.624833955178184
 41
0.0
 71
     1
 72
     2
  1
\W0.75;\fMS Gothic|b0|i0|c128;ベース底面　
  7
KANJISTD
 11
1.000000999999999
 21
0.0
 31
0.0
 73
     1
 44
1.0
  0
ENDBLK
  5
323
330
31F
100
AcDbEntity
  8
0
100
AcDbBlockEnd
  0
BLOCK
  5
327
330
325
100
AcDbEntity
  8
0
 62
     7
100
AcDbBlockBegin
  2
AI9-BLK99
 70
     0
 71
     1
 10
0.0
 20
0.0
 30
0.0
  3
AI9-BLK99
  1

  0
INSERT
  5
329
330
325
100
AcDbEntity
  8
0
 62
     7
100
AcDbBlockReference
  2
AI9-BLK100
 10
0.0
 20
0.0
 30
0.0
  0
ENDBLK
  5
32D
330
325
100
AcDbEntity
  8
0
100
AcDbBlockEnd
  0
BLOCK
  5
32A
330
328
100
AcDbEntity
  8
0
 62
     7
100
AcDbBlockBegin
  2
AI9-BLK100
 70
     0
 71
     1
 10
0.0
 20
0.0
 30
0.0
  3
AI9-BLK100
  1

  0
MTEXT
  5
32B
330
328
100
AcDbEntity
  8
0
 62
     7
100
AcDbMText
 10
-1.322916666666666
 20
1.350148625317075
 30
0.0
 40
2.624833955178184
 41
0.0
 71
     1
 72
     2
  1
\W0.75;\fMS Gothic|b0|i0|c128;  
  7
STD
 11
1.000000999999999
 21
0.0
 31
0.0
 73
     1
 44
1.0
  0
ENDBLK
  5
32C
330
328
100
AcDbEntity
  8
0
100
AcDbBlockEnd
  0
BLOCK
  5
331
330
32F
100
AcDbEntity
  8
0
 62
     7
100
AcDbBlockBegin
  2
AI9-BLK101
 70
     0
 71
     1
 10
0.0
 20
0.0
 30
0.0
  3
AI9-BLK101
  1

  0
INSERT
  5
345
330
32F
100
AcDbEntity
  8
0
 62
     7
100
AcDbBlockReference
  2
AI9-BLK106
 10
-9.921874999999998
 20
0.0
 30
0.0
  0
INSERT
  5
33C
330
32F
100
AcDbEntity
  8
0
 62
     7
100
AcDbBlockReference
  2
AI9-BLK104
 10
-1.322916666666666
 20
0.0
 30
0.0
  0
INSERT
  5
333
330
32F
100
AcDbEntity
  8
0
 62
     7
100
AcDbBlockReference
  2
AI9-BLK102
 10
8.598958333333332
 20
0.0
 30
0.0
  0
ENDBLK
  5
34D
330
32F
100
AcDbEntity
  8
0
100
AcDbBlockEnd
  0
BLOCK
  5
334
330
332
100
AcDbEntity
  8
0
 62
     7
100
AcDbBlockBegin
  2
AI9-BLK102
 70
     0
 71
     1
 10
0.0
 20
0.0
 30
0.0
  3
AI9-BLK102
  1

  0
INSERT
  5
336
330
332
100
AcDbEntity
  8
0
 62
     7
100
AcDbBlockReference
  2
AI9-BLK103
 10
0.0
 20
0.0
 30
0.0
  0
ENDBLK
  5
33A
330
332
100
AcDbEntity
  8
0
100
AcDbBlockEnd
  0
BLOCK
  5
337
330
335
100
AcDbEntity
  8
0
 62
     7
100
AcDbBlockBegin
  2
AI9-BLK103
 70
     0
 71
     1
 10
0.0
 20
0.0
 30
0.0
  3
AI9-BLK103
  1

  0
MTEXT
  5
338
330
335
100
AcDbEntity
  8
0
 62
     7
100
AcDbMText
 10
-1.984374999999999
 20
1.350148625317075
 30
0.0
 40
2.624833955178184
 41
0.0
 71
     1
 72
     2
  1
\W0.75;\fMS Gothic|b0|i0|c128;1:5
  7
STD
 11
1.000000999999999
 21
0.0
 31
0.0
 73
     1
 44
1.0
  0
ENDBLK
  5
339
330
335
100
AcDbEntity
  8
0
100
AcDbBlockEnd
  0
BLOCK
  5
33D
330
33B
100
AcDbEntity
  8
0
 62
     7
100
AcDbBlockBegin
  2
AI9-BLK104
 70
     0
 71
     1
 10
0.0
 20
0.0
 30
0.0
  3
AI9-BLK104
  1

  0
INSERT
  5
33F
330
33B
100
AcDbEntity
  8
0
 62
     7
100
AcDbBlockReference
  2
AI9-BLK105
 10
0.0
 20
0.0
 30
0.0
  0
ENDBLK
  5
343
330
33B
100
AcDbEntity
  8
0
100
AcDbBlockEnd
  0
BLOCK
  5
340
330
33E
100
AcDbEntity
  8
0
 62
     7
100
AcDbBlockBegin
  2
AI9-BLK105
 70
     0
 71
     1
 10
0.0
 20
0.0
 30
0.0
  3
AI9-BLK105
  1

  0
MTEXT
  5
341
330
33E
100
AcDbEntity
  8
0
 62
     7
100
AcDbMText
 10
-7.937499999999999
 20
1.350148625317075
 30
0.0
 40
2.624833955178184
 41
0.0
 71
     1
 72
     2
  1
\W0.75;\fMS Gothic|b0|i0|c128;ベース平面　
  7
KANJISTD
 11
1.000000999999999
 21
0.0
 31
0.0
 73
     1
 44
1.0
  0
ENDBLK
  5
342
330
33E
100
AcDbEntity
  8
0
100
AcDbBlockEnd
  0
BLOCK
  5
346
330
344
100
AcDbEntity
  8
0
 62
     7
100
AcDbBlockBegin
  2
AI9-BLK106
 70
     0
 71
     1
 10
0.0
 20
0.0
 30
0.0
  3
AI9-BLK106
  1

  0
INSERT
  5
348
330
344
100
AcDbEntity
  8
0
 62
     7
100
AcDbBlockReference
  2
AI9-BLK107
 10
0.0
 20
0.0
 30
0.0
  0
ENDBLK
  5
34C
330
344
100
AcDbEntity
  8
0
100
AcDbBlockEnd
  0
BLOCK
  5
349
330
347
100
AcDbEntity
  8
0
 62
     7
100
AcDbBlockBegin
  2
AI9-BLK107
 70
     0
 71
     1
 10
0.0
 20
0.0
 30
0.0
  3
AI9-BLK107
  1

  0
MTEXT
  5
34A
330
347
100
AcDbEntity
  8
0
 62
     7
100
AcDbMText
 10
-0.6614583333333333
 20
1.350148625317075
 30
0.0
 40
2.624833955178184
 41
0.0
 71
     1
 72
     2
  1
\W0.75;\fMS Gothic|b0|i0|c128; 
  7
STD
 11
1.000000999999999
 21
0.0
 31
0.0
 73
     1
 44
1.0
  0
ENDBLK
  5
34B
330
347
100
AcDbEntity
  8
0
100
AcDbBlockEnd
  0
BLOCK
  5
350
330
34E
100
AcDbEntity
  8
0
 62
     7
100
AcDbBlockBegin
  2
AI9-BLK108
 70
     0
 71
     1
 10
0.0
 20
0.0
 30
0.0
  3
AI9-BLK108
  1

  0
INSERT
  5
364
330
34E
100
AcDbEntity
  8
0
 62
     7
100
AcDbBlockReference
  2
AI9-BLK113
 10
0.0
 20
-2.381249999999999
 30
0.0
  0
INSERT
  5
35B
330
34E
100
AcDbEntity
  8
0
 62
     7
100
AcDbBlockReference
  2
AI9-BLK111
 10
0.0
 20
1.587499999999999
 30
0.0
  0
INSERT
  5
352
330
34E
100
AcDbEntity
  8
0
 62
     7
100
AcDbBlockReference
  2
AI9-BLK109
 10
0.0
 20
3.968749999999999
 30
0.0
  0
ENDBLK
  5
36C
330
34E
100
AcDbEntity
  8
0
100
AcDbBlockEnd
  0
BLOCK
  5
353
330
351
100
AcDbEntity
  8
0
 62
     7
100
AcDbBlockBegin
  2
AI9-BLK109
 70
     0
 71
     1
 10
0.0
 20
0.0
 30
0.0
  3
AI9-BLK109
  1

  0
INSERT
  5
355
330
351
100
AcDbEntity
  8
0
 62
     7
100
AcDbBlockReference
  2
AI9-BLK110
 10
0.0
 20
0.0
 30
0.0
  0
ENDBLK
  5
359
330
351
100
AcDbEntity
  8
0
100
AcDbBlockEnd
  0
BLOCK
  5
356
330
354
100
AcDbEntity
  8
0
 62
     7
100
AcDbBlockBegin
  2
AI9-BLK110
 70
     0
 71
     1
 10
0.0
 20
0.0
 30
0.0
  3
AI9-BLK110
  1

  0
MTEXT
  5
357
330
354
100
AcDbEntity
  8
0
 62
     7
100
AcDbMText
 10
-1.350149045860957
 20
-0.79375
 30
0.0
 40
2.624834375722067
 41
0.0
 71
     1
 72
     2
  1
\W0.90;\fMS Gothic|b0|i0|c128;5
  7
STD
 11
0.0
 21
1.0
 31
0.0
 73
     1
 44
1.0
  0
ENDBLK
  5
358
330
354
100
AcDbEntity
  8
0
100
AcDbBlockEnd
  0
BLOCK
  5
35C
330
35A
100
AcDbEntity
  8
0
 62
     7
100
AcDbBlockBegin
  2
AI9-BLK111
 70
     0
 71
     1
 10
0.0
 20
0.0
 30
0.0
  3
AI9-BLK111
  1

  0
INSERT
  5
35E
330
35A
100
AcDbEntity
  8
0
 62
     7
100
AcDbBlockReference
  2
AI9-BLK112
 10
0.0
 20
0.0
 30
0.0
  0
ENDBLK
  5
362
330
35A
100
AcDbEntity
  8
0
100
AcDbBlockEnd
  0
BLOCK
  5
35F
330
35D
100
AcDbEntity
  8
0
 62
     7
100
AcDbBlockBegin
  2
AI9-BLK112
 70
     0
 71
     1
 10
0.0
 20
0.0
 30
0.0
  3
AI9-BLK112
  1

  0
MTEXT
  5
360
330
35D
100
AcDbEntity
  8
0
 62
     7
100
AcDbMText
 10
-1.350149045860957
 20
-1.587499999999999
 30
0.0
 40
2.624834375722067
 41
0.0
 71
     1
 72
     2
  1
\W0.90;\fMS Gothic|b0|i0|c128;±
  7
KANJISTD
 11
0.0
 21
1.0
 31
0.0
 73
     1
 44
1.0
  0
ENDBLK
  5
361
330
35D
100
AcDbEntity
  8
0
100
AcDbBlockEnd
  0
BLOCK
  5
365
330
363
100
AcDbEntity
  8
0
 62
     7
100
AcDbBlockBegin
  2
AI9-BLK113
 70
     0
 71
     1
 10
0.0
 20
0.0
 30
0.0
  3
AI9-BLK113
  1

  0
INSERT
  5
367
330
363
100
AcDbEntity
  8
0
 62
     7
100
AcDbBlockReference
  2
AI9-BLK114
 10
0.0
 20
0.0
 30
0.0
  0
ENDBLK
  5
36B
330
363
100
AcDbEntity
  8
0
100
AcDbBlockEnd
  0
BLOCK
  5
368
330
366
100
AcDbEntity
  8
0
 62
     7
100
AcDbBlockBegin
  2
AI9-BLK114
 70
     0
 71
     1
 10
0.0
 20
0.0
 30
0.0
  3
AI9-BLK114
  1

  0
MTEXT
  5
369
330
366
100
AcDbEntity
  8
0
 62
     7
100
AcDbMText
 10
-1.350149045860957
 20
-2.381249999999999
 30
0.0
 40
2.624834375722067
 41
0.0
 71
     1
 72
     2
  1
\W0.90;\fMS Gothic|b0|i0|c128;200
  7
STD
 11
0.0
 21
1.0
 31
0.0
 73
     1
 44
1.0
  0
ENDBLK
  5
36A
330
366
100
AcDbEntity
  8
0
100
AcDbBlockEnd
  0
BLOCK
  5
379
330
377
100
AcDbEntity
  8
0
 62
     7
100
AcDbBlockBegin
  2
AI9-BLK115
 70
     0
 71
     1
 10
0.0
 20
0.0
 30
0.0
  3
AI9-BLK115
  1

  0
INSERT
  5
38D
330
377
100
AcDbEntity
  8
0
 62
     7
100
AcDbBlockReference
  2
AI9-BLK120
 10
-2.381249999999999
 20
0.0
 30
0.0
  0
INSERT
  5
384
330
377
100
AcDbEntity
  8
0
 62
     7
100
AcDbBlockReference
  2
AI9-BLK118
 10
0.79375
 20
0.0
 30
0.0
  0
INSERT
  5
37B
330
377
100
AcDbEntity
  8
0
 62
     7
100
AcDbBlockReference
  2
AI9-BLK116
 10
3.174999999999999
 20
0.0
 30
0.0
  0
ENDBLK
  5
395
330
377
100
AcDbEntity
  8
0
100
AcDbBlockEnd
  0
BLOCK
  5
37C
330
37A
100
AcDbEntity
  8
0
 62
     7
100
AcDbBlockBegin
  2
AI9-BLK116
 70
     0
 71
     1
 10
0.0
 20
0.0
 30
0.0
  3
AI9-BLK116
  1

  0
INSERT
  5
37E
330
37A
100
AcDbEntity
  8
0
 62
     7
100
AcDbBlockReference
  2
AI9-BLK117
 10
0.0
 20
0.0
 30
0.0
  0
ENDBLK
  5
382
330
37A
100
AcDbEntity
  8
0
100
AcDbBlockEnd
  0
BLOCK
  5
37F
330
37D
100
AcDbEntity
  8
0
 62
     7
100
AcDbBlockBegin
  2
AI9-BLK117
 70
     0
 71
     1
 10
0.0
 20
0.0
 30
0.0
  3
AI9-BLK117
  1

  0
MTEXT
  5
380
330
37D
100
AcDbEntity
  8
0
 62
     7
100
AcDbMText
 10
-0.79375
 20
1.350149045860967
 30
0.0
 40
2.624834375722067
 41
0.0
 71
     1
 72
     2
  1
\W0.90;\fMS Gothic|b0|i0|c128;2
  7
STD
 11
1.000000999999999
 21
0.0
 31
0.0
 73
     1
 44
1.0
  0
ENDBLK
  5
381
330
37D
100
AcDbEntity
  8
0
100
AcDbBlockEnd
  0
BLOCK
  5
385
330
383
100
AcDbEntity
  8
0
 62
     7
100
AcDbBlockBegin
  2
AI9-BLK118
 70
     0
 71
     1
 10
0.0
 20
0.0
 30
0.0
  3
AI9-BLK118
  1

  0
INSERT
  5
387
330
383
100
AcDbEntity
  8
0
 62
     7
100
AcDbBlockReference
  2
AI9-BLK119
 10
0.0
 20
0.0
 30
0.0
  0
ENDBLK
  5
38B
330
383
100
AcDbEntity
  8
0
100
AcDbBlockEnd
  0
BLOCK
  5
388
330
386
100
AcDbEntity
  8
0
 62
     7
100
AcDbBlockBegin
  2
AI9-BLK119
 70
     0
 71
     1
 10
0.0
 20
0.0
 30
0.0
  3
AI9-BLK119
  1

  0
MTEXT
  5
389
330
386
100
AcDbEntity
  8
0
 62
     7
100
AcDbMText
 10
-1.587499999999999
 20
1.350149045860967
 30
0.0
 40
2.624834375722067
 41
0.0
 71
     1
 72
     2
  1
\W0.90;\fMS Gothic|b0|i0|c128;±
  7
KANJISTD
 11
1.000000999999999
 21
0.0
 31
0.0
 73
     1
 44
1.0
  0
ENDBLK
  5
38A
330
386
100
AcDbEntity
  8
0
100
AcDbBlockEnd
  0
BLOCK
  5
38E
330
38C
100
AcDbEntity
  8
0
 62
     7
100
AcDbBlockBegin
  2
AI9-BLK120
 70
     0
 71
     1
 10
0.0
 20
0.0
 30
0.0
  3
AI9-BLK120
  1

  0
INSERT
  5
390
330
38C
100
AcDbEntity
  8
0
 62
     7
100
AcDbBlockReference
  2
AI9-BLK121
 10
0.0
 20
0.0
 30
0.0
  0
ENDBLK
  5
394
330
38C
100
AcDbEntity
  8
0
100
AcDbBlockEnd
  0
BLOCK
  5
391
330
38F
100
AcDbEntity
  8
0
 62
     7
100
AcDbBlockBegin
  2
AI9-BLK121
 70
     0
 71
     1
 10
0.0
 20
0.0
 30
0.0
  3
AI9-BLK121
  1

  0
MTEXT
  5
392
330
38F
100
AcDbEntity
  8
0
 62
     7
100
AcDbMText
 10
-1.587499999999999
 20
1.350149045860967
 30
0.0
 40
2.624834375722067
 41
0.0
 71
     1
 72
     2
  1
\W0.90;\fMS Gothic|b0|i0|c128;76
  7
STD
 11
1.000000999999999
 21
0.0
 31
0.0
 73
     1
 44
1.0
  0
ENDBLK
  5
393
330
38F
100
AcDbEntity
  8
0
100
AcDbBlockEnd
  0
BLOCK
  5
398
330
396
100
AcDbEntity
  8
0
 62
     7
100
AcDbBlockBegin
  2
AI9-BLK122
 70
     0
 71
     1
 10
0.0
 20
0.0
 30
0.0
  3
AI9-BLK122
  1

  0
INSERT
  5
3AC
330
396
100
AcDbEntity
  8
0
 62
     7
100
AcDbBlockReference
  2
AI9-BLK127
 10
0.0
 20
-3.174999999999999
 30
0.0
  0
INSERT
  5
3A3
330
396
100
AcDbEntity
  8
0
 62
     7
100
AcDbBlockReference
  2
AI9-BLK125
 10
0.0
 20
0.79375
 30
0.0
  0
INSERT
  5
39A
330
396
100
AcDbEntity
  8
0
 62
     7
100
AcDbBlockReference
  2
AI9-BLK123
 10
0.0
 20
3.968749999999999
 30
0.0
  0
ENDBLK
  5
3B4
330
396
100
AcDbEntity
  8
0
100
AcDbBlockEnd
  0
BLOCK
  5
39B
330
399
100
AcDbEntity
  8
0
 62
     7
100
AcDbBlockBegin
  2
AI9-BLK123
 70
     0
 71
     1
 10
0.0
 20
0.0
 30
0.0
  3
AI9-BLK123
  1

  0
INSERT
  5
39D
330
399
100
AcDbEntity
  8
0
 62
     7
100
AcDbBlockReference
  2
AI9-BLK124
 10
0.0
 20
0.0
 30
0.0
  0
ENDBLK
  5
3A1
330
399
100
AcDbEntity
  8
0
100
AcDbBlockEnd
  0
BLOCK
  5
39E
330
39C
100
AcDbEntity
  8
0
 62
     7
100
AcDbBlockBegin
  2
AI9-BLK124
 70
     0
 71
     1
 10
0.0
 20
0.0
 30
0.0
  3
AI9-BLK124
  1

  0
MTEXT
  5
39F
330
39C
100
AcDbEntity
  8
0
 62
     7
100
AcDbMText
 10
-1.350149045860957
 20
-1.587499999999999
 30
0.0
 40
2.624834375722067
 41
0.0
 71
     1
 72
     2
  1
\W0.90;\fMS Gothic|b0|i0|c128;10
  7
STD
 11
0.0
 21
1.0
 31
0.0
 73
     1
 44
1.0
  0
ENDBLK
  5
3A0
330
39C
100
AcDbEntity
  8
0
100
AcDbBlockEnd
  0
BLOCK
  5
3A4
330
3A2
100
AcDbEntity
  8
0
 62
     7
100
AcDbBlockBegin
  2
AI9-BLK125
 70
     0
 71
     1
 10
0.0
 20
0.0
 30
0.0
  3
AI9-BLK125
  1

  0
INSERT
  5
3A6
330
3A2
100
AcDbEntity
  8
0
 62
     7
100
AcDbBlockReference
  2
AI9-BLK126
 10
0.0
 20
0.0
 30
0.0
  0
ENDBLK
  5
3AA
330
3A2
100
AcDbEntity
  8
0
100
AcDbBlockEnd
  0
BLOCK
  5
3A7
330
3A5
100
AcDbEntity
  8
0
 62
     7
100
AcDbBlockBegin
  2
AI9-BLK126
 70
     0
 71
     1
 10
0.0
 20
0.0
 30
0.0
  3
AI9-BLK126
  1

  0
MTEXT
  5
3A8
330
3A5
100
AcDbEntity
  8
0
 62
     7
100
AcDbMText
 10
-1.350149045860957
 20
-1.587499999999999
 30
0.0
 40
2.624834375722067
 41
0.0
 71
     1
 72
     2
  1
\W0.90;\fMS Gothic|b0|i0|c128;±
  7
KANJISTD
 11
0.0
 21
1.0
 31
0.0
 73
     1
 44
1.0
  0
ENDBLK
  5
3A9
330
3A5
100
AcDbEntity
  8
0
100
AcDbBlockEnd
  0
BLOCK
  5
3AD
330
3AB
100
AcDbEntity
  8
0
 62
     7
100
AcDbBlockBegin
  2
AI9-BLK127
 70
     0
 71
     1
 10
0.0
 20
0.0
 30
0.0
  3
AI9-BLK127
  1

  0
INSERT
  5
3AF
330
3AB
100
AcDbEntity
  8
0
 62
     7
100
AcDbBlockReference
  2
AI9-BLK128
 10
0.0
 20
0.0
 30
0.0
  0
ENDBLK
  5
3B3
330
3AB
100
AcDbEntity
  8
0
100
AcDbBlockEnd
  0
BLOCK
  5
3B0
330
3AE
100
AcDbEntity
  8
0
 62
     7
100
AcDbBlockBegin
  2
AI9-BLK128
 70
     0
 71
     1
 10
0.0
 20
0.0
 30
0.0
  3
AI9-BLK128
  1

  0
MTEXT
  5
3B1
330
3AE
100
AcDbEntity
  8
0
 62
     7
100
AcDbMText
 10
-1.350149045860957
 20
-2.381249999999999
 30
0.0
 40
2.624834375722067
 41
0.0
 71
     1
 72
     2
  1
\W0.90;\fMS Gothic|b0|i0|c128;400
  7
STD
 11
0.0
 21
1.0
 31
0.0
 73
     1
 44
1.0
  0
ENDBLK
  5
3B2
330
3AE
100
AcDbEntity
  8
0
100
AcDbBlockEnd
  0
BLOCK
  5
3D9
330
3D7
100
AcDbEntity
  8
0
 62
     7
100
AcDbBlockBegin
  2
AI9-BLK129
 70
     0
 71
     1
 10
0.0
 20
0.0
 30
0.0
  3
AI9-BLK129
  1

  0
LINE
  5
3DE
330
3D7
100
AcDbEntity
  8
0
  6
AI9-LType1
 62
   222
100
AcDbLine
 10
-0.02015380859375
 20
-11.31610514322916
 30
0.0
 11
-0.02015380859375
 21
11.31610514322916
 31
0.0
  0
SPLINE
  5
3DD
330
3D7
100
AcDbEntity
  8
0
 62
     7
100
AcDbSpline
210
0.0
220
0.0
230
1.0
 70
     9
 71
     3
 72
    35
 73
    31
 74
     0
 42
0.0000000001
 43
0.0000000001
 40
0.0
 40
0.0
 40
0.0
 40
0.0
 40
1.0
 40
1.0
 40
1.0
 40
2.0
 40
2.0
 40
2.0
 40
3.0
 40
3.0
 40
3.0
 40
4.0
 40
4.0
 40
4.0
 40
5.0
 40
5.0
 40
5.0
 40
6.0
 40
6.0
 40
6.0
 40
7.0
 40
7.0
 40
7.0
 40
8.0
 40
8.0
 40
8.0
 40
9.0
 40
9.0
 40
9.0
 40
10.0
 40
10.0
 40
10.0
 40
10.0
 10
5.377621799045138
 20
0.0093017578125
 30
0.0
 10
2.455147298177083
 20
0.2952446831597222
 30
0.0
 10
2.771062554253472
 20
3.030650499131944
 30
0.0
 10
2.771062554253472
 20
3.030650499131944
 30
0.0
 10
2.771062554253472
 20
4.56440700954861
 30
0.0
 10
1.528072102864583
 20
5.80774197048611
 30
0.0
 10
-0.0056844075520833
 20
5.80774197048611
 30
0.0
 10
-1.539268663194444
 20
5.80774197048611
 30
0.0
 10
-2.782431369357638
 20
4.56440700954861
 30
0.0
 10
-2.782431369357638
 20
3.030650499131944
 30
0.0
 10
-2.782431369357638
 20
3.030650499131944
 30
0.0
 10
-2.498383246527777
 20
0.2397786458333333
 30
0.0
 10
-5.377449544270833
 20
0.0093017578125
 30
0.0
 10
-6.906210666232638
 20
-0.1126546223958333
 30
0.0
 10
-8.154368760850694
 20
-1.233688693576388
 30
0.0
 10
-8.154368760850694
 20
-2.767445203993055
 30
0.0
 10
-8.154368760850694
 20
-4.301201714409721
 30
0.0
 10
-6.911206054687498
 20
-5.54419216579861
 30
0.0
 10
-5.377449544270833
 20
-5.54419216579861
 30
0.0
 10
-5.377449544270833
 20
-5.54419216579861
 30
0.0
 10
0.1601969401041666
 20
-5.661497667100693
 30
0.0
 10
0.1601969401041666
 20
-5.661497667100693
 30
0.0
 10
0.1601969401041666
 20
-5.661497667100693
 30
0.0
 10
5.377621799045138
 20
-5.54419216579861
 30
0.0
 10
5.377621799045138
 20
-5.54419216579861
 30
0.0
 10
6.911378309461804
 20
-5.54419216579861
 30
0.0
 10
8.154368760850694
 20
-4.301201714409721
 30
0.0
 10
8.154368760850694
 20
-2.767445203993055
 30
0.0
 10
8.154368760850694
 20
-1.233688693576388
 30
0.0
 10
6.90379909939236
 20
-0.1395263671875
 30
0.0
 10
5.377621799045138
 20
0.0093017578125
 30
0.0
  0
SPLINE
  5
3DC
330
3D7
100
AcDbEntity
  8
0
  6
AI9-LType6
 62
     7
100
AcDbSpline
210
0.0
220
0.0
230
1.0
 70
     9
 71
     3
 72
    50
 73
    46
 74
     0
 42
0.0000000001
 43
0.0000000001
 40
0.0
 40
0.0
 40
0.0
 40
0.0
 40
1.0
 40
1.0
 40
1.0
 40
2.0
 40
2.0
 40
2.0
 40
3.0
 40
3.0
 40
3.0
 40
4.0
 40
4.0
 40
4.0
 40
5.0
 40
5.0
 40
5.0
 40
6.0
 40
6.0
 40
6.0
 40
7.0
 40
7.0
 40
7.0
 40
8.0
 40
8.0
 40
8.0
 40
9.0
 40
9.0
 40
9.0
 40
10.0
 40
10.0
 40
10.0
 40
11.0
 40
11.0
 40
11.0
 40
12.0
 40
12.0
 40
12.0
 40
13.0
 40
13.0
 40
13.0
 40
14.0
 40
14.0
 40
14.0
 40
15.0
 40
15.0
 40
15.0
 40
15.0
 10
-2.18160671657986
 20
3.038401963975694
 30
0.0
 10
-2.178678385416666
 20
2.995338270399305
 30
0.0
 10
-2.175233289930555
 20
2.933154296874999
 30
0.0
 10
-2.175233289930555
 20
2.834969075520833
 30
0.0
 10
-2.175233289930555
 20
2.367125108506944
 30
0.0
 10
-2.262566460503471
 20
1.352027723524305
 30
0.0
 10
-2.942283799913194
 20
0.5367458767361111
 30
0.0
 10
-3.49625515407986
 20
-0.1276407877604166
 30
0.0
 10
-4.299479166666666
 20
-0.5062567816840278
 30
0.0
 10
-5.329562717013888
 20
-0.5887668185763888
 30
0.0
 10
-6.618717447916665
 20
-0.6916029188368055
 30
0.0
 10
-7.554405381944444
 20
-1.607826063368055
 30
0.0
 10
-7.554405381944444
 20
-2.767445203993055
 30
0.0
 10
-7.554405381944444
 20
-3.967716471354166
 30
0.0
 10
-6.577720811631944
 20
-4.94422878689236
 30
0.0
 10
-5.377449544270833
 20
-4.94422878689236
 30
0.0
 10
-5.377449544270833
 20
-4.94422878689236
 30
0.0
 10
0.1601969401041666
 20
-5.061534288194444
 30
0.0
 10
0.1601969401041666
 20
-5.061534288194444
 30
0.0
 10
0.1601969401041666
 20
-5.061534288194444
 30
0.0
 10
5.377621799045138
 20
-4.94422878689236
 30
0.0
 10
5.377621799045138
 20
-4.94422878689236
 30
0.0
 10
6.577893066406249
 20
-4.94422878689236
 30
0.0
 10
7.554405381944444
 20
-3.967716471354166
 30
0.0
 10
7.554405381944444
 20
-2.767445203993055
 30
0.0
 10
7.554405381944444
 20
-1.479668511284722
 30
0.0
 10
6.430098470052082
 20
-0.6962537977430556
 30
0.0
 10
5.31939968532986
 20
-0.587905544704861
 30
0.0
 10
3.047531467013888
 20
-0.3655246310763888
 30
0.0
 10
2.413117133246527
 20
1.148422580295138
 30
0.0
 10
2.237072753906249
 20
2.031056043836805
 30
0.0
 10
2.175577799479166
 20
2.33973659939236
 30
0.0
 10
2.150945366753472
 20
2.584510633680555
 30
0.0
 10
2.150945366753472
 20
2.779330783420138
 30
0.0
 10
2.150945366753472
 20
2.88699001736111
 30
0.0
 10
2.165414767795138
 20
2.963471137152777
 30
0.0
 10
2.178333875868055
 20
3.042880588107638
 30
0.0
 10
2.177989366319444
 20
3.042191569010416
 30
0.0
 10
2.171099175347221
 20
3.030650499131944
 30
0.0
 10
2.171099175347221
 20
3.030650499131944
 30
0.0
 10
2.171099175347221
 20
4.23109402126736
 30
0.0
 10
1.194586859809027
 20
5.20777859157986
 30
0.0
 10
-0.0056844075520833
 20
5.20777859157986
 30
0.0
 10
-1.203199598524305
 20
5.20777859157986
 30
0.0
 10
-2.177300347222221
 20
4.235228135850694
 30
0.0
 10
-2.18160671657986
 20
3.038401963975694
 30
0.0
  0
CIRCLE
  5
3DA
330
3D7
100
AcDbEntity
  8
0
 62
     7
100
AcDbCircle
 10
0.0253214518229167
 20
-3.47145046657986
 30
0.0
 40
0.2764689127604166
  0
ENDBLK
  5
3DF
330
3D7
100
AcDbEntity
  8
0
100
AcDbBlockEnd
  0
BLOCK
  5
3F1
330
3EF
100
AcDbEntity
  8
0
 62
     7
100
AcDbBlockBegin
  2
AI9-BLK130
 70
     0
 71
     1
 10
0.0
 20
0.0
 30
0.0
  3
AI9-BLK130
  1

  0
INSERT
  5
3F3
330
3EF
100
AcDbEntity
  8
0
 62
     7
100
AcDbBlockReference
  2
AI9-BLK131
 10
0.0
 20
0.0
 30
0.0
  0
ENDBLK
  5
3F7
330
3EF
100
AcDbEntity
  8
0
100
AcDbBlockEnd
  0
BLOCK
  5
3F4
330
3F2
100
AcDbEntity
  8
0
 62
     7
100
AcDbBlockBegin
  2
AI9-BLK131
 70
     0
 71
     1
 10
0.0
 20
0.0
 30
0.0
  3
AI9-BLK131
  1

  0
MTEXT
  5
3F5
330
3F2
100
AcDbEntity
  8
0
 62
     7
100
AcDbMText
 10
-26.86967773437499
 20
2.285245307878252
 30
0.0
 40
4.442736356055335
 41
0.0
 71
     1
 72
     2
  1
\W0.90;\fMS Gothic|b0|i0|c128;保安道路企画株式会社
  7
KANJISTD
 11
1.000000999999999
 21
0.0
 31
0.0
 73
     1
 44
1.0
  0
ENDBLK
  5
3F6
330
3F2
100
AcDbEntity
  8
0
100
AcDbBlockEnd
  0
BLOCK
  5
3FA
330
3F8
100
AcDbEntity
  8
0
 62
     7
100
AcDbBlockBegin
  2
AI9-BLK132
 70
     0
 71
     1
 10
0.0
 20
0.0
 30
0.0
  3
AI9-BLK132
  1

  0
INSERT
  5
432
330
3F8
100
AcDbEntity
  8
0
 62
     7
100
AcDbBlockReference
  2
AI9-BLK145
 10
-32.72565104166666
 20
0.0
 30
0.0
  0
INSERT
  5
429
330
3F8
100
AcDbEntity
  8
0
 62
     7
100
AcDbBlockReference
  2
AI9-BLK143
 10
-16.36265326605902
 20
0.0
 30
0.0
  0
INSERT
  5
420
330
3F8
100
AcDbEntity
  8
0
 62
     7
100
AcDbBlockReference
  2
AI9-BLK141
 10
0.8611016167534721
 20
0.0
 30
0.0
  0
INSERT
  5
417
330
3F8
100
AcDbEntity
  8
0
 62
     7
100
AcDbBlockReference
  2
AI9-BLK139
 10
7.751120334201388
 20
0.0
 30
0.0
  0
INSERT
  5
40E
330
3F8
100
AcDbEntity
  8
0
 62
     7
100
AcDbBlockReference
  2
AI9-BLK137
 10
14.64045003255208
 20
0.0
 30
0.0
  0
INSERT
  5
405
330
3F8
100
AcDbEntity
  8
0
 62
     7
100
AcDbBlockReference
  2
AI9-BLK135
 10
19.80757649739583
 20
0.0
 30
0.0
  0
INSERT
  5
3FC
330
3F8
100
AcDbEntity
  8
0
 62
     7
100
AcDbBlockReference
  2
AI9-BLK133
 10
28.41962619357639
 20
0.0
 30
0.0
  0
ENDBLK
  5
43A
330
3F8
100
AcDbEntity
  8
0
100
AcDbBlockEnd
  0
BLOCK
  5
3FD
330
3FB
100
AcDbEntity
  8
0
 62
     7
100
AcDbBlockBegin
  2
AI9-BLK133
 70
     0
 71
     1
 10
0.0
 20
0.0
 30
0.0
  3
AI9-BLK133
  1

  0
INSERT
  5
3FF
330
3FB
100
AcDbEntity
  8
0
 62
     7
100
AcDbBlockReference
  2
AI9-BLK134
 10
0.0
 20
0.0
 30
0.0
  0
ENDBLK
  5
403
330
3FB
100
AcDbEntity
  8
0
100
AcDbBlockEnd
  0
BLOCK
  5
400
330
3FE
100
AcDbEntity
  8
0
 62
     7
100
AcDbBlockBegin
  2
AI9-BLK134
 70
     0
 71
     1
 10
0.0
 20
0.0
 30
0.0
  3
AI9-BLK134
  1

  0
MTEXT
  5
401
330
3FE
100
AcDbEntity
  8
0
 62
     7
100
AcDbMText
 10
-5.167298719618054
 20
1.464861789049848
 30
0.0
 40
2.847895371949155
 41
0.0
 71
     1
 72
     2
  1
\W0.90;\fMS Gothic|b0|i0|c128;-Ｓ400
  7
KANJISTD
 11
1.000000999999999
 21
0.0
 31
0.0
 73
     1
 44
1.0
  0
ENDBLK
  5
402
330
3FE
100
AcDbEntity
  8
0
100
AcDbBlockEnd
  0
BLOCK
  5
406
330
404
100
AcDbEntity
  8
0
 62
     7
100
AcDbBlockBegin
  2
AI9-BLK135
 70
     0
 71
     1
 10
0.0
 20
0.0
 30
0.0
  3
AI9-BLK135
  1

  0
INSERT
  5
408
330
404
100
AcDbEntity
  8
0
 62
     7
100
AcDbBlockReference
  2
AI9-BLK136
 10
0.0
 20
0.0
 30
0.0
  0
ENDBLK
  5
40C
330
404
100
AcDbEntity
  8
0
100
AcDbBlockEnd
  0
BLOCK
  5
409
330
407
100
AcDbEntity
  8
0
 62
     7
100
AcDbBlockBegin
  2
AI9-BLK136
 70
     0
 71
     1
 10
0.0
 20
0.0
 30
0.0
  3
AI9-BLK136
  1

  0
MTEXT
  5
40A
330
407
100
AcDbEntity
  8
0
 62
     7
100
AcDbMText
 10
-3.444750976562499
 20
1.464861789049848
 30
0.0
 40
2.847895371949155
 41
0.0
 71
     1
 72
     2
  1
\W0.90;\fMS Gothic|b0|i0|c128;ＰＦ
  7
KANJISTD
 11
1.000000999999999
 21
0.0
 31
0.0
 73
     1
 44
1.0
  0
ENDBLK
  5
40B
330
407
100
AcDbEntity
  8
0
100
AcDbBlockEnd
  0
BLOCK
  5
40F
330
40D
100
AcDbEntity
  8
0
 62
     7
100
AcDbBlockBegin
  2
AI9-BLK137
 70
     0
 71
     1
 10
0.0
 20
0.0
 30
0.0
  3
AI9-BLK137
  1

  0
INSERT
  5
411
330
40D
100
AcDbEntity
  8
0
 62
     7
100
AcDbBlockReference
  2
AI9-BLK138
 10
0.0
 20
0.0
 30
0.0
  0
ENDBLK
  5
415
330
40D
100
AcDbEntity
  8
0
100
AcDbBlockEnd
  0
BLOCK
  5
412
330
410
100
AcDbEntity
  8
0
 62
     7
100
AcDbBlockBegin
  2
AI9-BLK138
 70
     0
 71
     1
 10
0.0
 20
0.0
 30
0.0
  3
AI9-BLK138
  1

  0
MTEXT
  5
413
330
410
100
AcDbEntity
  8
0
 62
     7
100
AcDbMText
 10
-1.722375488281249
 20
1.464861789049848
 30
0.0
 40
2.847895371949155
 41
0.0
 71
     1
 72
     2
  1
\W0.90;\fMS Gothic|b0|i0|c128;  
  7
STD
 11
1.000000999999999
 21
0.0
 31
0.0
 73
     1
 44
1.0
  0
ENDBLK
  5
414
330
410
100
AcDbEntity
  8
0
100
AcDbBlockEnd
  0
BLOCK
  5
418
330
416
100
AcDbEntity
  8
0
 62
     7
100
AcDbBlockBegin
  2
AI9-BLK139
 70
     0
 71
     1
 10
0.0
 20
0.0
 30
0.0
  3
AI9-BLK139
  1

  0
INSERT
  5
41A
330
416
100
AcDbEntity
  8
0
 62
     7
100
AcDbBlockReference
  2
AI9-BLK140
 10
0.0
 20
0.0
 30
0.0
  0
ENDBLK
  5
41E
330
416
100
AcDbEntity
  8
0
100
AcDbBlockEnd
  0
BLOCK
  5
41B
330
419
100
AcDbEntity
  8
0
 62
     7
100
AcDbBlockBegin
  2
AI9-BLK140
 70
     0
 71
     1
 10
0.0
 20
0.0
 30
0.0
  3
AI9-BLK140
  1

  0
MTEXT
  5
41C
330
419
100
AcDbEntity
  8
0
 62
     7
100
AcDbMText
 10
-5.167298719618054
 20
1.464861789049848
 30
0.0
 40
2.847895371949155
 41
0.0
 71
     1
 72
     2
  1
\W0.90;\fMS Gothic|b0|i0|c128;品　番
  7
KANJISTD
 11
1.000000999999999
 21
0.0
 31
0.0
 73
     1
 44
1.0
  0
ENDBLK
  5
41D
330
419
100
AcDbEntity
  8
0
100
AcDbBlockEnd
  0
BLOCK
  5
421
330
41F
100
AcDbEntity
  8
0
 62
     7
100
AcDbBlockBegin
  2
AI9-BLK141
 70
     0
 71
     1
 10
0.0
 20
0.0
 30
0.0
  3
AI9-BLK141
  1

  0
INSERT
  5
423
330
41F
100
AcDbEntity
  8
0
 62
     7
100
AcDbBlockReference
  2
AI9-BLK142
 10
0.0
 20
0.0
 30
0.0
  0
ENDBLK
  5
427
330
41F
100
AcDbEntity
  8
0
100
AcDbBlockEnd
  0
BLOCK
  5
424
330
422
100
AcDbEntity
  8
0
 62
     7
100
AcDbBlockBegin
  2
AI9-BLK142
 70
     0
 71
     1
 10
0.0
 20
0.0
 30
0.0
  3
AI9-BLK142
  1

  0
MTEXT
  5
425
330
422
100
AcDbEntity
  8
0
 62
     7
100
AcDbMText
 10
-1.722375488281249
 20
1.464861789049848
 30
0.0
 40
2.847895371949155
 41
0.0
 71
     1
 72
     2
  1
\W0.90;\fMS Gothic|b0|i0|c128;  
  7
STD
 11
1.000000999999999
 21
0.0
 31
0.0
 73
     1
 44
1.0
  0
ENDBLK
  5
426
330
422
100
AcDbEntity
  8
0
100
AcDbBlockEnd
  0
BLOCK
  5
42A
330
428
100
AcDbEntity
  8
0
 62
     7
100
AcDbBlockBegin
  2
AI9-BLK143
 70
     0
 71
     1
 10
0.0
 20
0.0
 30
0.0
  3
AI9-BLK143
  1

  0
INSERT
  5
42C
330
428
100
AcDbEntity
  8
0
 62
     7
100
AcDbBlockReference
  2
AI9-BLK144
 10
0.0
 20
0.0
 30
0.0
  0
ENDBLK
  5
430
330
428
100
AcDbEntity
  8
0
100
AcDbBlockEnd
  0
BLOCK
  5
42D
330
42B
100
AcDbEntity
  8
0
 62
     7
100
AcDbBlockBegin
  2
AI9-BLK144
 70
     0
 71
     1
 10
0.0
 20
0.0
 30
0.0
  3
AI9-BLK144
  1

  0
MTEXT
  5
42E
330
42B
100
AcDbEntity
  8
0
 62
     7
100
AcDbMText
 10
-15.50172390407986
 20
1.464861789049848
 30
0.0
 40
2.847895371949155
 41
0.0
 71
     1
 72
     2
  1
\W0.90;\fMS Gothic|b0|i0|c128;ポストフレックス　
  7
KANJISTD
 11
1.000000999999999
 21
0.0
 31
0.0
 73
     1
 44
1.0
  0
ENDBLK
  5
42F
330
42B
100
AcDbEntity
  8
0
100
AcDbBlockEnd
  0
BLOCK
  5
433
330
431
100
AcDbEntity
  8
0
 62
     7
100
AcDbBlockBegin
  2
AI9-BLK145
 70
     0
 71
     1
 10
0.0
 20
0.0
 30
0.0
  3
AI9-BLK145
  1

  0
INSERT
  5
435
330
431
100
AcDbEntity
  8
0
 62
     7
100
AcDbBlockReference
  2
AI9-BLK146
 10
0.0
 20
0.0
 30
0.0
  0
ENDBLK
  5
439
330
431
100
AcDbEntity
  8
0
100
AcDbBlockEnd
  0
BLOCK
  5
436
330
434
100
AcDbEntity
  8
0
 62
     7
100
AcDbBlockBegin
  2
AI9-BLK146
 70
     0
 71
     1
 10
0.0
 20
0.0
 30
0.0
  3
AI9-BLK146
  1

  0
MTEXT
  5
437
330
434
100
AcDbEntity
  8
0
 62
     7
100
AcDbMText
 10
-0.8612738715277776
 20
1.464861789049848
 30
0.0
 40
2.847895371949155
 41
0.0
 71
     1
 72
     2
  1
\W0.90;\fMS Gothic|b0|i0|c128; 
  7
STD
 11
1.000000999999999
 21
0.0
 31
0.0
 73
     1
 44
1.0
  0
ENDBLK
  5
438
330
434
100
AcDbEntity
  8
0
100
AcDbBlockEnd
  0
BLOCK
  5
43D
330
43B
100
AcDbEntity
  8
0
 62
     7
100
AcDbBlockBegin
  2
AI9-BLK147
 70
     0
 71
     1
 10
0.0
 20
0.0
 30
0.0
  3
AI9-BLK147
  1

  0
INSERT
  5
45A
330
43B
100
AcDbEntity
  8
0
 62
     7
100
AcDbBlockReference
  2
AI9-BLK154
 10
-5.167298719618054
 20
0.0
 30
0.0
  0
INSERT
  5
451
330
43B
100
AcDbEntity
  8
0
 62
     7
100
AcDbBlockReference
  2
AI9-BLK152
 10
-2.58373548719618
 20
0.0
 30
0.0
  0
INSERT
  5
448
330
43B
100
AcDbEntity
  8
0
 62
     7
100
AcDbBlockReference
  2
AI9-BLK150
 10
0.8610154893663192
 20
0.0
 30
0.0
  0
INSERT
  5
43F
330
43B
100
AcDbEntity
  8
0
 62
     7
100
AcDbBlockReference
  2
AI9-BLK148
 10
4.306024848090276
 20
0.0
 30
0.0
  0
ENDBLK
  5
462
330
43B
100
AcDbEntity
  8
0
100
AcDbBlockEnd
  0
BLOCK
  5
440
330
43E
100
AcDbEntity
  8
0
 62
     7
100
AcDbBlockBegin
  2
AI9-BLK148
 70
     0
 71
     1
 10
0.0
 20
0.0
 30
0.0
  3
AI9-BLK148
  1

  0
INSERT
  5
442
330
43E
100
AcDbEntity
  8
0
 62
     7
100
AcDbBlockReference
  2
AI9-BLK149
 10
0.0
 20
0.0
 30
0.0
  0
ENDBLK
  5
446
330
43E
100
AcDbEntity
  8
0
100
AcDbBlockEnd
  0
BLOCK
  5
443
330
441
100
AcDbEntity
  8
0
 62
     7
100
AcDbBlockBegin
  2
AI9-BLK149
 70
     0
 71
     1
 10
0.0
 20
0.0
 30
0.0
  3
AI9-BLK149
  1

  0
MTEXT
  5
444
330
441
100
AcDbEntity
  8
0
 62
     7
100
AcDbMText
 10
-1.722461615668402
 20
1.464861789049848
 30
0.0
 40
2.847895371949155
 41
0.0
 71
     1
 72
     2
  1
\W0.90;\fMS Gothic|b0|i0|c128;質
  7
KANJISTD
 11
1.000000999999999
 21
0.0
 31
0.0
 73
     1
 44
1.0
  0
ENDBLK
  5
445
330
441
100
AcDbEntity
  8
0
100
AcDbBlockEnd
  0
BLOCK
  5
449
330
447
100
AcDbEntity
  8
0
 62
     7
100
AcDbBlockBegin
  2
AI9-BLK150
 70
     0
 71
     1
 10
0.0
 20
0.0
 30
0.0
  3
AI9-BLK150
  1

  0
INSERT
  5
44B
330
447
100
AcDbEntity
  8
0
 62
     7
100
AcDbBlockReference
  2
AI9-BLK151
 10
0.0
 20
0.0
 30
0.0
  0
ENDBLK
  5
44F
330
447
100
AcDbEntity
  8
0
100
AcDbBlockEnd
  0
BLOCK
  5
44C
330
44A
100
AcDbEntity
  8
0
 62
     7
100
AcDbBlockBegin
  2
AI9-BLK151
 70
     0
 71
     1
 10
0.0
 20
0.0
 30
0.0
  3
AI9-BLK151
  1

  0
MTEXT
  5
44D
330
44A
100
AcDbEntity
  8
0
 62
     7
100
AcDbMText
 10
-1.722375488281249
 20
1.464861789049848
 30
0.0
 40
2.847895371949155
 41
0.0
 71
     1
 72
     2
  1
\W0.90;\fMS Gothic|b0|i0|c128;  
  7
STD
 11
1.000000999999999
 21
0.0
 31
0.0
 73
     1
 44
1.0
  0
ENDBLK
  5
44E
330
44A
100
AcDbEntity
  8
0
100
AcDbBlockEnd
  0
BLOCK
  5
452
330
450
100
AcDbEntity
  8
0
 62
     7
100
AcDbBlockBegin
  2
AI9-BLK152
 70
     0
 71
     1
 10
0.0
 20
0.0
 30
0.0
  3
AI9-BLK152
  1

  0
INSERT
  5
454
330
450
100
AcDbEntity
  8
0
 62
     7
100
AcDbBlockReference
  2
AI9-BLK153
 10
0.0
 20
0.0
 30
0.0
  0
ENDBLK
  5
458
330
450
100
AcDbEntity
  8
0
100
AcDbBlockEnd
  0
BLOCK
  5
455
330
453
100
AcDbEntity
  8
0
 62
     7
100
AcDbBlockBegin
  2
AI9-BLK153
 70
     0
 71
     1
 10
0.0
 20
0.0
 30
0.0
  3
AI9-BLK153
  1

  0
MTEXT
  5
456
330
453
100
AcDbEntity
  8
0
 62
     7
100
AcDbMText
 10
-1.722375488281249
 20
1.464861789049848
 30
0.0
 40
2.847895371949155
 41
0.0
 71
     1
 72
     2
  1
\W0.90;\fMS Gothic|b0|i0|c128;材
  7
KANJISTD
 11
1.000000999999999
 21
0.0
 31
0.0
 73
     1
 44
1.0
  0
ENDBLK
  5
457
330
453
100
AcDbEntity
  8
0
100
AcDbBlockEnd
  0
BLOCK
  5
45B
330
459
100
AcDbEntity
  8
0
 62
     7
100
AcDbBlockBegin
  2
AI9-BLK154
 70
     0
 71
     1
 10
0.0
 20
0.0
 30
0.0
  3
AI9-BLK154
  1

  0
INSERT
  5
45D
330
459
100
AcDbEntity
  8
0
 62
     7
100
AcDbBlockReference
  2
AI9-BLK155
 10
0.0
 20
0.0
 30
0.0
  0
ENDBLK
  5
461
330
459
100
AcDbEntity
  8
0
100
AcDbBlockEnd
  0
BLOCK
  5
45E
330
45C
100
AcDbEntity
  8
0
 62
     7
100
AcDbBlockBegin
  2
AI9-BLK155
 70
     0
 71
     1
 10
0.0
 20
0.0
 30
0.0
  3
AI9-BLK155
  1

  0
MTEXT
  5
45F
330
45C
100
AcDbEntity
  8
0
 62
     7
100
AcDbMText
 10
-0.861187744140625
 20
1.464861789049848
 30
0.0
 40
2.847895371949155
 41
0.0
 71
     1
 72
     2
  1
\W0.90;\fMS Gothic|b0|i0|c128; 
  7
STD
 11
1.000000999999999
 21
0.0
 31
0.0
 73
     1
 44
1.0
  0
ENDBLK
  5
460
330
45C
100
AcDbEntity
  8
0
100
AcDbBlockEnd
  0
BLOCK
  5
465
330
463
100
AcDbEntity
  8
0
 62
     7
100
AcDbBlockBegin
  2
AI9-BLK156
 70
     0
 71
     1
 10
0.0
 20
0.0
 30
0.0
  3
AI9-BLK156
  1

  0
INSERT
  5
482
330
463
100
AcDbEntity
  8
0
 62
     7
100
AcDbBlockReference
  2
AI9-BLK163
 10
-5.167298719618054
 20
0.0
 30
0.0
  0
INSERT
  5
479
330
463
100
AcDbEntity
  8
0
 62
     7
100
AcDbBlockReference
  2
AI9-BLK161
 10
-2.58373548719618
 20
0.0
 30
0.0
  0
INSERT
  5
470
330
463
100
AcDbEntity
  8
0
 62
     7
100
AcDbBlockReference
  2
AI9-BLK159
 10
0.8610154893663192
 20
0.0
 30
0.0
  0
INSERT
  5
467
330
463
100
AcDbEntity
  8
0
 62
     7
100
AcDbBlockReference
  2
AI9-BLK157
 10
4.306024848090276
 20
0.0
 30
0.0
  0
ENDBLK
  5
48A
330
463
100
AcDbEntity
  8
0
100
AcDbBlockEnd
  0
BLOCK
  5
468
330
466
100
AcDbEntity
  8
0
 62
     7
100
AcDbBlockBegin
  2
AI9-BLK157
 70
     0
 71
     1
 10
0.0
 20
0.0
 30
0.0
  3
AI9-BLK157
  1

  0
INSERT
  5
46A
330
466
100
AcDbEntity
  8
0
 62
     7
100
AcDbBlockReference
  2
AI9-BLK158
 10
0.0
 20
0.0
 30
0.0
  0
ENDBLK
  5
46E
330
466
100
AcDbEntity
  8
0
100
AcDbBlockEnd
  0
BLOCK
  5
46B
330
469
100
AcDbEntity
  8
0
 62
     7
100
AcDbBlockBegin
  2
AI9-BLK158
 70
     0
 71
     1
 10
0.0
 20
0.0
 30
0.0
  3
AI9-BLK158
  1

  0
MTEXT
  5
46C
330
469
100
AcDbEntity
  8
0
 62
     7
100
AcDbMText
 10
-1.722461615668402
 20
1.464861789049848
 30
0.0
 40
2.847895371949155
 41
0.0
 71
     1
 72
     2
  1
\W0.90;\fMS Gothic|b0|i0|c128;名
  7
KANJISTD
 11
1.000000999999999
 21
0.0
 31
0.0
 73
     1
 44
1.0
  0
ENDBLK
  5
46D
330
469
100
AcDbEntity
  8
0
100
AcDbBlockEnd
  0
BLOCK
  5
471
330
46F
100
AcDbEntity
  8
0
 62
     7
100
AcDbBlockBegin
  2
AI9-BLK159
 70
     0
 71
     1
 10
0.0
 20
0.0
 30
0.0
  3
AI9-BLK159
  1

  0
INSERT
  5
473
330
46F
100
AcDbEntity
  8
0
 62
     7
100
AcDbBlockReference
  2
AI9-BLK160
 10
0.0
 20
0.0
 30
0.0
  0
ENDBLK
  5
477
330
46F
100
AcDbEntity
  8
0
100
AcDbBlockEnd
  0
BLOCK
  5
474
330
472
100
AcDbEntity
  8
0
 62
     7
100
AcDbBlockBegin
  2
AI9-BLK160
 70
     0
 71
     1
 10
0.0
 20
0.0
 30
0.0
  3
AI9-BLK160
  1

  0
MTEXT
  5
475
330
472
100
AcDbEntity
  8
0
 62
     7
100
AcDbMText
 10
-1.722375488281249
 20
1.464861789049848
 30
0.0
 40
2.847895371949155
 41
0.0
 71
     1
 72
     2
  1
\W0.90;\fMS Gothic|b0|i0|c128;  
  7
STD
 11
1.000000999999999
 21
0.0
 31
0.0
 73
     1
 44
1.0
  0
ENDBLK
  5
476
330
472
100
AcDbEntity
  8
0
100
AcDbBlockEnd
  0
BLOCK
  5
47A
330
478
100
AcDbEntity
  8
0
 62
     7
100
AcDbBlockBegin
  2
AI9-BLK161
 70
     0
 71
     1
 10
0.0
 20
0.0
 30
0.0
  3
AI9-BLK161
  1

  0
INSERT
  5
47C
330
478
100
AcDbEntity
  8
0
 62
     7
100
AcDbBlockReference
  2
AI9-BLK162
 10
0.0
 20
0.0
 30
0.0
  0
ENDBLK
  5
480
330
478
100
AcDbEntity
  8
0
100
AcDbBlockEnd
  0
BLOCK
  5
47D
330
47B
100
AcDbEntity
  8
0
 62
     7
100
AcDbBlockBegin
  2
AI9-BLK162
 70
     0
 71
     1
 10
0.0
 20
0.0
 30
0.0
  3
AI9-BLK162
  1

  0
MTEXT
  5
47E
330
47B
100
AcDbEntity
  8
0
 62
     7
100
AcDbMText
 10
-1.722375488281249
 20
1.464861789049848
 30
0.0
 40
2.847895371949155
 41
0.0
 71
     1
 72
     2
  1
\W0.90;\fMS Gothic|b0|i0|c128;品
  7
KANJISTD
 11
1.000000999999999
 21
0.0
 31
0.0
 73
     1
 44
1.0
  0
ENDBLK
  5
47F
330
47B
100
AcDbEntity
  8
0
100
AcDbBlockEnd
  0
BLOCK
  5
483
330
481
100
AcDbEntity
  8
0
 62
     7
100
AcDbBlockBegin
  2
AI9-BLK163
 70
     0
 71
     1
 10
0.0
 20
0.0
 30
0.0
  3
AI9-BLK163
  1

  0
INSERT
  5
485
330
481
100
AcDbEntity
  8
0
 62
     7
100
AcDbBlockReference
  2
AI9-BLK164
 10
0.0
 20
0.0
 30
0.0
  0
ENDBLK
  5
489
330
481
100
AcDbEntity
  8
0
100
AcDbBlockEnd
  0
BLOCK
  5
486
330
484
100
AcDbEntity
  8
0
 62
     7
100
AcDbBlockBegin
  2
AI9-BLK164
 70
     0
 71
     1
 10
0.0
 20
0.0
 30
0.0
  3
AI9-BLK164
  1

  0
MTEXT
  5
487
330
484
100
AcDbEntity
  8
0
 62
     7
100
AcDbMText
 10
-0.861187744140625
 20
1.464861789049848
 30
0.0
 40
2.847895371949155
 41
0.0
 71
     1
 72
     2
  1
\W0.90;\fMS Gothic|b0|i0|c128; 
  7
STD
 11
1.000000999999999
 21
0.0
 31
0.0
 73
     1
 44
1.0
  0
ENDBLK
  5
488
330
484
100
AcDbEntity
  8
0
100
AcDbBlockEnd
  0
BLOCK
  5
48E
330
48C
100
AcDbEntity
  8
0
 62
     7
100
AcDbBlockBegin
  2
AI9-BLK165
 70
     0
 71
     1
 10
0.0
 20
0.0
 30
0.0
  3
AI9-BLK165
  1

  0
INSERT
  5
499
330
48C
100
AcDbEntity
  8
0
 62
     7
100
AcDbBlockReference
  2
AI9-BLK168
 10
0.0
 20
-2.381249999999999
 30
0.0
  0
INSERT
  5
490
330
48C
100
AcDbEntity
  8
0
 62
     7
100
AcDbBlockReference
  2
AI9-BLK166
 10
0.0
 20
1.587499999999999
 30
0.0
  0
ENDBLK
  5
4A1
330
48C
100
AcDbEntity
  8
0
100
AcDbBlockEnd
  0
BLOCK
  5
491
330
48F
100
AcDbEntity
  8
0
 62
     7
100
AcDbBlockBegin
  2
AI9-BLK166
 70
     0
 71
     1
 10
0.0
 20
0.0
 30
0.0
  3
AI9-BLK166
  1

  0
INSERT
  5
493
330
48F
100
AcDbEntity
  8
0
 62
     7
100
AcDbBlockReference
  2
AI9-BLK167
 10
0.0
 20
0.0
 30
0.0
  0
ENDBLK
  5
497
330
48F
100
AcDbEntity
  8
0
100
AcDbBlockEnd
  0
BLOCK
  5
494
330
492
100
AcDbEntity
  8
0
 62
     7
100
AcDbBlockBegin
  2
AI9-BLK167
 70
     0
 71
     1
 10
0.0
 20
0.0
 30
0.0
  3
AI9-BLK167
  1

  0
MTEXT
  5
495
330
492
100
AcDbEntity
  8
0
 62
     7
100
AcDbMText
 10
-1.350149045860947
 20
-2.381249999999999
 30
0.0
 40
2.624834375722067
 41
0.0
 71
     1
 72
     2
  1
\W0.90;\fMS Gothic|b0|i0|c128;-11
  7
STD
 11
0.0
 21
1.0
 31
0.0
 73
     1
 44
1.0
  0
ENDBLK
  5
496
330
492
100
AcDbEntity
  8
0
100
AcDbBlockEnd
  0
BLOCK
  5
49A
330
498
100
AcDbEntity
  8
0
 62
     7
100
AcDbBlockBegin
  2
AI9-BLK168
 70
     0
 71
     1
 10
0.0
 20
0.0
 30
0.0
  3
AI9-BLK168
  1

  0
INSERT
  5
49C
330
498
100
AcDbEntity
  8
0
 62
     7
100
AcDbBlockReference
  2
AI9-BLK169
 10
0.0
 20
0.0
 30
0.0
  0
ENDBLK
  5
4A0
330
498
100
AcDbEntity
  8
0
100
AcDbBlockEnd
  0
BLOCK
  5
49D
330
49B
100
AcDbEntity
  8
0
 62
     7
100
AcDbBlockBegin
  2
AI9-BLK169
 70
     0
 71
     1
 10
0.0
 20
0.0
 30
0.0
  3
AI9-BLK169
  1

  0
MTEXT
  5
49E
330
49B
100
AcDbEntity
  8
0
 62
     7
100
AcDbMText
 10
-1.350149045860947
 20
-1.587499999999999
 30
0.0
 40
2.624834375722067
 41
0.0
 71
     1
 72
     2
  1
\W0.90;\fMS Gothic|b0|i0|c128;Φ
  7
KANJISTD
 11
0.0
 21
1.0
 31
0.0
 73
     1
 44
1.0
  0
ENDBLK
  5
49F
330
49B
100
AcDbEntity
  8
0
100
AcDbBlockEnd
  0
BLOCK
  5
4AF
330
4AD
100
AcDbEntity
  8
0
 62
     7
100
AcDbBlockBegin
  2
AI9-BLK170
 70
     0
 71
     1
 10
0.0
 20
0.0
 30
0.0
  3
AI9-BLK170
  1

  0
INSERT
  5
4E7
330
4AD
100
AcDbEntity
  8
0
 62
     7
100
AcDbBlockReference
  2
AI9-BLK183
 10
-13.49133843315972
 20
0.0
 30
0.0
  0
INSERT
  5
4DE
330
4AD
100
AcDbEntity
  8
0
 62
     7
100
AcDbBlockReference
  2
AI9-BLK181
 10
-5.68061794704861
 20
0.0
 30
0.0
  0
INSERT
  5
4D5
330
4AD
100
AcDbEntity
  8
0
 62
     7
100
AcDbBlockReference
  2
AI9-BLK179
 10
2.840136718749999
 20
0.0
 30
0.0
  0
INSERT
  5
4CC
330
4AD
100
AcDbEntity
  8
0
 62
     7
100
AcDbBlockReference
  2
AI9-BLK177
 10
5.68061794704861
 20
0.0
 30
0.0
  0
INSERT
  5
4C3
330
4AD
100
AcDbEntity
  8
0
 62
     7
100
AcDbBlockReference
  2
AI9-BLK175
 10
8.520754665798611
 20
0.0
 30
0.0
  0
INSERT
  5
4BA
330
4AD
100
AcDbEntity
  8
0
 62
     7
100
AcDbBlockReference
  2
AI9-BLK173
 10
11.36089138454861
 20
0.0
 30
0.0
  0
INSERT
  5
4B1
330
4AD
100
AcDbEntity
  8
0
 62
     7
100
AcDbBlockReference
  2
AI9-BLK171
 10
13.49133843315972
 20
0.0
 30
0.0
  0
ENDBLK
  5
4EF
330
4AD
100
AcDbEntity
  8
0
100
AcDbBlockEnd
  0
BLOCK
  5
4B2
330
4B0
100
AcDbEntity
  8
0
 62
     7
100
AcDbBlockBegin
  2
AI9-BLK171
 70
     0
 71
     1
 10
0.0
 20
0.0
 30
0.0
  3
AI9-BLK171
  1

  0
INSERT
  5
4B4
330
4B0
100
AcDbEntity
  8
0
 62
     7
100
AcDbBlockReference
  2
AI9-BLK172
 10
0.0
 20
0.0
 30
0.0
  0
ENDBLK
  5
4B8
330
4B0
100
AcDbEntity
  8
0
100
AcDbBlockEnd
  0
BLOCK
  5
4B5
330
4B3
100
AcDbEntity
  8
0
 62
     7
100
AcDbBlockBegin
  2
AI9-BLK172
 70
     0
 71
     1
 10
0.0
 20
0.0
 30
0.0
  3
AI9-BLK172
  1

  0
MTEXT
  5
4B6
330
4B3
100
AcDbEntity
  8
0
 62
     7
100
AcDbMText
 10
-0.7100341796875
 20
1.449426978006978
 30
0.0
 40
2.817732777703151
 41
0.0
 71
     1
 72
     2
  1
\W0.75;\fMS Gothic|b0|i0|c128;3
  7
STD
 11
1.000000999999999
 21
0.0
 31
0.0
 73
     1
 44
1.0
  0
ENDBLK
  5
4B7
330
4B3
100
AcDbEntity
  8
0
100
AcDbBlockEnd
  0
BLOCK
  5
4BB
330
4B9
100
AcDbEntity
  8
0
 62
     7
100
AcDbBlockBegin
  2
AI9-BLK173
 70
     0
 71
     1
 10
0.0
 20
0.0
 30
0.0
  3
AI9-BLK173
  1

  0
INSERT
  5
4BD
330
4B9
100
AcDbEntity
  8
0
 62
     7
100
AcDbBlockReference
  2
AI9-BLK174
 10
0.0
 20
0.0
 30
0.0
  0
ENDBLK
  5
4C1
330
4B9
100
AcDbEntity
  8
0
100
AcDbBlockEnd
  0
BLOCK
  5
4BE
330
4BC
100
AcDbEntity
  8
0
 62
     7
100
AcDbBlockBegin
  2
AI9-BLK174
 70
     0
 71
     1
 10
0.0
 20
0.0
 30
0.0
  3
AI9-BLK174
  1

  0
MTEXT
  5
4BF
330
4BC
100
AcDbEntity
  8
0
 62
     7
100
AcDbMText
 10
-1.420068359374999
 20
1.449426978006978
 30
0.0
 40
2.817732777703151
 41
0.0
 71
     1
 72
     2
  1
\W0.75;\fMS Gothic|b0|i0|c128;：
  7
KANJISTD
 11
1.000000999999999
 21
0.0
 31
0.0
 73
     1
 44
1.0
  0
ENDBLK
  5
4C0
330
4BC
100
AcDbEntity
  8
0
100
AcDbBlockEnd
  0
BLOCK
  5
4C4
330
4C2
100
AcDbEntity
  8
0
 62
     7
100
AcDbBlockBegin
  2
AI9-BLK175
 70
     0
 71
     1
 10
0.0
 20
0.0
 30
0.0
  3
AI9-BLK175
  1

  0
INSERT
  5
4C6
330
4C2
100
AcDbEntity
  8
0
 62
     7
100
AcDbBlockReference
  2
AI9-BLK176
 10
0.0
 20
0.0
 30
0.0
  0
ENDBLK
  5
4CA
330
4C2
100
AcDbEntity
  8
0
100
AcDbBlockEnd
  0
BLOCK
  5
4C7
330
4C5
100
AcDbEntity
  8
0
 62
     7
100
AcDbBlockBegin
  2
AI9-BLK176
 70
     0
 71
     1
 10
0.0
 20
0.0
 30
0.0
  3
AI9-BLK176
  1

  0
MTEXT
  5
4C8
330
4C5
100
AcDbEntity
  8
0
 62
     7
100
AcDbMText
 10
-1.420068359374999
 20
1.449426978006978
 30
0.0
 40
2.817732777703151
 41
0.0
 71
     1
 72
     2
  1
\W0.75;\fMS Gothic|b0|i0|c128;)1
  7
STD
 11
1.000000999999999
 21
0.0
 31
0.0
 73
     1
 44
1.0
  0
ENDBLK
  5
4C9
330
4C5
100
AcDbEntity
  8
0
100
AcDbBlockEnd
  0
BLOCK
  5
4CD
330
4CB
100
AcDbEntity
  8
0
 62
     7
100
AcDbBlockBegin
  2
AI9-BLK177
 70
     0
 71
     1
 10
0.0
 20
0.0
 30
0.0
  3
AI9-BLK177
  1

  0
INSERT
  5
4CF
330
4CB
100
AcDbEntity
  8
0
 62
     7
100
AcDbBlockReference
  2
AI9-BLK178
 10
0.0
 20
0.0
 30
0.0
  0
ENDBLK
  5
4D3
330
4CB
100
AcDbEntity
  8
0
100
AcDbBlockEnd
  0
BLOCK
  5
4D0
330
4CE
100
AcDbEntity
  8
0
 62
     7
100
AcDbBlockBegin
  2
AI9-BLK178
 70
     0
 71
     1
 10
0.0
 20
0.0
 30
0.0
  3
AI9-BLK178
  1

  0
MTEXT
  5
4D1
330
4CE
100
AcDbEntity
  8
0
 62
     7
100
AcDbMText
 10
-1.420068359374999
 20
1.449426978006978
 30
0.0
 40
2.817732777703151
 41
0.0
 71
     1
 72
     2
  1
\W0.75;\fMS Gothic|b0|i0|c128;本
  7
KANJISTD
 11
1.000000999999999
 21
0.0
 31
0.0
 73
     1
 44
1.0
  0
ENDBLK
  5
4D2
330
4CE
100
AcDbEntity
  8
0
100
AcDbBlockEnd
  0
BLOCK
  5
4D6
330
4D4
100
AcDbEntity
  8
0
 62
     7
100
AcDbBlockBegin
  2
AI9-BLK179
 70
     0
 71
     1
 10
0.0
 20
0.0
 30
0.0
  3
AI9-BLK179
  1

  0
INSERT
  5
4D8
330
4D4
100
AcDbEntity
  8
0
 62
     7
100
AcDbBlockReference
  2
AI9-BLK180
 10
0.0
 20
0.0
 30
0.0
  0
ENDBLK
  5
4DC
330
4D4
100
AcDbEntity
  8
0
100
AcDbBlockEnd
  0
BLOCK
  5
4D9
330
4D7
100
AcDbEntity
  8
0
 62
     7
100
AcDbBlockBegin
  2
AI9-BLK180
 70
     0
 71
     1
 10
0.0
 20
0.0
 30
0.0
  3
AI9-BLK180
  1

  0
MTEXT
  5
4DA
330
4D7
100
AcDbEntity
  8
0
 62
     7
100
AcDbMText
 10
-1.420068359374999
 20
1.449426978006978
 30
0.0
 40
2.817732777703151
 41
0.0
 71
     1
 72
     2
  1
\W0.75;\fMS Gothic|b0|i0|c128;(2
  7
STD
 11
1.000000999999999
 21
0.0
 31
0.0
 73
     1
 44
1.0
  0
ENDBLK
  5
4DB
330
4D7
100
AcDbEntity
  8
0
100
AcDbBlockEnd
  0
BLOCK
  5
4DF
330
4DD
100
AcDbEntity
  8
0
 62
     7
100
AcDbBlockBegin
  2
AI9-BLK181
 70
     0
 71
     1
 10
0.0
 20
0.0
 30
0.0
  3
AI9-BLK181
  1

  0
INSERT
  5
4E1
330
4DD
100
AcDbEntity
  8
0
 62
     7
100
AcDbBlockReference
  2
AI9-BLK182
 10
0.0
 20
0.0
 30
0.0
  0
ENDBLK
  5
4E5
330
4DD
100
AcDbEntity
  8
0
100
AcDbBlockEnd
  0
BLOCK
  5
4E2
330
4E0
100
AcDbEntity
  8
0
 62
     7
100
AcDbBlockBegin
  2
AI9-BLK182
 70
     0
 71
     1
 10
0.0
 20
0.0
 30
0.0
  3
AI9-BLK182
  1

  0
MTEXT
  5
4E3
330
4E0
100
AcDbEntity
  8
0
 62
     7
100
AcDbMText
 10
-7.10068630642361
 20
1.449426978006978
 30
0.0
 40
2.817732777703151
 41
0.0
 71
     1
 72
     2
  1
\W0.75;\fMS Gothic|b0|i0|c128;セットピン
  7
KANJISTD
 11
1.000000999999999
 21
0.0
 31
0.0
 73
     1
 44
1.0
  0
ENDBLK
  5
4E4
330
4E0
100
AcDbEntity
  8
0
100
AcDbBlockEnd
  0
BLOCK
  5
4E8
330
4E6
100
AcDbEntity
  8
0
 62
     7
100
AcDbBlockBegin
  2
AI9-BLK183
 70
     0
 71
     1
 10
0.0
 20
0.0
 30
0.0
  3
AI9-BLK183
  1

  0
INSERT
  5
4EA
330
4E6
100
AcDbEntity
  8
0
 62
     7
100
AcDbBlockReference
  2
AI9-BLK184
 10
0.0
 20
0.0
 30
0.0
  0
ENDBLK
  5
4EE
330
4E6
100
AcDbEntity
  8
0
100
AcDbBlockEnd
  0
BLOCK
  5
4EB
330
4E9
100
AcDbEntity
  8
0
 62
     7
100
AcDbBlockBegin
  2
AI9-BLK184
 70
     0
 71
     1
 10
0.0
 20
0.0
 30
0.0
  3
AI9-BLK184
  1

  0
MTEXT
  5
4EC
330
4E9
100
AcDbEntity
  8
0
 62
     7
100
AcDbMText
 10
-0.7100341796875
 20
1.449426978006978
 30
0.0
 40
2.817732777703151
 41
0.0
 71
     1
 72
     2
  1
\W0.75;\fMS Gothic|b0|i0|c128; 
  7
STD
 11
1.000000999999999
 21
0.0
 31
0.0
 73
     1
 44
1.0
  0
ENDBLK
  5
4ED
330
4E9
100
AcDbEntity
  8
0
100
AcDbBlockEnd
  0
ENDSEC
  0
SECTION
  2
ENTITIES
  0
POLYLINE
  5
4FB
330
A
100
AcDbEntity
  8
0
 62
   222
100
AcDb2dPolyline
 66
     1
 10
0.0
 20
0.0
 30
0.0
 70
     1
  0
VERTEX
  5
4FC
330
4FB
100
AcDbEntity
  8
0
 62
   222
100
AcDbVertex
100
AcDb2dVertex
 10
79.99373914930555
 20
197.1915812174478
 30
0.0
  0
VERTEX
  5
4FD
330
4FB
100
AcDbEntity
  8
0
 62
   222
100
AcDbVertex
100
AcDb2dVertex
 10
64.44809027777776
 20
197.1915812174478
 30
0.0
  0
VERTEX
  5
4FE
330
4FB
100
AcDbEntity
  8
0
 62
   222
100
AcDbVertex
100
AcDb2dVertex
 10
64.44809027777776
 20
207.1909708658854
 30
0.0
  0
VERTEX
  5
4FF
330
4FB
100
AcDbEntity
  8
0
 62
   222
100
AcDbVertex
100
AcDb2dVertex
 10
79.99373914930555
 20
207.1909708658854
 30
0.0
  0
SEQEND
  5
500
330
4FB
100
AcDbEntity
  8
0
 62
   222
  0
HATCH
  5
4FA
330
A
100
AcDbEntity
  8
0
 62
   254
100
AcDbHatch
 10
0.0
 20
0.0
 30
0.0
210
0.0
220
0.0
230
1.0
  2
SOLID
 70
     1
 71
     0
 91
        1
 92
        3
 72
     0
 73
     1
 93
        4
 10
79.99373914930555
 20
197.1915812174478
 10
64.44809027777776
 20
197.1915812174478
 10
64.44809027777776
 20
207.1909708658854
 10
79.99373914930555
 20
207.1909708658854
 97
        0
 75
     0
 76
     1
 98
        1
 10
0.0
 20
0.0
  0
POLYLINE
  5
4F4
330
A
100
AcDbEntity
  8
0
 62
   222
100
AcDb2dPolyline
 66
     1
 10
0.0
 20
0.0
 30
0.0
 70
     1
  0
VERTEX
  5
4F5
330
4F4
100
AcDbEntity
  8
0
 62
   222
100
AcDbVertex
100
AcDb2dVertex
 10
79.99373914930555
 20
177.1950412326388
 30
0.0
  0
VERTEX
  5
4F6
330
4F4
100
AcDbEntity
  8
0
 62
   222
100
AcDbVertex
100
AcDb2dVertex
 10
64.44809027777776
 20
177.1950412326388
 30
0.0
  0
VERTEX
  5
4F7
330
4F4
100
AcDbEntity
  8
0
 62
   222
100
AcDbVertex
100
AcDb2dVertex
 10
64.44809027777776
 20
187.1935696072048
 30
0.0
  0
VERTEX
  5
4F8
330
4F4
100
AcDbEntity
  8
0
 62
   222
100
AcDbVertex
100
AcDb2dVertex
 10
79.99373914930555
 20
187.1935696072048
 30
0.0
  0
SEQEND
  5
4F9
330
4F4
100
AcDbEntity
  8
0
 62
   222
  0
HATCH
  5
4F3
330
A
100
AcDbEntity
  8
0
 62
   254
100
AcDbHatch
 10
0.0
 20
0.0
 30
0.0
210
0.0
220
0.0
230
1.0
  2
SOLID
 70
     1
 71
     0
 91
        1
 92
        3
 72
     0
 73
     1
 93
        4
 10
79.99373914930555
 20
177.1950412326388
 10
64.44809027777776
 20
177.1950412326388
 10
64.44809027777776
 20
187.1935696072048
 10
79.99373914930555
 20
187.1935696072048
 97
        0
 75
     0
 76
     1
 98
        1
 10
0.0
 20
0.0
  0
LINE
  5
4F2
330
A
100
AcDbEntity
  8
0
 62
     7
100
AcDbLine
 10
64.73592800564235
 20
217.4141194661458
 30
0.0
 11
80.07969428168403
 21
217.4141194661458
 31
0.0
  0
CIRCLE
  5
4F1
330
A
100
AcDbEntity
  8
0
 62
     7
100
AcDbCircle
 10
138.5975694444444
 20
174.6630683051215
 30
0.0
 40
1.800062391493055
  0
HATCH
  5
4F0
330
A
100
AcDbEntity
  8
0
 62
   255
100
AcDbHatch
 10
0.0
 20
0.0
 30
0.0
210
0.0
220
0.0
230
1.0
  2
SOLID
 70
     1
 71
     0
 91
        1
 92
        1
 93
        1
 72
     4
 94
        3
 73
     0
 74
     0
 95
       17
 96
       13
 40
0.0
 40
0.0
 40
0.0
 40
0.0
 40
1.0
 40
1.0
 40
1.0
 40
2.0
 40
2.0
 40
2.0
 40
3.0
 40
3.0
 40
3.0
 40
4.0
 40
4.0
 40
4.0
 40
4.0
 10
140.3976318359374
 20
174.6630683051215
 10
140.3976318359374
 20
175.6573228624131
 10
139.591824001736
 20
176.4629584418402
 10
138.597913953993
 20
176.4629584418402
 10
137.6036593967013
 20
176.4629584418402
 10
136.7975070529513
 20
175.6573228624131
 10
136.7975070529513
 20
174.6630683051215
 10
136.7975070529513
 20
173.669502766927
 10
137.6036593967013
 20
172.8630059136284
 10
138.597913953993
 20
172.8630059136284
 10
139.591824001736
 20
172.8630059136284
 10
140.3976318359374
 20
173.669502766927
 10
140.3976318359374
 20
174.6630683051215
 97
        0
 75
     0
 76
     1
 98
        1
 10
0.0
 20
0.0
  0
INSERT
  5
4AE
330
A
100
AcDbEntity
  8
0
 62
     7
100
AcDbBlockReference
  2
AI9-BLK170
 10
119.3081353081597
 20
164.9431620279947
 30
0.0
  0
POLYLINE
  5
4A7
330
A
100
AcDbEntity
  8
0
 62
     7
100
AcDb2dPolyline
 66
     1
 10
0.0
 20
0.0
 30
0.0
 70
     1
  0
VERTEX
  5
4A8
330
4A7
100
AcDbEntity
  8
0
 62
     7
100
AcDbVertex
100
AcDb2dVertex
 10
104.801527235243
 20
168.0762179904513
 30
0.0
  0
VERTEX
  5
4A9
330
4A7
100
AcDbEntity
  8
0
 62
     7
100
AcDbVertex
100
AcDb2dVertex
 10
135.4366943359375
 20
168.0762179904513
 30
0.0
  0
VERTEX
  5
4AA
330
4A7
100
AcDbEntity
  8
0
 62
     7
100
AcDbVertex
100
AcDb2dVertex
 10
135.4366943359375
 20
161.7865071614583
 30
0.0
  0
VERTEX
  5
4AB
330
4A7
100
AcDbEntity
  8
0
 62
     7
100
AcDbVertex
100
AcDb2dVertex
 10
104.801527235243
 20
161.7045138888888
 30
0.0
  0
SEQEND
  5
4AC
330
4A7
100
AcDbEntity
  8
0
 62
     7
  0
LINE
  5
4A6
330
A
100
AcDbEntity
  8
0
  6
AI9-LType2
 62
     7
100
AcDbLine
 10
138.6010145399305
 20
180.1798719618055
 30
0.0
 11
138.6010145399305
 21
170.5063883463541
 31
0.0
  0
LINE
  5
4A5
330
A
100
AcDbEntity
  8
0
 62
     7
100
AcDbLine
 10
134.6625813802083
 20
172.8630059136284
 30
0.0
 11
143.3383653428819
 21
172.8630059136284
 31
0.0
  0
LINE
  5
4A4
330
A
100
AcDbEntity
  8
0
 62
     7
100
AcDbLine
 10
134.4420952690972
 20
176.4629584418402
 30
0.0
 11
143.1178792317708
 21
176.4629584418402
 31
0.0
  0
LINE
  5
4A3
330
A
100
AcDbEntity
  8
0
 62
     7
100
AcDbLine
 10
104.3564208984374
 20
184.0039279513888
 30
0.0
 11
132.1714328342013
 21
184.0039279513888
 31
0.0
  0
LINE
  5
4A2
330
A
100
AcDbEntity
  8
0
 62
     7
100
AcDbLine
 10
143.285999891493
 20
172.8285549587673
 30
0.0
 11
143.285999891493
 21
176.4608913845486
 31
0.0
  0
INSERT
  5
48D
330
A
100
AcDbEntity
  8
0
 62
     7
100
AcDbBlockReference
  2
AI9-BLK165
 10
146.1089111328124
 20
174.7903645833333
 30
0.0
  0
LINE
  5
48B
330
A
100
AcDbEntity
  8
0
 62
     7
100
AcDbLine
 10
44.3137464735243
 20
218.4600504557291
 30
0.0
 11
44.3137464735243
 21
177.4604858398437
 31
0.0
  0
INSERT
  5
464
330
A
100
AcDbEntity
  8
0
 62
     7
100
AcDbBlockReference
  2
AI9-BLK156
 10
102.3642083062065
 20
32.55701361762152
 30
0.0
  0
INSERT
  5
43C
330
A
100
AcDbEntity
  8
0
 62
     7
100
AcDbBlockReference
  2
AI9-BLK147
 10
102.3642083062065
 20
24.95816650390624
 30
0.0
  0
INSERT
  5
3F9
330
A
100
AcDbEntity
  8
0
 62
     7
100
AcDbBlockReference
  2
AI9-BLK132
 10
146.55849609375
 20
32.10157199435763
 30
0.0
  0
INSERT
  5
3F0
330
A
100
AcDbEntity
  8
0
 62
     7
100
AcDbBlockReference
  2
AI9-BLK130
 10
53.13973659939236
 20
24.30187581380208
 30
0.0
  0
LINE
  5
3EE
330
A
100
AcDbEntity
  8
0
 62
     7
100
AcDbLine
 10
110.8934895833333
 20
36.00193684895833
 30
0.0
 11
110.8934895833333
 21
28.31110568576388
 31
0.0
  0
LINE
  5
3ED
330
A
100
AcDbEntity
  8
0
 62
     7
100
AcDbLine
 10
110.8934895833333
 20
28.56121961805555
 30
0.0
 11
110.8934895833333
 21
20.87038845486111
 31
0.0
  0
LINE
  5
3EC
330
A
100
AcDbEntity
  8
0
 62
     7
100
AcDbLine
 10
146.3951985677083
 20
36.00193684895833
 30
0.0
 11
146.3951985677083
 21
28.31110568576388
 31
0.0
  0
LINE
  5
3EB
330
A
100
AcDbEntity
  8
0
 62
     7
100
AcDbLine
 10
161.2731879340277
 20
36.00193684895833
 30
0.0
 11
161.2731879340277
 21
28.31110568576388
 31
0.0
  0
POLYLINE
  5
3E4
330
A
100
AcDbEntity
  8
0
 62
     7
100
AcDb2dPolyline
 66
     1
 10
0.0
 20
0.0
 30
0.0
  0
VERTEX
  5
3E5
330
3E4
100
AcDbEntity
  8
0
 62
     7
100
AcDbVertex
100
AcDb2dVertex
 10
200.4074055989583
 20
14.11111111111111
 30
0.0
  0
VERTEX
  5
3E6
330
3E4
100
AcDbEntity
  8
0
 62
     7
100
AcDbVertex
100
AcDb2dVertex
 10
11.93656684027777
 20
14.11111111111111
 30
0.0
  0
VERTEX
  5
3E7
330
3E4
100
AcDbEntity
  8
0
 62
     7
100
AcDbVertex
100
AcDb2dVertex
 10
11.93656684027777
 20
286.7888685438367
 30
0.0
  0
VERTEX
  5
3E8
330
3E4
100
AcDbEntity
  8
0
 62
     7
100
AcDbVertex
100
AcDb2dVertex
 10
200.4074055989583
 20
286.7888685438367
 30
0.0
  0
VERTEX
  5
3E9
330
3E4
100
AcDbEntity
  8
0
 62
     7
100
AcDbVertex
100
AcDb2dVertex
 10
200.4074055989583
 20
14.66163736979166
 30
0.0
  0
SEQEND
  5
3EA
330
3E4
100
AcDbEntity
  8
0
 62
     7
  0
LINE
  5
3E3
330
A
100
AcDbEntity
  8
0
 62
     7
100
AcDbLine
 10
92.99897460937499
 20
20.93171115451388
 30
0.0
 11
200.2554768880208
 21
20.93171115451388
 31
0.0
  0
LINE
  5
3E2
330
A
100
AcDbEntity
  8
0
 62
     7
100
AcDbLine
 10
92.99897460937499
 20
28.31110568576388
 30
0.0
 11
200.2554768880208
 21
28.31110568576388
 31
0.0
  0
LINE
  5
3E1
330
A
100
AcDbEntity
  8
0
 62
     7
100
AcDbLine
 10
92.99897460937499
 20
36.00193684895833
 30
0.0
 11
92.99897460937499
 21
14.11111111111111
 31
0.0
  0
LINE
  5
3E0
330
A
100
AcDbEntity
  8
0
 62
     7
100
AcDbLine
 10
11.93656684027777
 20
36.00193684895833
 30
0.0
 11
200.3998263888888
 21
36.00193684895833
 31
0.0
  0
INSERT
  5
3D8
330
A
100
AcDbEntity
  8
0
  6
AI9-LType1
 62
     7
100
AcDbBlockReference
  2
AI9-BLK129
 10
72.3056640625
 20
246.4395657009548
 30
0.0
  0
LINE
  5
3D6
330
A
100
AcDbEntity
  8
0
  6
AI9-LType1
 62
     7
100
AcDbLine
 10
72.3399427625868
 20
59.62840169270833
 30
0.0
 11
72.3399427625868
 21
105.8950005425347
 31
0.0
  0
SPLINE
  5
3D5
330
A
100
AcDbEntity
  8
0
 62
     7
100
AcDbSpline
210
0.0
220
0.0
230
1.0
 70
     9
 71
     3
 72
    35
 73
    31
 74
     0
 42
0.0000000001
 43
0.0000000001
 40
0.0
 40
0.0
 40
0.0
 40
0.0
 40
1.0
 40
1.0
 40
1.0
 40
2.0
 40
2.0
 40
2.0
 40
3.0
 40
3.0
 40
3.0
 40
4.0
 40
4.0
 40
4.0
 40
5.0
 40
5.0
 40
5.0
 40
6.0
 40
6.0
 40
6.0
 40
7.0
 40
7.0
 40
7.0
 40
8.0
 40
8.0
 40
8.0
 40
9.0
 40
9.0
 40
9.0
 40
10.0
 40
10.0
 40
10.0
 40
10.0
 10
77.61472846137152
 20
84.8413330078125
 30
0.0
 10
74.89103597005208
 20
85.10763888888888
 30
0.0
 10
75.18541937934028
 20
87.6570095486111
 30
0.0
 10
75.18541937934028
 20
87.6570095486111
 30
0.0
 10
75.18541937934028
 20
89.0863796657986
 30
0.0
 10
74.02700602213541
 20
90.24530978732638
 30
0.0
 10
72.59746365017361
 20
90.24530978732638
 30
0.0
 10
71.1682657877604
 20
90.24530978732638
 30
0.0
 10
70.00950792100694
 20
89.0863796657986
 30
0.0
 10
70.00950792100694
 20
87.6570095486111
 30
0.0
 10
70.00950792100694
 20
87.6570095486111
 30
0.0
 10
70.27426350911458
 20
85.05596245659722
 30
0.0
 10
67.59105088975694
 20
84.8413330078125
 30
0.0
 10
66.16615939670139
 20
84.72764485677082
 30
0.0
 10
65.00292290581596
 20
83.68274739583332
 30
0.0
 10
65.00292290581596
 20
82.25337727864582
 30
0.0
 10
65.00292290581596
 20
80.82366265190971
 30
0.0
 10
66.16150851779512
 20
79.66542154947916
 30
0.0
 10
67.59105088975694
 20
79.66542154947916
 30
0.0
 10
67.59105088975694
 20
79.66542154947916
 30
0.0
 10
72.75214843749999
 20
79.55586751302083
 30
0.0
 10
72.75214843749999
 20
79.55586751302083
 30
0.0
 10
72.75214843749999
 20
79.55586751302083
 30
0.0
 10
77.61472846137152
 20
79.66542154947916
 30
0.0
 10
77.61472846137152
 20
79.66542154947916
 30
0.0
 10
79.04409857855902
 20
79.66542154947916
 30
0.0
 10
80.20251193576388
 20
80.82366265190971
 30
0.0
 10
80.20251193576388
 20
82.25337727864582
 30
0.0
 10
80.20251193576388
 20
83.68274739583332
 30
0.0
 10
79.03703613281249
 20
84.70249565972222
 30
0.0
 10
77.61472846137152
 20
84.8413330078125
 30
0.0
  0
SPLINE
  5
3D4
330
A
100
AcDbEntity
  8
0
 62
     7
100
AcDbSpline
210
0.0
220
0.0
230
1.0
 70
     9
 71
     3
 72
    47
 73
    43
 74
     0
 42
0.0000000001
 43
0.0000000001
 40
0.0
 40
0.0
 40
0.0
 40
0.0
 40
1.0
 40
1.0
 40
1.0
 40
2.0
 40
2.0
 40
2.0
 40
3.0
 40
3.0
 40
3.0
 40
4.0
 40
4.0
 40
4.0
 40
5.0
 40
5.0
 40
5.0
 40
6.0
 40
6.0
 40
6.0
 40
7.0
 40
7.0
 40
7.0
 40
8.0
 40
8.0
 40
8.0
 40
9.0
 40
9.0
 40
9.0
 40
10.0
 40
10.0
 40
10.0
 40
11.0
 40
11.0
 40
11.0
 40
12.0
 40
12.0
 40
12.0
 40
13.0
 40
13.0
 40
13.0
 40
14.0
 40
14.0
 40
14.0
 40
14.0
 10
77.5921630859375
 20
80.6651882595486
 30
0.0
 10
77.5921630859375
 20
80.6651882595486
 30
0.0
 10
72.79469536675346
 20
80.55701226128471
 30
0.0
 10
72.75145941840277
 20
80.55597873263888
 30
0.0
 10
72.70787896050347
 20
80.55701226128471
 30
0.0
 10
67.59105088975694
 20
80.6655327690972
 30
0.0
 10
67.59105088975694
 20
80.6655327690972
 30
0.0
 10
66.71530761718749
 20
80.6655327690972
 30
0.0
 10
66.00286187065972
 20
81.37763400607637
 30
0.0
 10
66.00286187065972
 20
82.25337727864582
 30
0.0
 10
66.00286187065972
 20
83.21076931423609
 30
0.0
 10
66.84191487630208
 20
83.77852105034721
 30
0.0
 10
67.67080485026041
 20
83.84466688368055
 30
0.0
 10
69.01938747829861
 20
83.95249837239582
 30
0.0
 10
69.79005533854166
 20
84.55986870659721
 30
0.0
 10
70.19898817274304
 20
85.05045030381943
 30
0.0
 10
70.91815185546875
 20
85.91275770399304
 30
0.0
 10
71.01719835069444
 20
86.95489908854167
 30
0.0
 10
71.01719835069444
 20
87.46305067274304
 30
0.0
 10
71.01719835069444
 20
87.5484890407986
 30
0.0
 10
71.01444227430555
 20
87.61394585503472
 30
0.0
 10
71.01134168836805
 20
87.665966796875
 30
0.0
 10
71.01633707682291
 20
88.53723144531249
 30
0.0
 10
71.72499321831596
 20
89.24519856770833
 30
0.0
 10
72.59746365017361
 20
89.24519856770833
 30
0.0
 10
73.46907280815971
 20
89.24519856770833
 30
0.0
 10
74.17686767578124
 20
88.53860948350693
 30
0.0
 10
74.18324110243054
 20
87.66803385416666
 30
0.0
 10
74.17910698784722
 20
87.60946723090276
 30
0.0
 10
74.17566189236111
 20
87.53505316840277
 30
0.0
 10
74.17566189236111
 20
87.43893500434026
 30
0.0
 10
74.17566189236111
 20
86.93009440104166
 30
0.0
 10
74.27608642578125
 20
85.9516872829861
 30
0.0
 10
74.95080837673611
 20
85.11625162760415
 30
0.0
 10
75.35819091796874
 20
84.61154513888889
 30
0.0
 10
76.13419867621527
 20
83.98143717447915
 30
0.0
 10
77.51757676866319
 20
83.84604492187499
 30
0.0
 10
78.32906901041666
 20
83.76680772569443
 30
0.0
 10
79.20257297092013
 20
83.23454047309027
 30
0.0
 10
79.20257297092013
 20
82.25337727864582
 30
0.0
 10
79.20257297092013
 20
81.37763400607637
 30
0.0
 10
78.49029947916666
 20
80.6655327690972
 30
0.0
 10
77.5921630859375
 20
80.6651882595486
 30
0.0
  0
LINE
  5
3D3
330
A
100
AcDbEntity
  8
0
 62
     7
100
AcDbLine
 10
36.0878919813368
 20
218.4600504557291
 30
0.0
 11
52.02008056640624
 21
218.4600504557291
 31
0.0
  0
LINE
  5
3D2
330
A
100
AcDbEntity
  8
0
 62
     7
100
AcDbLine
 10
64.1512953016493
 20
263.9594265407985
 30
0.0
 11
80.46399468315971
 21
263.9594265407985
 31
0.0
  0
LINE
  5
3D1
330
A
100
AcDbEntity
  8
0
 62
     7
100
AcDbLine
 10
64.1512953016493
 20
256.2272542317708
 30
0.0
 11
64.1512953016493
 21
263.9594265407985
 31
0.0
  0
LINE
  5
3D0
330
A
100
AcDbEntity
  8
0
 62
     7
100
AcDbLine
 10
80.46003282335069
 20
256.2272542317708
 30
0.0
 11
80.46003282335069
 21
263.9594265407985
 31
0.0
  0
LINE
  5
3CF
330
A
100
AcDbEntity
  8
0
 62
     7
100
AcDbLine
 10
36.0878919813368
 20
138.7412299262152
 30
0.0
 11
48.65267198350694
 21
138.7412299262152
 31
0.0
  0
LINE
  5
3CE
330
A
100
AcDbEntity
  8
0
 62
     7
100
AcDbLine
 10
45.24116617838541
 20
149.2663411458333
 30
0.0
 11
52.6324462890625
 21
149.2663411458333
 31
0.0
  0
LINE
  5
3CD
330
A
100
AcDbEntity
  8
0
 62
     7
100
AcDbLine
 10
44.3137464735243
 20
197.3593573676215
 30
0.0
 11
51.70502658420138
 21
197.3593573676215
 31
0.0
  0
LINE
  5
3CC
330
A
100
AcDbEntity
  8
0
 62
     7
100
AcDbLine
 10
44.3137464735243
 20
177.3628173828124
 30
0.0
 11
51.70502658420138
 21
177.3628173828124
 31
0.0
  0
LINE
  5
3CB
330
A
100
AcDbEntity
  8
0
 62
     7
100
AcDbLine
 10
44.3137464735243
 20
187.3613457573784
 30
0.0
 11
51.70502658420138
 21
187.3613457573784
 31
0.0
  0
LINE
  5
3CA
330
A
100
AcDbEntity
  8
0
 62
     7
100
AcDbLine
 10
44.33286675347221
 20
207.3587470160589
 30
0.0
 11
51.7241468641493
 21
207.3587470160589
 31
0.0
  0
LINE
  5
3C9
330
A
100
AcDbEntity
  8
0
 62
     7
100
AcDbLine
 10
45.35519883897569
 20
149.1815917968749
 30
0.0
 11
45.35519883897569
 21
138.7412299262152
 31
0.0
  0
LINE
  5
3C8
330
A
100
AcDbEntity
  8
0
 62
     7
100
AcDbLine
 10
36.0878919813368
 20
138.7412299262152
 30
0.0
 11
36.0878919813368
 21
218.7361748589409
 31
0.0
  0
HATCH
  5
3C7
330
A
100
AcDbEntity
  8
0
 62
     7
100
AcDbHatch
 10
0.0
 20
0.0
 30
0.0
210
0.0
220
0.0
230
1.0
  2
SOLID
 70
     1
 71
     0
 91
        1
 92
        1
 93
        1
 72
     4
 94
        3
 73
     0
 74
     0
 95
       17
 96
       13
 40
0.0
 40
0.0
 40
0.0
 40
0.0
 40
1.0
 40
1.0
 40
1.0
 40
2.0
 40
2.0
 40
2.0
 40
3.0
 40
3.0
 40
3.0
 40
4.0
 40
4.0
 40
4.0
 40
4.0
 10
36.31630181206596
 20
138.7308946397569
 10
36.31630181206596
 20
138.6261637369791
 10
36.23155246310763
 20
138.5414143880208
 10
36.12682156032986
 20
138.5414143880208
 10
36.02209065755207
 20
138.5414143880208
 10
35.93734130859374
 20
138.6261637369791
 10
35.93734130859374
 20
138.7308946397569
 10
35.93734130859374
 20
138.8356255425347
 10
36.02209065755207
 20
138.920374891493
 10
36.12682156032986
 20
138.920374891493
 10
36.23155246310763
 20
138.920374891493
 10
36.31630181206596
 20
138.8356255425347
 10
36.31630181206596
 20
138.7308946397569
 97
        0
 75
     0
 76
     1
 98
        1
 10
0.0
 20
0.0
  0
HATCH
  5
3C6
330
A
100
AcDbEntity
  8
0
 62
     7
100
AcDbHatch
 10
0.0
 20
0.0
 30
0.0
210
0.0
220
0.0
230
1.0
  2
SOLID
 70
     1
 71
     0
 91
        1
 92
        1
 93
        1
 72
     4
 94
        3
 73
     0
 74
     0
 95
       17
 96
       13
 40
0.0
 40
0.0
 40
0.0
 40
0.0
 40
1.0
 40
1.0
 40
1.0
 40
2.0
 40
2.0
 40
2.0
 40
3.0
 40
3.0
 40
3.0
 40
4.0
 40
4.0
 40
4.0
 40
4.0
 10
45.61874864366319
 20
138.7308946397569
 10
45.61874864366319
 20
138.6261637369791
 10
45.53399929470486
 20
138.5414143880208
 10
45.42926839192708
 20
138.5414143880208
 10
45.3245374891493
 20
138.5414143880208
 10
45.23978814019097
 20
138.6261637369791
 10
45.23978814019097
 20
138.7308946397569
 10
45.23978814019097
 20
138.8356255425347
 10
45.3245374891493
 20
138.920374891493
 10
45.42926839192708
 20
138.920374891493
 10
45.53399929470486
 20
138.920374891493
 10
45.61874864366319
 20
138.8356255425347
 10
45.61874864366319
 20
138.7308946397569
 97
        0
 75
     0
 76
     1
 98
        1
 10
0.0
 20
0.0
  0
HATCH
  5
3C5
330
A
100
AcDbEntity
  8
0
 62
     7
100
AcDbHatch
 10
0.0
 20
0.0
 30
0.0
210
0.0
220
0.0
230
1.0
  2
SOLID
 70
     1
 71
     0
 91
        1
 92
        1
 93
        1
 72
     4
 94
        3
 73
     0
 74
     0
 95
       17
 96
       13
 40
0.0
 40
0.0
 40
0.0
 40
0.0
 40
1.0
 40
1.0
 40
1.0
 40
2.0
 40
2.0
 40
2.0
 40
3.0
 40
3.0
 40
3.0
 40
4.0
 40
4.0
 40
4.0
 40
4.0
 10
45.61874864366319
 20
149.203640407986
 10
45.61874864366319
 20
149.0990817599826
 10
45.53399929470486
 20
149.0143324110243
 10
45.42926839192708
 20
149.0143324110243
 10
45.3245374891493
 20
149.0143324110243
 10
45.23978814019097
 20
149.0990817599826
 10
45.23978814019097
 20
149.203640407986
 10
45.23978814019097
 20
149.3083713107638
 10
45.3245374891493
 20
149.3931206597222
 10
45.42926839192708
 20
149.3931206597222
 10
45.53399929470486
 20
149.3931206597222
 10
45.61874864366319
 20
149.3083713107638
 10
45.61874864366319
 20
149.203640407986
 97
        0
 75
     0
 76
     1
 98
        1
 10
0.0
 20
0.0
  0
HATCH
  5
3C4
330
A
100
AcDbEntity
  8
0
 62
     7
100
AcDbHatch
 10
0.0
 20
0.0
 30
0.0
210
0.0
220
0.0
230
1.0
  2
SOLID
 70
     1
 71
     0
 91
        1
 92
        1
 93
        1
 72
     4
 94
        3
 73
     0
 74
     0
 95
       17
 96
       13
 40
0.0
 40
0.0
 40
0.0
 40
0.0
 40
1.0
 40
1.0
 40
1.0
 40
2.0
 40
2.0
 40
2.0
 40
3.0
 40
3.0
 40
3.0
 40
4.0
 40
4.0
 40
4.0
 40
4.0
 10
36.20657552083333
 20
218.4330064561631
 10
36.20657552083333
 20
218.3282755533853
 10
36.121826171875
 20
218.243526204427
 10
36.01709526909722
 20
218.243526204427
 10
35.91236436631944
 20
218.243526204427
 10
35.8276150173611
 20
218.3282755533853
 10
35.8276150173611
 20
218.4330064561631
 10
35.8276150173611
 20
218.5377373589409
 10
35.91236436631944
 20
218.6224867078993
 10
36.01709526909722
 20
218.6224867078993
 10
36.121826171875
 20
218.6224867078993
 10
36.20657552083333
 20
218.5377373589409
 10
36.20657552083333
 20
218.4330064561631
 97
        0
 75
     0
 76
     1
 98
        1
 10
0.0
 20
0.0
  0
HATCH
  5
3C3
330
A
100
AcDbEntity
  8
0
 62
     7
100
AcDbHatch
 10
0.0
 20
0.0
 30
0.0
210
0.0
220
0.0
230
1.0
  2
SOLID
 70
     1
 71
     0
 91
        1
 92
        1
 93
        1
 72
     4
 94
        3
 73
     0
 74
     0
 95
       17
 96
       13
 40
0.0
 40
0.0
 40
0.0
 40
0.0
 40
1.0
 40
1.0
 40
1.0
 40
2.0
 40
2.0
 40
2.0
 40
3.0
 40
3.0
 40
3.0
 40
4.0
 40
4.0
 40
4.0
 40
4.0
 10
44.48462320963542
 20
218.4330064561631
 10
44.48462320963542
 20
218.3282755533853
 10
44.39987386067707
 20
218.243526204427
 10
44.2951429578993
 20
218.243526204427
 10
44.19041205512153
 20
218.243526204427
 10
44.10566270616318
 20
218.3282755533853
 10
44.10566270616318
 20
218.4330064561631
 10
44.10566270616318
 20
218.5377373589409
 10
44.19041205512153
 20
218.6224867078993
 10
44.2951429578993
 20
218.6224867078993
 10
44.39987386067707
 20
218.6224867078993
 10
44.48462320963542
 20
218.5377373589409
 10
44.48462320963542
 20
218.4330064561631
 97
        0
 75
     0
 76
     1
 98
        1
 10
0.0
 20
0.0
  0
HATCH
  5
3C2
330
A
100
AcDbEntity
  8
0
 62
     7
100
AcDbHatch
 10
0.0
 20
0.0
 30
0.0
210
0.0
220
0.0
230
1.0
  2
SOLID
 70
     1
 71
     0
 91
        1
 92
        1
 93
        1
 72
     4
 94
        3
 73
     0
 74
     0
 95
       17
 96
       13
 40
0.0
 40
0.0
 40
0.0
 40
0.0
 40
1.0
 40
1.0
 40
1.0
 40
2.0
 40
2.0
 40
2.0
 40
3.0
 40
3.0
 40
3.0
 40
4.0
 40
4.0
 40
4.0
 40
4.0
 10
44.48462320963542
 20
207.306898328993
 10
44.48462320963542
 20
207.2021674262152
 10
44.39987386067707
 20
207.1174180772569
 10
44.2951429578993
 20
207.1174180772569
 10
44.19041205512153
 20
207.1174180772569
 10
44.10566270616318
 20
207.2021674262152
 10
44.10566270616318
 20
207.306898328993
 10
44.10566270616318
 20
207.4116292317707
 10
44.19041205512153
 20
207.4963785807291
 10
44.2951429578993
 20
207.4963785807291
 10
44.39987386067707
 20
207.4963785807291
 10
44.48462320963542
 20
207.4116292317707
 10
44.48462320963542
 20
207.306898328993
 97
        0
 75
     0
 76
     1
 98
        1
 10
0.0
 20
0.0
  0
HATCH
  5
3C1
330
A
100
AcDbEntity
  8
0
 62
     7
100
AcDbHatch
 10
0.0
 20
0.0
 30
0.0
210
0.0
220
0.0
230
1.0
  2
SOLID
 70
     1
 71
     0
 91
        1
 92
        1
 93
        1
 72
     4
 94
        3
 73
     0
 74
     0
 95
       17
 96
       13
 40
0.0
 40
0.0
 40
0.0
 40
0.0
 40
1.0
 40
1.0
 40
1.0
 40
2.0
 40
2.0
 40
2.0
 40
3.0
 40
3.0
 40
3.0
 40
4.0
 40
4.0
 40
4.0
 40
4.0
 10
44.48462320963542
 20
197.4019042968749
 10
44.48462320963542
 20
197.2971733940972
 10
44.39987386067707
 20
197.2124240451388
 10
44.2951429578993
 20
197.2124240451388
 10
44.19041205512153
 20
197.2124240451388
 10
44.10566270616318
 20
197.2971733940972
 10
44.10566270616318
 20
197.4019042968749
 10
44.10566270616318
 20
197.5066351996527
 10
44.19041205512153
 20
197.5913845486111
 10
44.2951429578993
 20
197.5913845486111
 10
44.39987386067707
 20
197.5913845486111
 10
44.48462320963542
 20
197.5066351996527
 10
44.48462320963542
 20
197.4019042968749
 97
        0
 75
     0
 76
     1
 98
        1
 10
0.0
 20
0.0
  0
HATCH
  5
3C0
330
A
100
AcDbEntity
  8
0
 62
     7
100
AcDbHatch
 10
0.0
 20
0.0
 30
0.0
210
0.0
220
0.0
230
1.0
  2
SOLID
 70
     1
 71
     0
 91
        1
 92
        1
 93
        1
 72
     4
 94
        3
 73
     0
 74
     0
 95
       17
 96
       13
 40
0.0
 40
0.0
 40
0.0
 40
0.0
 40
1.0
 40
1.0
 40
1.0
 40
2.0
 40
2.0
 40
2.0
 40
3.0
 40
3.0
 40
3.0
 40
4.0
 40
4.0
 40
4.0
 40
4.0
 10
44.48462320963542
 20
187.4154337565103
 10
44.48462320963542
 20
187.3107028537326
 10
44.39987386067707
 20
187.2259535047742
 10
44.2951429578993
 20
187.2259535047742
 10
44.19041205512153
 20
187.2259535047742
 10
44.10566270616318
 20
187.3107028537326
 10
44.10566270616318
 20
187.4154337565103
 10
44.10566270616318
 20
187.5201646592881
 10
44.19041205512153
 20
187.6049140082464
 10
44.2951429578993
 20
187.6049140082464
 10
44.39987386067707
 20
187.6049140082464
 10
44.48462320963542
 20
187.5201646592881
 10
44.48462320963542
 20
187.4154337565103
 97
        0
 75
     0
 76
     1
 98
        1
 10
0.0
 20
0.0
  0
HATCH
  5
3BF
330
A
100
AcDbEntity
  8
0
 62
     7
100
AcDbHatch
 10
0.0
 20
0.0
 30
0.0
210
0.0
220
0.0
230
1.0
  2
SOLID
 70
     1
 71
     0
 91
        1
 92
        1
 93
        1
 72
     4
 94
        3
 73
     0
 74
     0
 95
       17
 96
       13
 40
0.0
 40
0.0
 40
0.0
 40
0.0
 40
1.0
 40
1.0
 40
1.0
 40
2.0
 40
2.0
 40
2.0
 40
3.0
 40
3.0
 40
3.0
 40
4.0
 40
4.0
 40
4.0
 40
4.0
 10
44.48462320963542
 20
177.4017469618055
 10
44.48462320963542
 20
177.2970160590277
 10
44.39987386067707
 20
177.2122667100694
 10
44.2951429578993
 20
177.2122667100694
 10
44.19041205512153
 20
177.2122667100694
 10
44.10566270616318
 20
177.2970160590277
 10
44.10566270616318
 20
177.4017469618055
 10
44.10566270616318
 20
177.5064778645833
 10
44.19041205512153
 20
177.5912272135416
 10
44.2951429578993
 20
177.5912272135416
 10
44.39987386067707
 20
177.5912272135416
 10
44.48462320963542
 20
177.5064778645833
 10
44.48462320963542
 20
177.4017469618055
 97
        0
 75
     0
 76
     1
 98
        1
 10
0.0
 20
0.0
  0
HATCH
  5
3BE
330
A
100
AcDbEntity
  8
0
 62
     7
100
AcDbHatch
 10
0.0
 20
0.0
 30
0.0
210
0.0
220
0.0
230
1.0
  2
SOLID
 70
     1
 71
     0
 91
        1
 92
        1
 93
        1
 72
     4
 94
        3
 73
     0
 74
     0
 95
       17
 96
       13
 40
0.0
 40
0.0
 40
0.0
 40
0.0
 40
1.0
 40
1.0
 40
1.0
 40
2.0
 40
2.0
 40
2.0
 40
3.0
 40
3.0
 40
3.0
 40
4.0
 40
4.0
 40
4.0
 40
4.0
 10
143.2663628472222
 20
173.0624769422743
 10
143.37109375
 20
173.0624769422743
 10
143.4558430989583
 20
172.9777275933159
 10
143.4558430989583
 20
172.8729966905381
 10
143.4558430989583
 20
172.7682657877604
 10
143.37109375
 20
172.683516438802
 10
143.2663628472222
 20
172.683516438802
 10
143.1616319444444
 20
172.683516438802
 10
143.076882595486
 20
172.7682657877604
 10
143.076882595486
 20
172.8729966905381
 10
143.076882595486
 20
172.9777275933159
 10
143.1616319444444
 20
173.0624769422743
 10
143.2663628472222
 20
173.0624769422743
 97
        0
 75
     0
 76
     1
 98
        1
 10
0.0
 20
0.0
  0
HATCH
  5
3BD
330
A
100
AcDbEntity
  8
0
 62
     7
100
AcDbHatch
 10
0.0
 20
0.0
 30
0.0
210
0.0
220
0.0
230
1.0
  2
SOLID
 70
     1
 71
     0
 91
        1
 92
        1
 93
        1
 72
     4
 94
        3
 73
     0
 74
     0
 95
       17
 96
       13
 40
0.0
 40
0.0
 40
0.0
 40
0.0
 40
1.0
 40
1.0
 40
1.0
 40
2.0
 40
2.0
 40
2.0
 40
3.0
 40
3.0
 40
3.0
 40
4.0
 40
4.0
 40
4.0
 40
4.0
 10
143.287722439236
 20
176.6734537760416
 10
143.3924533420138
 20
176.6734537760416
 10
143.4772026909722
 20
176.5887044270833
 10
143.4772026909722
 20
176.4839735243055
 10
143.4772026909722
 20
176.3792426215277
 10
143.3924533420138
 20
176.2944932725694
 10
143.287722439236
 20
176.2944932725694
 10
143.1829915364583
 20
176.2944932725694
 10
143.0982421874999
 20
176.3792426215277
 10
143.0982421874999
 20
176.4839735243055
 10
143.0982421874999
 20
176.5887044270833
 10
143.1829915364583
 20
176.6734537760416
 10
143.287722439236
 20
176.6734537760416
 97
        0
 75
     0
 76
     1
 98
        1
 10
0.0
 20
0.0
  0
HATCH
  5
3BC
330
A
100
AcDbEntity
  8
0
 62
     7
100
AcDbHatch
 10
0.0
 20
0.0
 30
0.0
210
0.0
220
0.0
230
1.0
  2
SOLID
 70
     1
 71
     0
 91
        1
 92
        1
 93
        1
 72
     4
 94
        3
 73
     0
 74
     0
 95
       17
 96
       13
 40
0.0
 40
0.0
 40
0.0
 40
0.0
 40
1.0
 40
1.0
 40
1.0
 40
2.0
 40
2.0
 40
2.0
 40
3.0
 40
3.0
 40
3.0
 40
4.0
 40
4.0
 40
4.0
 40
4.0
 10
132.177978515625
 20
184.1710150824652
 10
132.2827094184027
 20
184.1710150824652
 10
132.367458767361
 20
184.0862657335069
 10
132.367458767361
 20
183.9815348307291
 10
132.367458767361
 20
183.8768039279513
 10
132.2827094184027
 20
183.792054578993
 10
132.177978515625
 20
183.792054578993
 10
132.0732476128472
 20
183.792054578993
 10
131.9884982638888
 20
183.8768039279513
 10
131.9884982638888
 20
183.9815348307291
 10
131.9884982638888
 20
184.0862657335069
 10
132.0732476128472
 20
184.1710150824652
 10
132.177978515625
 20
184.1710150824652
 97
        0
 75
     0
 76
     1
 98
        1
 10
0.0
 20
0.0
  0
HATCH
  5
3BB
330
A
100
AcDbEntity
  8
0
 62
     7
100
AcDbHatch
 10
0.0
 20
0.0
 30
0.0
210
0.0
220
0.0
230
1.0
  2
SOLID
 70
     1
 71
     0
 91
        1
 92
        1
 93
        1
 72
     4
 94
        3
 73
     0
 74
     0
 95
       17
 96
       13
 40
0.0
 40
0.0
 40
0.0
 40
0.0
 40
1.0
 40
1.0
 40
1.0
 40
2.0
 40
2.0
 40
2.0
 40
3.0
 40
3.0
 40
3.0
 40
4.0
 40
4.0
 40
4.0
 40
4.0
 10
104.5092108832465
 20
184.1710150824652
 10
104.6139417860243
 20
184.1710150824652
 10
104.6986911349826
 20
184.0862657335069
 10
104.6986911349826
 20
183.9815348307291
 10
104.6986911349826
 20
183.8768039279513
 10
104.6139417860243
 20
183.792054578993
 10
104.5092108832465
 20
183.792054578993
 10
104.4044799804687
 20
183.792054578993
 10
104.3197306315104
 20
183.8768039279513
 10
104.3197306315104
 20
183.9815348307291
 10
104.3197306315104
 20
184.0862657335069
 10
104.4044799804687
 20
184.1710150824652
 10
104.5092108832465
 20
184.1710150824652
 97
        0
 75
     0
 76
     1
 98
        1
 10
0.0
 20
0.0
  0
HATCH
  5
3BA
330
A
100
AcDbEntity
  8
0
 62
     7
100
AcDbHatch
 10
0.0
 20
0.0
 30
0.0
210
0.0
220
0.0
230
1.0
  2
SOLID
 70
     1
 71
     0
 91
        1
 92
        1
 93
        1
 72
     4
 94
        3
 73
     0
 74
     0
 95
       17
 96
       13
 40
0.0
 40
0.0
 40
0.0
 40
0.0
 40
1.0
 40
1.0
 40
1.0
 40
2.0
 40
2.0
 40
2.0
 40
3.0
 40
3.0
 40
3.0
 40
4.0
 40
4.0
 40
4.0
 40
4.0
 10
94.24334309895831
 20
173.7640706380208
 10
94.3480740017361
 20
173.7640706380208
 10
94.43282335069444
 20
173.6793212890624
 10
94.43282335069444
 20
173.5745903862847
 10
94.43282335069444
 20
173.4698594835069
 10
94.3480740017361
 20
173.3851101345486
 10
94.24334309895831
 20
173.3851101345486
 10
94.13861219618054
 20
173.3851101345486
 10
94.05386284722222
 20
173.4698594835069
 10
94.05386284722222
 20
173.5745903862847
 10
94.05386284722222
 20
173.6793212890624
 10
94.13861219618054
 20
173.7640706380208
 10
94.24334309895831
 20
173.7640706380208
 97
        0
 75
     0
 76
     1
 98
        1
 10
0.0
 20
0.0
  0
HATCH
  5
3B9
330
A
100
AcDbEntity
  8
0
 62
     7
100
AcDbHatch
 10
0.0
 20
0.0
 30
0.0
210
0.0
220
0.0
230
1.0
  2
SOLID
 70
     1
 71
     0
 91
        1
 92
        1
 93
        1
 72
     4
 94
        3
 73
     0
 74
     0
 95
       17
 96
       13
 40
0.0
 40
0.0
 40
0.0
 40
0.0
 40
1.0
 40
1.0
 40
1.0
 40
2.0
 40
2.0
 40
2.0
 40
3.0
 40
3.0
 40
3.0
 40
4.0
 40
4.0
 40
4.0
 40
4.0
 10
94.24334309895831
 20
175.766015625
 10
94.3480740017361
 20
175.766015625
 10
94.43282335069444
 20
175.6812662760416
 10
94.43282335069444
 20
175.5765353732638
 10
94.43282335069444
 20
175.471804470486
 10
94.3480740017361
 20
175.3870551215277
 10
94.24334309895831
 20
175.3870551215277
 10
94.13861219618054
 20
175.3870551215277
 10
94.05386284722222
 20
175.471804470486
 10
94.05386284722222
 20
175.5765353732638
 10
94.05386284722222
 20
175.6812662760416
 10
94.13861219618054
 20
175.766015625
 10
94.24334309895831
 20
175.766015625
 97
        0
 75
     0
 76
     1
 98
        1
 10
0.0
 20
0.0
  0
HATCH
  5
3B8
330
A
100
AcDbEntity
  8
0
 62
     7
100
AcDbHatch
 10
0.0
 20
0.0
 30
0.0
210
0.0
220
0.0
230
1.0
  2
SOLID
 70
     1
 71
     0
 91
        1
 92
        1
 93
        1
 72
     4
 94
        3
 73
     0
 74
     0
 95
       17
 96
       13
 40
0.0
 40
0.0
 40
0.0
 40
0.0
 40
1.0
 40
1.0
 40
1.0
 40
2.0
 40
2.0
 40
2.0
 40
3.0
 40
3.0
 40
3.0
 40
4.0
 40
4.0
 40
4.0
 40
4.0
 10
131.0631456163194
 20
177.9007690429687
 10
131.1678765190972
 20
177.9007690429687
 10
131.2526258680555
 20
177.8160196940104
 10
131.2526258680555
 20
177.7112887912326
 10
131.2526258680555
 20
177.6065578884548
 10
131.1678765190972
 20
177.5218085394965
 10
131.0631456163194
 20
177.5218085394965
 10
130.9584147135416
 20
177.5218085394965
 10
130.8736653645833
 20
177.6065578884548
 10
130.8736653645833
 20
177.7112887912326
 10
130.8736653645833
 20
177.8160196940104
 10
130.9584147135416
 20
177.9007690429687
 10
131.0631456163194
 20
177.9007690429687
 97
        0
 75
     0
 76
     1
 98
        1
 10
0.0
 20
0.0
  0
HATCH
  5
3B7
330
A
100
AcDbEntity
  8
0
 62
     7
100
AcDbHatch
 10
0.0
 20
0.0
 30
0.0
210
0.0
220
0.0
230
1.0
  2
SOLID
 70
     1
 71
     0
 91
        1
 92
        1
 93
        1
 72
     4
 94
        3
 73
     0
 74
     0
 95
       17
 96
       13
 40
0.0
 40
0.0
 40
0.0
 40
0.0
 40
1.0
 40
1.0
 40
1.0
 40
2.0
 40
2.0
 40
2.0
 40
3.0
 40
3.0
 40
3.0
 40
4.0
 40
4.0
 40
4.0
 40
4.0
 10
132.1524848090277
 20
177.9007690429687
 10
132.2572157118055
 20
177.9007690429687
 10
132.3419650607638
 20
177.8160196940104
 10
132.3419650607638
 20
177.7112887912326
 10
132.3419650607638
 20
177.6065578884548
 10
132.2572157118055
 20
177.5218085394965
 10
132.1524848090277
 20
177.5218085394965
 10
132.0477539062499
 20
177.5218085394965
 10
131.9630045572916
 20
177.6065578884548
 10
131.9630045572916
 20
177.7112887912326
 10
131.9630045572916
 20
177.8160196940104
 10
132.0477539062499
 20
177.9007690429687
 10
132.1524848090277
 20
177.9007690429687
 97
        0
 75
     0
 76
     1
 98
        1
 10
0.0
 20
0.0
  0
HATCH
  5
3B6
330
A
100
AcDbEntity
  8
0
 62
     7
100
AcDbHatch
 10
0.0
 20
0.0
 30
0.0
210
0.0
220
0.0
230
1.0
  2
SOLID
 70
     1
 71
     0
 91
        1
 92
        1
 93
        1
 72
     4
 94
        3
 73
     0
 74
     0
 95
       17
 96
       13
 40
0.0
 40
0.0
 40
0.0
 40
0.0
 40
1.0
 40
1.0
 40
1.0
 40
2.0
 40
2.0
 40
2.0
 40
3.0
 40
3.0
 40
3.0
 40
4.0
 40
4.0
 40
4.0
 40
4.0
 10
64.33698594835068
 20
263.9656277126736
 10
64.33698594835068
 20
263.8608968098957
 10
64.25223659939236
 20
263.7761474609374
 10
64.14750569661457
 20
263.7761474609374
 10
64.04277479383679
 20
263.7761474609374
 10
63.95802544487846
 20
263.8608968098957
 10
63.95802544487846
 20
263.9656277126736
 10
63.95802544487846
 20
264.0703586154513
 10
64.04277479383679
 20
264.1551079644096
 10
64.14750569661457
 20
264.1551079644096
 10
64.25223659939236
 20
264.1551079644096
 10
64.33698594835068
 20
264.0703586154513
 10
64.33698594835068
 20
263.9656277126736
 97
        0
 75
     0
 76
     1
 98
        1
 10
0.0
 20
0.0
  0
HATCH
  5
3B5
330
A
100
AcDbEntity
  8
0
 62
     7
100
AcDbHatch
 10
0.0
 20
0.0
 30
0.0
210
0.0
220
0.0
230
1.0
  2
SOLID
 70
     1
 71
     0
 91
        1
 92
        1
 93
        1
 72
     4
 94
        3
 73
     0
 74
     0
 95
       17
 96
       13
 40
0.0
 40
0.0
 40
0.0
 40
0.0
 40
1.0
 40
1.0
 40
1.0
 40
2.0
 40
2.0
 40
2.0
 40
3.0
 40
3.0
 40
3.0
 40
4.0
 40
4.0
 40
4.0
 40
4.0
 10
80.65898708767361
 20
263.9656277126736
 10
80.65898708767361
 20
263.8608968098957
 10
80.57423773871526
 20
263.7761474609374
 10
80.46950683593749
 20
263.7761474609374
 10
80.36477593315972
 20
263.7761474609374
 10
80.28002658420138
 20
263.8608968098957
 10
80.28002658420138
 20
263.9656277126736
 10
80.28002658420138
 20
264.0703586154513
 10
80.36477593315972
 20
264.1551079644096
 10
80.46950683593749
 20
264.1551079644096
 10
80.57423773871526
 20
264.1551079644096
 10
80.65898708767361
 20
264.0703586154513
 10
80.65898708767361
 20
263.9656277126736
 97
        0
 75
     0
 76
     1
 98
        1
 10
0.0
 20
0.0
  0
INSERT
  5
397
330
A
100
AcDbEntity
  8
0
 62
     7
100
AcDbBlockReference
  2
AI9-BLK122
 10
33.97243109809027
 20
182.1763047960069
 30
0.0
  0
INSERT
  5
378
330
A
100
AcDbEntity
  8
0
 62
     7
100
AcDbBlockReference
  2
AI9-BLK115
 10
71.95150824652777
 20
266.453675672743
 30
0.0
  0
LINE
  5
376
330
A
100
AcDbEntity
  8
0
 62
     7
100
AcDbLine
 10
58.07604166666666
 20
104.919349500868
 30
0.0
 11
58.07604166666666
 21
112.6515218098958
 31
0.0
  0
LINE
  5
375
330
A
100
AcDbEntity
  8
0
 62
     7
100
AcDbLine
 10
86.39076470269095
 20
104.919349500868
 30
0.0
 11
86.39076470269095
 21
112.6515218098958
 31
0.0
  0
LINE
  5
374
330
A
100
AcDbEntity
  8
0
 62
     7
100
AcDbLine
 10
58.12272271050346
 20
112.6515218098958
 30
0.0
 11
86.32685818142361
 21
112.6515218098958
 31
0.0
  0
LINE
  5
373
330
A
100
AcDbEntity
  8
0
 62
     7
100
AcDbLine
 10
36.12682156032986
 20
63.25539822048611
 30
0.0
 11
36.12682156032986
 21
103.5382107204861
 31
0.0
  0
LINE
  5
372
330
A
100
AcDbEntity
  8
0
 62
     7
100
AcDbLine
 10
54.49073079427083
 20
63.24575195312499
 30
0.0
 11
36.12682156032986
 21
63.24575195312499
 31
0.0
  0
LINE
  5
371
330
A
100
AcDbEntity
  8
0
 62
     7
100
AcDbLine
 10
54.49073079427083
 20
103.4279676649305
 30
0.0
 11
36.12682156032986
 21
103.4279676649305
 31
0.0
  0
HATCH
  5
370
330
A
100
AcDbEntity
  8
0
 62
     7
100
AcDbHatch
 10
0.0
 20
0.0
 30
0.0
210
0.0
220
0.0
230
1.0
  2
SOLID
 70
     1
 71
     0
 91
        1
 92
        1
 93
        1
 72
     4
 94
        3
 73
     0
 74
     0
 95
       17
 96
       13
 40
0.0
 40
0.0
 40
0.0
 40
0.0
 40
1.0
 40
1.0
 40
1.0
 40
2.0
 40
2.0
 40
2.0
 40
3.0
 40
3.0
 40
3.0
 40
4.0
 40
4.0
 40
4.0
 40
4.0
 10
36.12062038845486
 20
63.41697319878472
 10
36.22535129123263
 20
63.41697319878472
 10
36.31010064019096
 20
63.33222384982638
 10
36.31010064019096
 20
63.2274929470486
 10
36.31010064019096
 20
63.12276204427083
 10
36.22535129123263
 20
63.03801269531249
 10
36.12062038845486
 20
63.03801269531249
 10
36.01588948567707
 20
63.03801269531249
 10
35.93114013671874
 20
63.12276204427083
 10
35.93114013671874
 20
63.2274929470486
 10
35.93114013671874
 20
63.33222384982638
 10
36.01588948567707
 20
63.41697319878472
 10
36.12062038845486
 20
63.41697319878472
 97
        0
 75
     0
 76
     1
 98
        1
 10
0.0
 20
0.0
  0
HATCH
  5
36F
330
A
100
AcDbEntity
  8
0
 62
     7
100
AcDbHatch
 10
0.0
 20
0.0
 30
0.0
210
0.0
220
0.0
230
1.0
  2
SOLID
 70
     1
 71
     0
 91
        1
 92
        1
 93
        1
 72
     4
 94
        3
 73
     0
 74
     0
 95
       17
 96
       13
 40
0.0
 40
0.0
 40
0.0
 40
0.0
 40
1.0
 40
1.0
 40
1.0
 40
2.0
 40
2.0
 40
2.0
 40
3.0
 40
3.0
 40
3.0
 40
4.0
 40
4.0
 40
4.0
 40
4.0
 10
36.12062038845486
 20
103.6257161458333
 10
36.22535129123263
 20
103.6257161458333
 10
36.31010064019096
 20
103.5409667968749
 10
36.31010064019096
 20
103.4362358940972
 10
36.31010064019096
 20
103.3315049913194
 10
36.22535129123263
 20
103.2467556423611
 10
36.12062038845486
 20
103.2467556423611
 10
36.01588948567707
 20
103.2467556423611
 10
35.93114013671874
 20
103.3315049913194
 10
35.93114013671874
 20
103.4362358940972
 10
35.93114013671874
 20
103.5409667968749
 10
36.01588948567707
 20
103.6257161458333
 10
36.12062038845486
 20
103.6257161458333
 97
        0
 75
     0
 76
     1
 98
        1
 10
0.0
 20
0.0
  0
HATCH
  5
36E
330
A
100
AcDbEntity
  8
0
 62
     7
100
AcDbHatch
 10
0.0
 20
0.0
 30
0.0
210
0.0
220
0.0
230
1.0
  2
SOLID
 70
     1
 71
     0
 91
        1
 92
        1
 93
        1
 72
     4
 94
        3
 73
     0
 74
     0
 95
       17
 96
       13
 40
0.0
 40
0.0
 40
0.0
 40
0.0
 40
1.0
 40
1.0
 40
1.0
 40
2.0
 40
2.0
 40
2.0
 40
3.0
 40
3.0
 40
3.0
 40
4.0
 40
4.0
 40
4.0
 40
4.0
 10
57.8789822048611
 20
112.6587565104166
 10
57.8789822048611
 20
112.7634874131944
 10
57.96373155381943
 20
112.8482367621527
 10
58.06846245659722
 20
112.8482367621527
 10
58.17319335937499
 20
112.8482367621527
 10
58.25794270833333
 20
112.7634874131944
 10
58.25794270833333
 20
112.6587565104166
 10
58.25794270833333
 20
112.5540256076388
 10
58.17319335937499
 20
112.4692762586805
 10
58.06846245659722
 20
112.4692762586805
 10
57.96373155381943
 20
112.4692762586805
 10
57.8789822048611
 20
112.5540256076388
 10
57.8789822048611
 20
112.6587565104166
 97
        0
 75
     0
 76
     1
 98
        1
 10
0.0
 20
0.0
  0
HATCH
  5
36D
330
A
100
AcDbEntity
  8
0
 62
     7
100
AcDbHatch
 10
0.0
 20
0.0
 30
0.0
210
0.0
220
0.0
230
1.0
  2
SOLID
 70
     1
 71
     0
 91
        1
 92
        1
 93
        1
 72
     4
 94
        3
 73
     0
 74
     0
 95
       17
 96
       13
 40
0.0
 40
0.0
 40
0.0
 40
0.0
 40
1.0
 40
1.0
 40
1.0
 40
2.0
 40
2.0
 40
2.0
 40
3.0
 40
3.0
 40
3.0
 40
4.0
 40
4.0
 40
4.0
 40
4.0
 10
86.19973415798609
 20
112.6587565104166
 10
86.19973415798609
 20
112.7634874131944
 10
86.28448350694444
 20
112.8482367621527
 10
86.38921440972222
 20
112.8482367621527
 10
86.49394531249999
 20
112.8482367621527
 10
86.57869466145832
 20
112.7634874131944
 10
86.57869466145832
 20
112.6587565104166
 10
86.57869466145832
 20
112.5540256076388
 10
86.49394531249999
 20
112.4692762586805
 10
86.38921440972222
 20
112.4692762586805
 10
86.28448350694444
 20
112.4692762586805
 10
86.19973415798609
 20
112.5540256076388
 10
86.19973415798609
 20
112.6587565104166
 97
        0
 75
     0
 76
     1
 98
        1
 10
0.0
 20
0.0
  0
INSERT
  5
34F
330
A
100
AcDbEntity
  8
0
 62
     7
100
AcDbBlockReference
  2
AI9-BLK108
 10
34.19567328559027
 20
83.81159396701388
 30
0.0
  0
INSERT
  5
330
330
A
100
AcDbEntity
  8
0
 62
     7
100
AcDbBlockReference
  2
AI9-BLK101
 10
74.16567111545139
 20
54.38978949652778
 30
0.0
  0
INSERT
  5
311
330
A
100
AcDbEntity
  8
0
 62
     7
100
AcDbBlockReference
  2
AI9-BLK94
 10
163.7433213975694
 20
54.75049099392361
 30
0.0
  0
INSERT
  5
308
330
A
100
AcDbEntity
  8
0
 62
     7
100
AcDbBlockReference
  2
AI9-BLK92
 10
64.47789035373263
 20
54.38978949652778
 30
0.0
  0
POLYLINE
  5
301
330
A
100
AcDbEntity
  8
0
 62
     7
100
AcDb2dPolyline
 66
     1
 10
0.0
 20
0.0
 30
0.0
 70
     1
  0
VERTEX
  5
302
330
301
100
AcDbEntity
  8
0
 62
     7
100
AcDbVertex
100
AcDb2dVertex
 10
91.72997368706596
 20
51.65576171874999
 30
0.0
  0
VERTEX
  5
303
330
301
100
AcDbEntity
  8
0
 62
     7
100
AcDbVertex
100
AcDb2dVertex
 10
57.15775146484374
 20
51.65576171874999
 30
0.0
  0
VERTEX
  5
304
330
301
100
AcDbEntity
  8
0
 62
     7
100
AcDbVertex
100
AcDb2dVertex
 10
57.15775146484374
 20
57.12381727430555
 30
0.0
  0
VERTEX
  5
305
330
301
100
AcDbEntity
  8
0
 62
     7
100
AcDbVertex
100
AcDb2dVertex
 10
91.72997368706596
 20
57.12381727430555
 30
0.0
  0
SEQEND
  5
306
330
301
100
AcDbEntity
  8
0
 62
     7
  0
POLYLINE
  5
2FB
330
A
100
AcDbEntity
  8
0
 62
     7
100
AcDb2dPolyline
 66
     1
 10
0.0
 20
0.0
 30
0.0
 70
     1
  0
VERTEX
  5
2FC
330
2FB
100
AcDbEntity
  8
0
 62
     7
100
AcDbVertex
100
AcDb2dVertex
 10
180.6018961588541
 20
51.8359402126736
 30
0.0
  0
VERTEX
  5
2FD
330
2FB
100
AcDbEntity
  8
0
 62
     7
100
AcDbVertex
100
AcDb2dVertex
 10
146.0296739366319
 20
51.8359402126736
 30
0.0
  0
VERTEX
  5
2FE
330
2FB
100
AcDbEntity
  8
0
 62
     7
100
AcDbVertex
100
AcDb2dVertex
 10
146.0296739366319
 20
57.30399576822916
 30
0.0
  0
VERTEX
  5
2FF
330
2FB
100
AcDbEntity
  8
0
 62
     7
100
AcDbVertex
100
AcDb2dVertex
 10
180.6018961588541
 20
57.30399576822916
 30
0.0
  0
SEQEND
  5
300
330
2FB
100
AcDbEntity
  8
0
 62
     7
  0
SPLINE
  5
2FA
330
A
100
AcDbEntity
  8
0
 62
     7
100
AcDbSpline
210
0.0
220
0.0
230
1.0
 70
     8
 71
     3
 72
    11
 73
     7
 74
     0
 42
0.0000000001
 43
0.0000000001
 40
0.0
 40
0.0
 40
0.0
 40
0.0
 40
1.0
 40
1.0
 40
1.0
 40
2.0
 40
2.0
 40
2.0
 40
2.0
 10
52.31877034505208
 20
168.1421915690104
 30
0.0
 10
52.34512532552082
 20
167.8936279296874
 30
0.0
 10
52.56819525824653
 20
167.7131049262152
 30
0.0
 10
52.81744791666666
 20
167.7385986328124
 30
0.0
 10
52.8219265407986
 20
167.7392876519097
 30
0.0
 10
52.82623291015625
 20
167.7399766710069
 30
0.0
 10
52.83036702473958
 20
167.7406656901041
 30
0.0
  0
LINE
  5
2F9
330
A
100
AcDbEntity
  8
0
  6
AI9-LType4
 62
     7
100
AcDbLine
 10
80.09071858723958
 20
146.7855278862847
 30
0.0
 11
64.62051730685764
 21
146.7855278862847
 31
0.0
  0
SPLINE
  5
2F8
330
A
100
AcDbEntity
  8
0
 62
     7
100
AcDbSpline
210
0.0
220
0.0
230
1.0
 70
     9
 71
     3
 72
    17
 73
    13
 74
     0
 42
0.0000000001
 43
0.0000000001
 40
0.0
 40
0.0
 40
0.0
 40
0.0
 40
1.0
 40
1.0
 40
1.0
 40
2.0
 40
2.0
 40
2.0
 40
3.0
 40
3.0
 40
3.0
 40
4.0
 40
4.0
 40
4.0
 40
4.0
 10
75.87013210720485
 20
71.89225260416666
 30
0.0
 10
76.62012939453124
 20
71.60975477430554
 30
0.0
 10
77.49208306206596
 20
72.20541178385416
 30
0.0
 10
77.81816134982638
 20
73.22205946180554
 30
0.0
 10
78.14423963758679
 20
74.23905164930555
 30
0.0
 10
77.80059136284721
 20
75.29256184895833
 30
0.0
 10
77.05093858506943
 20
75.57505967881944
 30
0.0
 10
76.30128580729166
 20
75.85721299913193
 30
0.0
 10
75.42898763020833
 20
75.26224500868055
 30
0.0
 10
75.10290934244792
 20
74.24525282118054
 30
0.0
 10
74.77665879991319
 20
73.22826063368054
 30
0.0
 10
75.12047932942707
 20
72.17509494357638
 30
0.0
 10
75.87013210720485
 20
71.89225260416666
 30
0.0
  0
SPLINE
  5
2F7
330
A
100
AcDbEntity
  8
0
 62
     7
100
AcDbSpline
210
0.0
220
0.0
230
1.0
 70
     9
 71
     3
 72
    17
 73
    13
 74
     0
 42
0.0000000001
 43
0.0000000001
 40
0.0
 40
0.0
 40
0.0
 40
0.0
 40
1.0
 40
1.0
 40
1.0
 40
2.0
 40
2.0
 40
2.0
 40
3.0
 40
3.0
 40
3.0
 40
4.0
 40
4.0
 40
4.0
 40
4.0
 10
68.8085476345486
 20
71.89225260416666
 30
0.0
 10
68.05855034722222
 20
71.60975477430554
 30
0.0
 10
67.1865966796875
 20
72.20541178385416
 30
0.0
 10
66.86051839192707
 20
73.22205946180554
 30
0.0
 10
66.53444010416666
 20
74.23905164930555
 30
0.0
 10
66.87808837890624
 20
75.29256184895833
 30
0.0
 10
67.62774115668403
 20
75.57505967881944
 30
0.0
 10
68.37739393446179
 20
75.85721299913193
 30
0.0
 10
69.24969211154513
 20
75.26224500868055
 30
0.0
 10
69.57577039930555
 20
74.24525282118054
 30
0.0
 10
69.90202094184027
 20
73.22826063368054
 30
0.0
 10
69.55820041232638
 20
72.17509494357638
 30
0.0
 10
68.8085476345486
 20
71.89225260416666
 30
0.0
  0
LINE
  5
2F6
330
A
100
AcDbEntity
  8
0
  6
AI9-LType5
 62
     7
100
AcDbLine
 10
61.65687391493055
 20
74.31553276909721
 30
0.0
 11
65.91914605034722
 21
70.05360514322916
 31
0.0
  0
LINE
  5
2F5
330
A
100
AcDbEntity
  8
0
  6
AI9-LType5
 62
     7
100
AcDbLine
 10
65.91914605034722
 20
74.31553276909721
 30
0.0
 11
61.65687391493055
 21
70.05360514322916
 31
0.0
  0
CIRCLE
  5
2F4
330
A
100
AcDbEntity
  8
0
 62
     7
100
AcDbCircle
 10
63.78800998263888
 20
72.18474121093748
 30
0.0
 40
1.004589843749999
  0
LINE
  5
2F3
330
A
100
AcDbEntity
  8
0
  6
AI9-LType5
 62
     7
100
AcDbLine
 10
83.04574924045139
 20
74.31553276909721
 30
0.0
 11
78.78382161458333
 21
70.05360514322916
 31
0.0
  0
LINE
  5
2F2
330
A
100
AcDbEntity
  8
0
  6
AI9-LType5
 62
     7
100
AcDbLine
 10
78.78382161458333
 20
74.31553276909721
 30
0.0
 11
83.04574924045139
 21
70.05360514322916
 31
0.0
  0
CIRCLE
  5
2F1
330
A
100
AcDbEntity
  8
0
 62
     7
100
AcDbCircle
 10
80.91461317274305
 20
72.18474121093748
 30
0.0
 40
1.004589843749999
  0
LINE
  5
2F0
330
A
100
AcDbEntity
  8
0
  6
AI9-LType5
 62
     7
100
AcDbLine
 10
78.78382161458333
 20
96.61976996527776
 30
0.0
 11
83.04574924045139
 21
92.35784233940972
 31
0.0
  0
CIRCLE
  5
2EF
330
A
100
AcDbEntity
  8
0
 62
     7
100
AcDbCircle
 10
80.91461317274305
 20
94.48897840711804
 30
0.0
 40
1.004589843749999
  0
LINE
  5
2EE
330
A
100
AcDbEntity
  8
0
  6
AI9-LType5
 62
     7
100
AcDbLine
 10
83.04574924045139
 20
96.61976996527776
 30
0.0
 11
78.78382161458333
 21
92.35784233940972
 31
0.0
  0
LINE
  5
2ED
330
A
100
AcDbEntity
  8
0
  6
AI9-LType5
 62
     7
100
AcDbLine
 10
65.83818630642361
 20
96.61976996527776
 30
0.0
 11
61.57591417100693
 21
92.35784233940972
 31
0.0
  0
CIRCLE
  5
2EC
330
A
100
AcDbEntity
  8
0
 62
     7
100
AcDbCircle
 10
63.72996012369791
 20
94.46658528645832
 30
0.0
 40
2.999989149305555
  0
CIRCLE
  5
2EB
330
A
100
AcDbEntity
  8
0
 62
     7
100
AcDbCircle
 10
80.96163872612846
 20
94.46658528645832
 30
0.0
 40
2.999989149305555
  0
CIRCLE
  5
2EA
330
A
100
AcDbEntity
  8
0
 62
     7
100
AcDbCircle
 10
80.96163872612846
 20
72.21953667534721
 30
0.0
 40
2.999989149305555
  0
CIRCLE
  5
2E9
330
A
100
AcDbEntity
  8
0
 62
     7
100
AcDbCircle
 10
63.73013237847221
 20
72.21953667534721
 30
0.0
 40
2.999989149305555
  0
CIRCLE
  5
2E8
330
A
100
AcDbEntity
  8
0
 62
     7
100
AcDbCircle
 10
63.70705023871527
 20
94.48897840711804
 30
0.0
 40
1.004589843749999
  0
LINE
  5
2E7
330
A
100
AcDbEntity
  8
0
  6
AI9-LType5
 62
     7
100
AcDbLine
 10
61.57591417100693
 20
96.61976996527776
 30
0.0
 11
65.83818630642361
 21
92.35784233940972
 31
0.0
  0
CIRCLE
  5
2E5
330
A
100
AcDbEntity
  8
0
 62
     7
100
AcDbCircle
 10
72.4825697157118
 20
83.36235351562498
 30
0.0
 40
8.249970160590276
  0
INSERT
  5
2DD
330
A
100
AcDbEntity
  8
0
 62
     7
100
AcDbBlockReference
  2
AI9-BLK90
 10
87.4463419596354
 20
240.1095472547742
 30
0.0
  0
INSERT
  5
2D4
330
A
100
AcDbEntity
  8
0
 62
     7
100
AcDbBlockReference
  2
AI9-BLK88
 10
58.84266153971354
 20
240.0058498806423
 30
0.0
  0
LINE
  5
2D2
330
A
100
AcDbEntity
  8
0
 62
     7
100
AcDbLine
 10
80.37149386935764
 20
242.9827568901909
 30
0.0
 11
83.1055216471354
 21
242.012618001302
 31
0.0
  0
LINE
  5
2D1
330
A
100
AcDbEntity
  8
0
 62
     7
100
AcDbLine
 10
61.67427164713541
 20
241.4779391818576
 30
0.0
 11
64.40829942491318
 21
242.8118801540798
 31
0.0
  0
POLYLINE
  5
2CC
330
A
100
AcDbEntity
  8
0
 62
     7
100
AcDb2dPolyline
 66
     1
 10
0.0
 20
0.0
 30
0.0
  0
VERTEX
  5
2CD
330
2CC
100
AcDbEntity
  8
0
 62
     7
100
AcDbVertex
100
AcDb2dVertex
 10
72.87496609157985
 20
252.2431735568576
 30
0.0
  0
VERTEX
  5
2CE
330
2CC
100
AcDbEntity
  8
0
 62
     7
100
AcDbVertex
100
AcDb2dVertex
 10
74.19788275824652
 20
254.1834513346354
 30
0.0
  0
VERTEX
  5
2CF
330
2CC
100
AcDbEntity
  8
0
 62
     7
100
AcDbVertex
100
AcDb2dVertex
 10
77.54927164713541
 20
254.1834513346354
 30
0.0
  0
SEQEND
  5
2D0
330
2CC
100
AcDbEntity
  8
0
 62
     7
  0
INSERT
  5
2C4
330
A
100
AcDbEntity
  8
0
  6
AI9-LType1
 62
     7
100
AcDbBlockReference
  2
AI9-BLK86
 10
81.25869208441839
 20
254.1555460611979
 30
0.0
  0
LINE
  5
2C2
330
A
100
AcDbEntity
  8
0
  6
AI9-LType1
 62
     7
100
AcDbLine
 10
72.33219129774305
 20
85.59925401475693
 30
0.0
 11
72.33219129774305
 21
245.8335734049478
 31
0.0
  0
LINE
  5
2C1
330
A
100
AcDbEntity
  8
0
 62
     7
100
AcDbLine
 10
51.93946533203124
 20
138.6840413411458
 30
0.0
 11
97.46605767144096
 21
138.6840413411458
 31
0.0
  0
INSERT
  5
2BC
330
A
100
AcDbEntity
  8
0
 62
     7
100
AcDbBlockReference
  2
AI9-BLK85
 10
68.20091891818576
 20
146.8496066623263
 30
0.0
  0
INSERT
  5
2B6
330
A
100
AcDbEntity
  8
0
  6
AI9-LType4
 62
     7
100
AcDbBlockReference
  2
AI9-BLK84
 10
76.19715779622395
 20
146.8496066623263
 30
0.0
  0
LINE
  5
2B4
330
A
100
AcDbEntity
  8
0
  6
AI9-LType4
 62
     7
100
AcDbLine
 10
76.18105197482639
 20
144.1259141710069
 30
0.0
 11
76.18105197482639
 21
149.1492078993055
 31
0.0
  0
LINE
  5
2B3
330
A
100
AcDbEntity
  8
0
  6
AI9-LType4
 62
     7
100
AcDbLine
 10
68.1634535047743
 20
144.1259141710069
 30
0.0
 11
68.1634535047743
 21
149.1492078993055
 31
0.0
  0
LINE
  5
2B2
330
A
100
AcDbEntity
  8
0
  6
AI9-LType4
 62
     7
100
AcDbLine
 10
171.2839463975694
 20
145.7854166666666
 30
0.0
 11
155.8134006076388
 21
145.7854166666666
 31
0.0
  0
LINE
  5
2B1
330
A
100
AcDbEntity
  8
0
  6
AI9-LType4
 62
     7
100
AcDbLine
 10
167.3741075303819
 20
143.1258029513888
 30
0.0
 11
167.3741075303819
 21
148.1492689344617
 31
0.0
  0
LINE
  5
2B0
330
A
100
AcDbEntity
  8
0
  6
AI9-LType4
 62
     7
100
AcDbLine
 10
159.3563368055555
 20
143.1258029513888
 30
0.0
 11
159.3563368055555
 21
148.1492689344617
 31
0.0
  0
LINE
  5
2AE
330
A
100
AcDbEntity
  8
0
 62
     7
100
AcDbLine
 10
91.86071506076388
 20
138.6840413411458
 30
0.0
 11
52.62865668402778
 21
138.6840413411458
 31
0.0
  0
ELLIPSE
  5
2AD
330
A
100
AcDbEntity
  8
0
 62
   189
100
AcDbEllipse
 10
80.87516682942707
 20
144.4297715928819
 30
0.0
 11
-1.864830186631944
 21
2.929020182291666
 31
0.0
210
0.0
220
0.0
230
0.9999999999999998
 40
0.4884487422353447
 41
0.0
 42
6.283185307179586
  0
ELLIPSE
  5
2AC
330
A
100
AcDbEntity
  8
0
 62
   189
100
AcDbEllipse
 10
63.50120578342013
 20
144.4297715928819
 30
0.0
 11
1.864830186631944
 21
2.929020182291666
 31
0.0
210
0.0
220
0.0
230
0.9999999999999998
 40
0.4884487422353447
 41
0.0
 42
6.283185307179586
  0
POLYLINE
  5
2A4
330
A
100
AcDbEntity
  8
0
 62
   189
100
AcDb2dPolyline
 66
     1
 10
0.0
 20
0.0
 30
0.0
 70
     1
  0
VERTEX
  5
2A5
330
2A4
100
AcDbEntity
  8
0
 62
   189
100
AcDbVertex
100
AcDb2dVertex
 10
86.32186279296874
 20
139.0354410807291
 30
0.0
  0
VERTEX
  5
2A6
330
2A4
100
AcDbEntity
  8
0
 62
   189
100
AcDbVertex
100
AcDb2dVertex
 10
86.12170274522569
 20
138.6633707682291
 30
0.0
  0
VERTEX
  5
2A7
330
2A4
100
AcDbEntity
  8
0
 62
   189
100
AcDbVertex
100
AcDb2dVertex
 10
58.22710910373263
 20
138.6633707682291
 30
0.0
  0
VERTEX
  5
2A8
330
2A4
100
AcDbEntity
  8
0
 62
   189
100
AcDbVertex
100
AcDb2dVertex
 10
58.00679524739583
 20
139.0636908637152
 30
0.0
  0
VERTEX
  5
2A9
330
2A4
100
AcDbEntity
  8
0
 62
   189
100
AcDbVertex
100
AcDb2dVertex
 10
63.98127983940971
 20
149.2663411458333
 30
0.0
  0
VERTEX
  5
2AA
330
2A4
100
AcDbEntity
  8
0
 62
   189
100
AcDbVertex
100
AcDb2dVertex
 10
80.44763047960069
 20
149.2663411458333
 30
0.0
  0
SEQEND
  5
2AB
330
2A4
100
AcDbEntity
  8
0
 62
   189
  0
ELLIPSE
  5
2A3
330
A
100
AcDbEntity
  8
0
 62
   189
100
AcDbEllipse
 10
172.1672688802083
 20
143.4293158637152
 30
0.0
 11
-1.864830186631944
 21
2.929020182291666
 31
0.0
210
0.0
220
0.0
230
0.9999999999999998
 40
0.488437262089901
 41
0.0
 42
6.283185307179586
  0
ELLIPSE
  5
2A2
330
A
100
AcDbEntity
  8
0
 62
   189
100
AcDbEllipse
 10
154.7933078342014
 20
143.4293158637152
 30
0.0
 11
1.864830186631944
 21
2.929020182291666
 31
0.0
210
0.0
220
0.0
230
0.9999999999999998
 40
0.4883535851678256
 41
0.0
 42
6.283185307179586
  0
POLYLINE
  5
29A
330
A
100
AcDbEntity
  8
0
 62
   189
100
AcDb2dPolyline
 66
     1
 10
0.0
 20
0.0
 30
0.0
 70
     1
  0
VERTEX
  5
29B
330
29A
100
AcDbEntity
  8
0
 62
   189
100
AcDbVertex
100
AcDb2dVertex
 10
177.6139648437499
 20
138.0349853515624
 30
0.0
  0
VERTEX
  5
29C
330
29A
100
AcDbEntity
  8
0
 62
   189
100
AcDbVertex
100
AcDb2dVertex
 10
177.4138047960069
 20
137.6629150390624
 30
0.0
  0
VERTEX
  5
29D
330
29A
100
AcDbEntity
  8
0
 62
   189
100
AcDbVertex
100
AcDb2dVertex
 10
149.5192111545138
 20
137.6629150390624
 30
0.0
  0
VERTEX
  5
29E
330
29A
100
AcDbEntity
  8
0
 62
   189
100
AcDbVertex
100
AcDb2dVertex
 10
149.2987250434027
 20
138.0632351345485
 30
0.0
  0
VERTEX
  5
29F
330
29A
100
AcDbEntity
  8
0
 62
   189
100
AcDbVertex
100
AcDb2dVertex
 10
155.2732096354166
 20
148.2660576714409
 30
0.0
  0
VERTEX
  5
2A0
330
29A
100
AcDbEntity
  8
0
 62
   189
100
AcDbVertex
100
AcDb2dVertex
 10
171.7397325303819
 20
148.2660576714409
 30
0.0
  0
SEQEND
  5
2A1
330
29A
100
AcDbEntity
  8
0
 62
   189
  0
LINE
  5
299
330
A
100
AcDbEntity
  8
0
 62
     7
100
AcDbLine
 10
86.26364067925347
 20
139.1160563151041
 30
0.0
 11
58.09567871093749
 21
139.1160563151041
 31
0.0
  0
POLYLINE
  5
293
330
A
100
AcDbEntity
  8
0
 62
   222
100
AcDb2dPolyline
 66
     1
 10
0.0
 20
0.0
 30
0.0
 70
     1
  0
VERTEX
  5
294
330
293
100
AcDbEntity
  8
0
 62
   222
100
AcDbVertex
100
AcDb2dVertex
 10
171.3221869574652
 20
196.2298828125
 30
0.0
  0
VERTEX
  5
295
330
293
100
AcDbEntity
  8
0
 62
   222
100
AcDbVertex
100
AcDb2dVertex
 10
155.7221055772569
 20
196.2298828125
 30
0.0
  0
VERTEX
  5
296
330
293
100
AcDbEntity
  8
0
 62
   222
100
AcDbVertex
100
AcDb2dVertex
 10
155.7221055772569
 20
206.2292724609374
 30
0.0
  0
VERTEX
  5
297
330
293
100
AcDbEntity
  8
0
 62
   222
100
AcDbVertex
100
AcDb2dVertex
 10
171.3221869574652
 20
206.2292724609374
 30
0.0
  0
SEQEND
  5
298
330
293
100
AcDbEntity
  8
0
 62
   222
  0
HATCH
  5
292
330
A
100
AcDbEntity
  8
0
 62
   254
100
AcDbHatch
 10
0.0
 20
0.0
 30
0.0
210
0.0
220
0.0
230
1.0
  2
SOLID
 70
     1
 71
     0
 91
        1
 92
        3
 72
     0
 73
     1
 93
        4
 10
171.3221869574652
 20
196.2298828125
 10
155.7221055772569
 20
196.2298828125
 10
155.7221055772569
 20
206.2292724609374
 10
171.3221869574652
 20
206.2292724609374
 97
        0
 75
     0
 76
     1
 98
        1
 10
0.0
 20
0.0
  0
POLYLINE
  5
28C
330
A
100
AcDbEntity
  8
0
 62
   222
100
AcDb2dPolyline
 66
     1
 10
0.0
 20
0.0
 30
0.0
 70
     1
  0
VERTEX
  5
28D
330
28C
100
AcDbEntity
  8
0
 62
   222
100
AcDbVertex
100
AcDb2dVertex
 10
171.3221869574652
 20
176.2333428276909
 30
0.0
  0
VERTEX
  5
28E
330
28C
100
AcDbEntity
  8
0
 62
   222
100
AcDbVertex
100
AcDb2dVertex
 10
155.7221055772569
 20
176.2333428276909
 30
0.0
  0
VERTEX
  5
28F
330
28C
100
AcDbEntity
  8
0
 62
   222
100
AcDbVertex
100
AcDb2dVertex
 10
155.7221055772569
 20
186.2318712022569
 30
0.0
  0
VERTEX
  5
290
330
28C
100
AcDbEntity
  8
0
 62
   222
100
AcDbVertex
100
AcDb2dVertex
 10
171.3221869574652
 20
186.2318712022569
 30
0.0
  0
SEQEND
  5
291
330
28C
100
AcDbEntity
  8
0
 62
   222
  0
HATCH
  5
28B
330
A
100
AcDbEntity
  8
0
 62
   254
100
AcDbHatch
 10
0.0
 20
0.0
 30
0.0
210
0.0
220
0.0
230
1.0
  2
SOLID
 70
     1
 71
     0
 91
        1
 92
        3
 72
     0
 73
     1
 93
        4
 10
171.3221869574652
 20
176.2333428276909
 10
155.7221055772569
 20
176.2333428276909
 10
155.7221055772569
 20
186.2318712022569
 10
171.3221869574652
 20
186.2318712022569
 97
        0
 75
     0
 76
     1
 98
        1
 10
0.0
 20
0.0
  0
LINE
  5
28A
330
A
100
AcDbEntity
  8
0
 62
     7
100
AcDbLine
 10
162.1919949001735
 20
170.2151055230034
 30
0.0
 11
162.1919949001735
 21
148.3539076063367
 31
0.0
  0
LINE
  5
289
330
A
100
AcDbEntity
  8
0
 62
     7
100
AcDbLine
 10
162.1919949001735
 20
217.2289455837673
 30
0.0
 11
162.1919949001735
 21
168.9045912000868
 31
0.0
  0
LINE
  5
288
330
A
100
AcDbEntity
  8
0
 62
     7
100
AcDbLine
 10
161.2501057942708
 20
169.6444254557291
 30
0.0
 11
161.2501057942708
 21
148.3539076063367
 31
0.0
  0
LINE
  5
287
330
A
100
AcDbEntity
  8
0
 62
     7
100
AcDbLine
 10
161.2501057942708
 20
217.2289455837673
 30
0.0
 11
161.2501057942708
 21
168.3743910047742
 31
0.0
  0
LINE
  5
286
330
A
100
AcDbEntity
  8
0
 62
     7
100
AcDbLine
 10
160.9810438368055
 20
169.5017985026041
 30
0.0
 11
160.9810438368055
 21
148.3539076063367
 31
0.0
  0
LINE
  5
285
330
A
100
AcDbEntity
  8
0
 62
     7
100
AcDbLine
 10
160.9810438368055
 20
217.2289455837673
 30
0.0
 11
160.9810438368055
 21
168.2114379882812
 31
0.0
  0
LINE
  5
284
330
A
100
AcDbEntity
  8
0
 62
     7
100
AcDbLine
 10
160.5772786458333
 20
169.2571967230902
 30
0.0
 11
160.5772786458333
 21
148.3539076063367
 31
0.0
  0
LINE
  5
283
330
A
100
AcDbEntity
  8
0
 62
     7
100
AcDbLine
 10
160.5772786458333
 20
217.2289455837673
 30
0.0
 11
160.5772786458333
 21
167.9670084635416
 31
0.0
  0
LINE
  5
282
330
A
100
AcDbEntity
  8
0
 62
     7
100
AcDbLine
 10
159.7700927734374
 20
168.7888359917534
 30
0.0
 11
159.7700927734374
 21
148.3539076063367
 31
0.0
  0
LINE
  5
281
330
A
100
AcDbEntity
  8
0
 62
     7
100
AcDbLine
 10
159.7700927734374
 20
217.2289455837673
 30
0.0
 11
159.7700927734374
 21
167.538783094618
 31
0.0
  0
LINE
  5
280
330
A
100
AcDbEntity
  8
0
 62
     7
100
AcDbLine
 10
164.9511718749999
 20
175.0253200954861
 30
0.0
 11
164.9511718749999
 21
148.3539076063367
 31
0.0
  0
LINE
  5
27F
330
A
100
AcDbEntity
  8
0
 62
     7
100
AcDbLine
 10
164.9511718749999
 20
217.2289455837673
 30
0.0
 11
164.9511718749999
 21
174.7741726345485
 31
0.0
  0
LINE
  5
27E
330
A
100
AcDbEntity
  8
0
 62
     7
100
AcDbLine
 10
165.8930609809027
 20
172.4161770290798
 30
0.0
 11
165.8930609809027
 21
148.3539076063367
 31
0.0
  0
LINE
  5
27D
330
A
100
AcDbEntity
  8
0
 62
     7
100
AcDbLine
 10
165.8930609809027
 20
217.2289455837673
 30
0.0
 11
165.8930609809027
 21
171.1878282335069
 31
0.0
  0
LINE
  5
27C
330
A
100
AcDbEntity
  8
0
 62
     7
100
AcDbLine
 10
166.162122938368
 20
172.5591484917534
 30
0.0
 11
166.162122938368
 21
148.3539076063367
 31
0.0
  0
LINE
  5
27B
330
A
100
AcDbEntity
  8
0
 62
     7
100
AcDbLine
 10
166.162122938368
 20
217.2289455837673
 30
0.0
 11
166.162122938368
 21
171.2898030598958
 31
0.0
  0
LINE
  5
27A
330
A
100
AcDbEntity
  8
0
 62
     7
100
AcDbLine
 10
166.5658881293402
 20
172.7424275716145
 30
0.0
 11
166.5658881293402
 21
148.3539076063367
 31
0.0
  0
LINE
  5
279
330
A
100
AcDbEntity
  8
0
 62
     7
100
AcDbLine
 10
166.5658881293402
 20
217.2289455837673
 30
0.0
 11
166.5658881293402
 21
171.534060329861
 31
0.0
  0
LINE
  5
278
330
A
100
AcDbEntity
  8
0
 62
     7
100
AcDbLine
 10
167.373074001736
 20
173.2111328124999
 30
0.0
 11
167.373074001736
 21
148.3539076063367
 31
0.0
  0
LINE
  5
277
330
A
100
AcDbEntity
  8
0
 62
     7
100
AcDbLine
 10
167.373074001736
 20
217.2289455837673
 30
0.0
 11
167.373074001736
 21
171.9826117621527
 31
0.0
  0
LINE
  5
276
330
A
100
AcDbEntity
  8
0
 62
     7
100
AcDbLine
 10
155.8492296006944
 20
216.4522488064235
 30
0.0
 11
171.192995876736
 21
216.4522488064235
 31
0.0
  0
INSERT
  5
26E
330
A
100
AcDbEntity
  8
0
 62
     7
100
AcDbBlockReference
  2
AI9-BLK83
 10
163.6074123806423
 20
245.4394544813367
 30
0.0
  0
LINE
  5
26C
330
A
100
AcDbEntity
  8
0
 62
     7
100
AcDbLine
 10
155.4533881293402
 20
263.9594265407985
 30
0.0
 11
171.766259765625
 21
263.9594265407985
 31
0.0
  0
LINE
  5
26B
330
A
100
AcDbEntity
  8
0
 62
     7
100
AcDbLine
 10
155.4533881293402
 20
256.2272542317708
 30
0.0
 11
155.4533881293402
 21
263.9594265407985
 31
0.0
  0
LINE
  5
26A
330
A
100
AcDbEntity
  8
0
 62
     7
100
AcDbLine
 10
171.7621256510416
 20
256.2272542317708
 30
0.0
 11
171.7621256510416
 21
263.9594265407985
 31
0.0
  0
HATCH
  5
269
330
A
100
AcDbEntity
  8
0
 62
     7
100
AcDbHatch
 10
0.0
 20
0.0
 30
0.0
210
0.0
220
0.0
230
1.0
  2
SOLID
 70
     1
 71
     0
 91
        1
 92
        1
 93
        1
 72
     4
 94
        3
 73
     0
 74
     0
 95
       17
 96
       13
 40
0.0
 40
0.0
 40
0.0
 40
0.0
 40
1.0
 40
1.0
 40
1.0
 40
2.0
 40
2.0
 40
2.0
 40
3.0
 40
3.0
 40
3.0
 40
4.0
 40
4.0
 40
4.0
 40
4.0
 10
155.6390787760416
 20
263.9656277126736
 10
155.6390787760416
 20
263.8608968098957
 10
155.5543294270833
 20
263.7761474609374
 10
155.4495985243055
 20
263.7761474609374
 10
155.3448676215277
 20
263.7761474609374
 10
155.2601182725694
 20
263.8608968098957
 10
155.2601182725694
 20
263.9656277126736
 10
155.2601182725694
 20
264.0703586154513
 10
155.3448676215277
 20
264.1551079644096
 10
155.4495985243055
 20
264.1551079644096
 10
155.5543294270833
 20
264.1551079644096
 10
155.6390787760416
 20
264.0703586154513
 10
155.6390787760416
 20
263.9656277126736
 97
        0
 75
     0
 76
     1
 98
        1
 10
0.0
 20
0.0
  0
HATCH
  5
268
330
A
100
AcDbEntity
  8
0
 62
     7
100
AcDbHatch
 10
0.0
 20
0.0
 30
0.0
210
0.0
220
0.0
230
1.0
  2
SOLID
 70
     1
 71
     0
 91
        1
 92
        1
 93
        1
 72
     4
 94
        3
 73
     0
 74
     0
 95
       17
 96
       13
 40
0.0
 40
0.0
 40
0.0
 40
0.0
 40
1.0
 40
1.0
 40
1.0
 40
2.0
 40
2.0
 40
2.0
 40
3.0
 40
3.0
 40
3.0
 40
4.0
 40
4.0
 40
4.0
 40
4.0
 10
171.9612521701388
 20
263.9656277126736
 10
171.9612521701388
 20
263.8608968098957
 10
171.8765028211805
 20
263.7761474609374
 10
171.7717719184027
 20
263.7761474609374
 10
171.6670410156249
 20
263.7761474609374
 10
171.5822916666666
 20
263.8608968098957
 10
171.5822916666666
 20
263.9656277126736
 10
171.5822916666666
 20
264.0703586154513
 10
171.6670410156249
 20
264.1551079644096
 10
171.7717719184027
 20
264.1551079644096
 10
171.8765028211805
 20
264.1551079644096
 10
171.9612521701388
 20
264.0703586154513
 10
171.9612521701388
 20
263.9656277126736
 97
        0
 75
     0
 76
     1
 98
        1
 10
0.0
 20
0.0
  0
INSERT
  5
24A
330
A
100
AcDbEntity
  8
0
  6
AI9-LType1
 62
     7
100
AcDbBlockReference
  2
AI9-BLK76
 10
163.2534288194444
 20
266.453675672743
 30
0.0
  0
LINE
  5
248
330
A
100
AcDbEntity
  8
0
  6
AI9-LType1
 62
     7
100
AcDbLine
 10
163.6344563802083
 20
120.0608886718749
 30
0.0
 11
163.6344563802083
 21
244.8718749999999
 31
0.0
  0
LINE
  5
247
330
A
100
AcDbEntity
  8
0
  6
AI9-LType1
 62
     7
100
AcDbLine
 10
163.6344563802083
 20
135.9414008246527
 30
0.0
 11
163.6344563802083
 21
170.9895629882812
 31
0.0
  0
LINE
  5
246
330
A
100
AcDbEntity
  8
0
 62
     7
100
AcDbLine
 10
137.7145914713541
 20
137.6839301215277
 30
0.0
 11
188.1848958333333
 21
137.6839301215277
 31
0.0
  0
CIRCLE
  5
245
330
A
100
AcDbEntity
  8
0
 62
     7
100
AcDbCircle
 10
167.4268174913194
 20
145.7712917751736
 30
0.0
 40
1.406287977430555
  0
CIRCLE
  5
244
330
A
100
AcDbEntity
  8
0
 62
     7
100
AcDbCircle
 10
159.3125840928819
 20
145.7712917751736
 30
0.0
 40
1.406632486979166
  0
CIRCLE
  5
243
330
A
100
AcDbEntity
  8
0
 62
   189
100
AcDbCircle
 10
159.342556423611
 20
145.7933403862847
 30
0.0
 40
0.6249403211805556
  0
CIRCLE
  5
242
330
A
100
AcDbEntity
  8
0
 62
   189
100
AcDbCircle
 10
167.4075249565972
 20
145.7933403862847
 30
0.0
 40
0.6249403211805556
  0
LINE
  5
241
330
A
100
AcDbEntity
  8
0
 62
     7
100
AcDbLine
 10
183.1626356336805
 20
137.6839301215277
 30
0.0
 11
143.9305772569444
 21
137.6839301215277
 31
0.0
  0
LINE
  5
240
330
A
100
AcDbEntity
  8
0
 62
     7
100
AcDbLine
 10
177.5240478515624
 20
138.1156005859375
 30
0.0
 11
149.3142279730902
 21
138.1156005859375
 31
0.0
  0
LINE
  5
23F
330
A
100
AcDbEntity
  8
0
  6
AI9-LType2
 62
     7
100
AcDbLine
 10
144.3708604600694
 20
174.6291341145833
 30
0.0
 11
97.60403374565973
 21
174.6098415798611
 31
0.0
  0
INSERT
  5
236
330
A
100
AcDbEntity
  8
0
 62
     7
100
AcDbBlockReference
  2
AI9-BLK75
 10
114.7502739800347
 20
174.6820163302951
 30
0.0
  0
INSERT
  5
217
330
A
100
AcDbEntity
  8
0
 62
     7
100
AcDbBlockReference
  2
AI9-BLK68
 10
43.38167588975694
 20
144.3829182942708
 30
0.0
  0
INSERT
  5
20E
330
A
100
AcDbEntity
  8
0
 62
     7
100
AcDbBlockReference
  2
AI9-BLK66
 10
42.62651095920138
 20
181.9792453342013
 30
0.0
  0
INSERT
  5
205
330
A
100
AcDbEntity
  8
0
 62
     7
100
AcDbBlockReference
  2
AI9-BLK64
 10
42.62651095920138
 20
191.6220675998263
 30
0.0
  0
INSERT
  5
1FC
330
A
100
AcDbEntity
  8
0
 62
     7
100
AcDbBlockReference
  2
AI9-BLK62
 10
42.62651095920138
 20
202.1833523220486
 30
0.0
  0
INSERT
  5
1F3
330
A
100
AcDbEntity
  8
0
 62
     7
100
AcDbBlockReference
  2
AI9-BLK60
 10
42.62651095920138
 20
211.2143256293402
 30
0.0
  0
LINE
  5
1F1
330
A
100
AcDbEntity
  8
0
 62
     7
100
AcDbLine
 10
132.1738444010416
 20
178.924134657118
 30
0.0
 11
132.1738444010416
 21
184.0039279513888
 31
0.0
  0
LINE
  5
1F0
330
A
100
AcDbEntity
  8
0
 62
     7
100
AcDbLine
 10
104.4961195203992
 20
178.924134657118
 30
0.0
 11
104.4961195203992
 21
184.0039279513888
 31
0.0
  0
LINE
  5
1EF
330
A
100
AcDbEntity
  8
0
 62
     7
100
AcDbLine
 10
94.27262641059027
 20
173.5883707682291
 30
0.0
 11
94.27262641059027
 21
175.5813585069444
 31
0.0
  0
LINE
  5
1EE
330
A
100
AcDbEntity
  8
0
 62
     7
100
AcDbLine
 10
98.28237304687499
 20
173.6200656467013
 30
0.0
 11
94.2023464626736
 21
173.6200656467013
 31
0.0
  0
LINE
  5
1ED
330
A
100
AcDbEntity
  8
0
 62
     7
100
AcDbLine
 10
98.28237304687499
 20
175.5989284939236
 30
0.0
 11
94.2023464626736
 21
175.5989284939236
 31
0.0
  0
INSERT
  5
1D8
330
A
100
AcDbEntity
  8
0
 62
     7
100
AcDbBlockReference
  2
AI9-BLK55
 10
129.7472913953992
 20
179.2720893012152
 30
0.0
  0
INSERT
  5
1CF
330
A
100
AcDbEntity
  8
0
 62
     7
100
AcDbBlockReference
  2
AI9-BLK53
 10
118.7758680555555
 20
185.5697238498263
 30
0.0
  0
INSERT
  5
1C6
330
A
100
AcDbEntity
  8
0
 62
     7
100
AcDbBlockReference
  2
AI9-BLK51
 10
92.51700575086806
 20
174.5250922309027
 30
0.0
  0
INSERT
  5
1BD
330
A
100
AcDbEntity
  8
0
 62
     7
100
AcDbBlockReference
  2
AI9-BLK49
 10
99.07465888129339
 20
207.4219645182291
 30
0.0
  0
POLYLINE
  5
1B7
330
A
100
AcDbEntity
  8
0
 62
     7
100
AcDb2dPolyline
 66
     1
 10
0.0
 20
0.0
 30
0.0
  0
VERTEX
  5
1B8
330
1B7
100
AcDbEntity
  8
0
 62
     7
100
AcDbVertex
100
AcDb2dVertex
 10
78.18179117838541
 20
203.3236789279513
 30
0.0
  0
VERTEX
  5
1B9
330
1B7
100
AcDbEntity
  8
0
 62
     7
100
AcDbVertex
100
AcDb2dVertex
 10
84.13198784722222
 20
205.6704779730902
 30
0.0
  0
VERTEX
  5
1BA
330
1B7
100
AcDbEntity
  8
0
 62
     7
100
AcDbVertex
100
AcDb2dVertex
 10
111.8736192491319
 20
205.6704779730902
 30
0.0
  0
SEQEND
  5
1BB
330
1B7
100
AcDbEntity
  8
0
 62
     7
  0
POLYLINE
  5
1B2
330
A
100
AcDbEntity
  8
0
 62
     7
100
AcDb2dPolyline
 66
     1
 10
0.0
 20
0.0
 30
0.0
  0
VERTEX
  5
1B3
330
1B2
100
AcDbEntity
  8
0
 62
     7
100
AcDbVertex
100
AcDb2dVertex
 10
78.18179117838541
 20
211.1380167643228
 30
0.0
  0
VERTEX
  5
1B4
330
1B2
100
AcDbEntity
  8
0
 62
     7
100
AcDbVertex
100
AcDb2dVertex
 10
84.13198784722222
 20
213.4848158094618
 30
0.0
  0
VERTEX
  5
1B5
330
1B2
100
AcDbEntity
  8
0
 62
     7
100
AcDbVertex
100
AcDb2dVertex
 10
102.8882934570312
 20
213.4848158094618
 30
0.0
  0
SEQEND
  5
1B6
330
1B2
100
AcDbEntity
  8
0
 62
     7
  0
POLYLINE
  5
1AD
330
A
100
AcDbEntity
  8
0
 62
     7
100
AcDb2dPolyline
 66
     1
 10
0.0
 20
0.0
 30
0.0
  0
VERTEX
  5
1AE
330
1AD
100
AcDbEntity
  8
0
 62
     7
100
AcDbVertex
100
AcDb2dVertex
 10
76.52435574001735
 20
148.1194688585069
 30
0.0
  0
VERTEX
  5
1AF
330
1AD
100
AcDbEntity
  8
0
 62
     7
100
AcDbVertex
100
AcDb2dVertex
 10
82.26405707465277
 20
151.0948255750867
 30
0.0
  0
VERTEX
  5
1B0
330
1AD
100
AcDbEntity
  8
0
 62
     7
100
AcDbVertex
100
AcDb2dVertex
 10
111.0836588541666
 20
151.0948255750867
 30
0.0
  0
SEQEND
  5
1B1
330
1AD
100
AcDbEntity
  8
0
 62
     7
  0
POLYLINE
  5
1A8
330
A
100
AcDbEntity
  8
0
 62
     7
100
AcDb2dPolyline
 66
     1
 10
0.0
 20
0.0
 30
0.0
  0
VERTEX
  5
1A9
330
1A8
100
AcDbEntity
  8
0
 62
     7
100
AcDbVertex
100
AcDb2dVertex
 10
81.82911376953125
 20
142.5487494574652
 30
0.0
  0
VERTEX
  5
1AA
330
1A8
100
AcDbEntity
  8
0
 62
     7
100
AcDbVertex
100
AcDb2dVertex
 10
88.70759141710069
 20
147.1231472439235
 30
0.0
  0
VERTEX
  5
1AB
330
1A8
100
AcDbEntity
  8
0
 62
     7
100
AcDbVertex
100
AcDb2dVertex
 10
110.0639105902777
 20
147.1231472439235
 30
0.0
  0
SEQEND
  5
1AC
330
1A8
100
AcDbEntity
  8
0
 62
     7
  0
INSERT
  5
193
330
A
100
AcDbEntity
  8
0
 62
     7
100
AcDbBlockReference
  2
AI9-BLK44
 10
94.11880289713542
 20
215.473841688368
 30
0.0
  0
INSERT
  5
174
330
A
100
AcDbEntity
  8
0
 62
     7
100
AcDbBlockReference
  2
AI9-BLK37
 10
98.0718777126736
 20
153.102454969618
 30
0.0
  0
POLYLINE
  5
16E
330
A
100
AcDbEntity
  8
0
 62
     7
100
AcDb2dPolyline
 66
     1
 10
0.0
 20
0.0
 30
0.0
  0
VERTEX
  5
16F
330
16E
100
AcDbEntity
  8
0
 62
     7
100
AcDbVertex
100
AcDb2dVertex
 10
75.93197157118055
 20
94.60404459635416
 30
0.0
  0
VERTEX
  5
170
330
16E
100
AcDbEntity
  8
0
 62
     7
100
AcDbVertex
100
AcDb2dVertex
 10
89.91595865885415
 20
105.2786729600694
 30
0.0
  0
VERTEX
  5
171
330
16E
100
AcDbEntity
  8
0
 62
     7
100
AcDbVertex
100
AcDb2dVertex
 10
111.2710720486111
 20
105.2786729600694
 30
0.0
  0
SEQEND
  5
172
330
16E
100
AcDbEntity
  8
0
 62
     7
  0
INSERT
  5
166
330
A
100
AcDbEntity
  8
0
 62
     7
100
AcDbBlockReference
  2
AI9-BLK35
 10
100.3208360460069
 20
107.6389078776041
 30
0.0
  0
INSERT
  5
15D
330
A
100
AcDbEntity
  8
0
 62
     7
100
AcDbBlockReference
  2
AI9-BLK33
 10
98.71748860677083
 20
149.1123453776041
 30
0.0
  0
POLYLINE
  5
157
330
A
100
AcDbEntity
  8
0
 62
     7
100
AcDb2dPolyline
 66
     1
 10
0.0
 20
0.0
 30
0.0
  0
VERTEX
  5
158
330
157
100
AcDbEntity
  8
0
 62
     7
100
AcDbVertex
100
AcDb2dVertex
 10
81.75625
 20
94.45246039496527
 30
0.0
  0
VERTEX
  5
159
330
157
100
AcDbEntity
  8
0
 62
     7
100
AcDbVertex
100
AcDb2dVertex
 10
90.64786919487847
 20
99.956689453125
 30
0.0
  0
VERTEX
  5
15A
330
157
100
AcDbEntity
  8
0
 62
     7
100
AcDbVertex
100
AcDb2dVertex
 10
112.0041883680555
 20
99.956689453125
 30
0.0
  0
SEQEND
  5
15B
330
157
100
AcDbEntity
  8
0
 62
     7
  0
INSERT
  5
142
330
A
100
AcDbEntity
  8
0
 62
     7
100
AcDbBlockReference
  2
AI9-BLK28
 10
103.9650580512152
 20
101.9458875868055
 30
0.0
  0
INSERT
  5
139
330
A
100
AcDbEntity
  8
0
 62
     7
100
AcDbBlockReference
  2
AI9-BLK26
 10
128.7776692708333
 20
24.18284776475694
 30
0.0
  0
INSERT
  5
130
330
A
100
AcDbEntity
  8
0
 62
     7
100
AcDbBlockReference
  2
AI9-BLK24
 10
173.9180664062499
 20
24.18284776475694
 30
0.0
  0
INSERT
  5
111
330
A
100
AcDbEntity
  8
0
 62
     7
100
AcDbBlockReference
  2
AI9-BLK17
 10
72.05847846137152
 20
114.549769422743
 30
0.0
  0
POLYLINE
  5
10A
330
A
100
AcDbEntity
  8
0
 62
     7
100
AcDb2dPolyline
 66
     1
 10
0.0
 20
0.0
 30
0.0
  0
VERTEX
  5
10B
330
10A
100
AcDbEntity
  8
0
 62
     7
100
AcDbVertex
100
AcDb2dVertex
 10
64.43189832899304
 20
166.1726304796006
 30
0.0
  0
VERTEX
  5
10C
330
10A
100
AcDbEntity
  8
0
 62
     7
100
AcDbVertex
100
AcDb2dVertex
 10
64.43189832899304
 20
218.2152764214409
 30
0.0
  0
VERTEX
  5
10D
330
10A
100
AcDbEntity
  8
0
 62
     7
100
AcDbVertex
100
AcDb2dVertex
 10
80.03197970920139
 20
218.2152764214409
 30
0.0
  0
VERTEX
  5
10E
330
10A
100
AcDbEntity
  8
0
 62
     7
100
AcDbVertex
100
AcDb2dVertex
 10
80.03197970920139
 20
175.2454616970485
 30
0.0
  0
SEQEND
  5
10F
330
10A
100
AcDbEntity
  8
0
 62
     7
  0
POLYLINE
  5
104
330
A
100
AcDbEntity
  8
0
 62
   189
100
AcDb2dPolyline
 66
     1
 10
0.0
 20
0.0
 30
0.0
  0
VERTEX
  5
105
330
104
100
AcDbEntity
  8
0
 62
   189
100
AcDbVertex
100
AcDb2dVertex
 10
80.03197970920139
 20
176.5416788736978
 30
0.0
  0
VERTEX
  5
106
330
104
100
AcDbEntity
  8
0
 62
   189
100
AcDbVertex
100
AcDb2dVertex
 10
80.03197970920139
 20
149.2663411458333
 30
0.0
  0
VERTEX
  5
107
330
104
100
AcDbEntity
  8
0
 62
   189
100
AcDbVertex
100
AcDb2dVertex
 10
64.43189832899304
 20
149.2663411458333
 30
0.0
  0
VERTEX
  5
108
330
104
100
AcDbEntity
  8
0
 62
   189
100
AcDbVertex
100
AcDb2dVertex
 10
64.43189832899304
 20
167.54326171875
 30
0.0
  0
SEQEND
  5
109
330
104
100
AcDbEntity
  8
0
 62
   189
  0
LINE
  5
103
330
A
100
AcDbEntity
  8
0
 62
     7
100
AcDbLine
 10
65.38601752387151
 20
168.0993001302083
 30
0.0
 11
65.38601752387151
 21
149.2670301649305
 31
0.0
  0
LINE
  5
102
330
A
100
AcDbEntity
  8
0
 62
     7
100
AcDbLine
 10
65.38601752387151
 20
218.2152764214409
 30
0.0
 11
65.38601752387151
 21
166.7279798719618
 31
0.0
  0
LINE
  5
101
330
A
100
AcDbEntity
  8
0
 62
     7
100
AcDbLine
 10
64.66013590494791
 20
167.6914008246527
 30
0.0
 11
64.66013590494791
 21
149.2670301649305
 31
0.0
  0
LINE
  5
100
330
A
100
AcDbEntity
  8
0
 62
     7
100
AcDbLine
 10
64.66013590494791
 20
218.2152764214409
 30
0.0
 11
64.66013590494791
 21
166.3207695855034
 31
0.0
  0
LINE
  5
FF
330
A
100
AcDbEntity
  8
0
 62
     7
100
AcDbLine
 10
79.74190266927083
 20
176.3935397677951
 30
0.0
 11
79.74190266927083
 21
149.2670301649305
 31
0.0
  0
LINE
  5
FE
330
A
100
AcDbEntity
  8
0
 62
     7
100
AcDbLine
 10
79.74190266927083
 20
218.2152764214409
 30
0.0
 11
79.74190266927083
 21
175.0599433051215
 31
0.0
  0
LINE
  5
FD
330
A
100
AcDbEntity
  8
0
 62
     7
100
AcDbLine
 10
79.09680853949652
 20
176.0231920030381
 30
0.0
 11
79.09680853949652
 21
149.2670301649305
 31
0.0
  0
LINE
  5
FC
330
A
100
AcDbEntity
  8
0
 62
     7
100
AcDbLine
 10
79.09680853949652
 20
218.2152764214409
 30
0.0
 11
79.09680853949652
 21
174.6895955403645
 31
0.0
  0
POLYLINE
  5
F6
330
A
100
AcDbEntity
  8
0
 62
   189
100
AcDb2dPolyline
 66
     1
 10
0.0
 20
0.0
 30
0.0
  0
VERTEX
  5
F7
330
F6
100
AcDbEntity
  8
0
 62
   189
100
AcDbVertex
100
AcDb2dVertex
 10
155.7269287109375
 20
165.1726915147569
 30
0.0
  0
VERTEX
  5
F8
330
F6
100
AcDbEntity
  8
0
 62
   189
100
AcDbVertex
100
AcDb2dVertex
 10
155.7269287109375
 20
217.253578016493
 30
0.0
  0
VERTEX
  5
F9
330
F6
100
AcDbEntity
  8
0
 62
   189
100
AcDbVertex
100
AcDb2dVertex
 10
171.3270100911458
 20
217.253578016493
 30
0.0
  0
VERTEX
  5
FA
330
F6
100
AcDbEntity
  8
0
 62
   189
100
AcDbVertex
100
AcDb2dVertex
 10
171.3270100911458
 20
174.2455227322048
 30
0.0
  0
SEQEND
  5
FB
330
F6
100
AcDbEntity
  8
0
 62
   189
  0
POLYLINE
  5
F0
330
A
100
AcDbEntity
  8
0
 62
   189
100
AcDb2dPolyline
 66
     1
 10
0.0
 20
0.0
 30
0.0
  0
VERTEX
  5
F1
330
F0
100
AcDbEntity
  8
0
 62
   189
100
AcDbVertex
100
AcDb2dVertex
 10
171.3270100911458
 20
175.5417399088541
 30
0.0
  0
VERTEX
  5
F2
330
F0
100
AcDbEntity
  8
0
 62
   189
100
AcDbVertex
100
AcDb2dVertex
 10
171.3270100911458
 20
148.2660576714409
 30
0.0
  0
VERTEX
  5
F3
330
F0
100
AcDbEntity
  8
0
 62
   189
100
AcDbVertex
100
AcDb2dVertex
 10
155.7269287109375
 20
148.2660576714409
 30
0.0
  0
VERTEX
  5
F4
330
F0
100
AcDbEntity
  8
0
 62
   189
100
AcDbVertex
100
AcDb2dVertex
 10
155.7269287109375
 20
166.5433227539062
 30
0.0
  0
SEQEND
  5
F5
330
F0
100
AcDbEntity
  8
0
 62
   189
  0
LINE
  5
EF
330
A
100
AcDbEntity
  8
0
 62
   189
100
AcDbLine
 10
156.6812201605902
 20
167.0993611653645
 30
0.0
 11
156.6812201605902
 21
148.2667466905381
 31
0.0
  0
LINE
  5
EE
330
A
100
AcDbEntity
  8
0
 62
   189
100
AcDbLine
 10
156.6812201605902
 20
217.253578016493
 30
0.0
 11
156.6812201605902
 21
165.728040907118
 31
0.0
  0
LINE
  5
ED
330
A
100
AcDbEntity
  8
0
 62
   189
100
AcDbLine
 10
155.954994032118
 20
166.691461859809
 30
0.0
 11
155.954994032118
 21
148.2667466905381
 31
0.0
  0
LINE
  5
EC
330
A
100
AcDbEntity
  8
0
 62
   189
100
AcDbLine
 10
155.954994032118
 20
217.253578016493
 30
0.0
 11
155.954994032118
 21
165.3208306206597
 31
0.0
  0
LINE
  5
EB
330
A
100
AcDbEntity
  8
0
 62
   189
100
AcDbLine
 10
171.0369330512152
 20
175.3936008029513
 30
0.0
 11
171.0369330512152
 21
148.2667466905381
 31
0.0
  0
LINE
  5
EA
330
A
100
AcDbEntity
  8
0
 62
   189
100
AcDbLine
 10
171.0369330512152
 20
217.253578016493
 30
0.0
 11
171.0369330512152
 21
174.0600043402777
 31
0.0
  0
LINE
  5
E9
330
A
100
AcDbEntity
  8
0
 62
   189
100
AcDbLine
 10
170.3920111762152
 20
175.0232530381944
 30
0.0
 11
170.3920111762152
 21
148.2667466905381
 31
0.0
  0
LINE
  5
E8
330
A
100
AcDbEntity
  8
0
 62
   189
100
AcDbLine
 10
170.3920111762152
 20
217.253578016493
 30
0.0
 11
170.3920111762152
 21
173.6896565755208
 31
0.0
  0
POLYLINE
  5
E3
330
A
100
AcDbEntity
  8
0
 62
     7
100
AcDb2dPolyline
 66
     1
 10
0.0
 20
0.0
 30
0.0
  0
VERTEX
  5
E4
330
E3
100
AcDbEntity
  8
0
 62
     7
100
AcDbVertex
100
AcDb2dVertex
 10
132.1996826171874
 20
177.7007812499999
 30
0.0
  0
VERTEX
  5
E5
330
E3
100
AcDbEntity
  8
0
 62
     7
100
AcDbVertex
100
AcDb2dVertex
 10
131.0631456163194
 20
177.7007812499999
 30
0.0
  0
VERTEX
  5
E6
330
E3
100
AcDbEntity
  8
0
 62
     7
100
AcDbVertex
100
AcDb2dVertex
 10
131.0631456163194
 20
175.9460218641492
 30
0.0
  0
SEQEND
  5
E7
330
E3
100
AcDbEntity
  8
0
 62
     7
  0
INSERT
  5
DB
330
A
100
AcDbEntity
  8
0
 62
     7
100
AcDbBlockReference
  2
AI9-BLK15
 10
99.90311821831596
 20
219.9435085720486
 30
0.0
  0
SPLINE
  5
D9
330
A
100
AcDbEntity
  8
0
 62
     7
100
AcDbSpline
210
0.0
220
0.0
230
1.0
 70
     9
 71
     3
 72
    20
 73
    16
 74
     0
 42
0.0000000001
 43
0.0000000001
 40
0.0
 40
0.0
 40
0.0
 40
0.0
 40
1.0
 40
1.0
 40
1.0
 40
2.0
 40
2.0
 40
2.0
 40
3.0
 40
3.0
 40
3.0
 40
4.0
 40
4.0
 40
4.0
 40
5.0
 40
5.0
 40
5.0
 40
5.0
 10
69.58886176215277
 20
91.7501274956597
 30
0.0
 10
69.58886176215277
 20
91.7501274956597
 30
0.0
 10
69.59385715060763
 20
92.0102322048611
 30
0.0
 10
69.608154296875
 20
92.19178873697916
 30
0.0
 10
69.69152560763888
 20
93.2504665798611
 30
0.0
 10
69.56336805555555
 20
94.69878472222221
 30
0.0
 10
68.81371527777777
 20
94.98162706163194
 30
0.0
 10
68.06371799045138
 20
95.26412489149304
 30
0.0
 10
67.24636908637151
 20
94.2798611111111
 30
0.0
 10
67.00572916666665
 20
93.23978678385415
 30
0.0
 10
66.88256700303819
 20
92.70751953124998
 30
0.0
 10
66.81056450737847
 20
92.19488932291666
 30
0.0
 10
66.86017388237846
 20
91.7501274956597
 30
0.0
 10
66.86017388237846
 20
91.7501274956597
 30
0.0
 10
69.58886176215277
 20
91.7501274956597
 30
0.0
 10
69.58886176215277
 20
91.7501274956597
 30
0.0
  0
SPLINE
  5
D8
330
A
100
AcDbEntity
  8
0
 62
     7
100
AcDbSpline
210
0.0
220
0.0
230
1.0
 70
     9
 71
     3
 72
    20
 73
    16
 74
     0
 42
0.0000000001
 43
0.0000000001
 40
0.0
 40
0.0
 40
0.0
 40
0.0
 40
1.0
 40
1.0
 40
1.0
 40
2.0
 40
2.0
 40
2.0
 40
3.0
 40
3.0
 40
3.0
 40
4.0
 40
4.0
 40
4.0
 40
5.0
 40
5.0
 40
5.0
 40
5.0
 10
75.10928276909722
 20
91.7501274956597
 30
0.0
 10
75.10928276909722
 20
91.7501274956597
 30
0.0
 10
75.10428738064234
 20
92.0102322048611
 30
0.0
 10
75.089990234375
 20
92.19178873697916
 30
0.0
 10
75.0066189236111
 20
93.2504665798611
 30
0.0
 10
75.13477647569444
 20
94.69878472222221
 30
0.0
 10
75.88442925347222
 20
94.98162706163194
 30
0.0
 10
76.6344265407986
 20
95.26412489149304
 30
0.0
 10
77.45177544487846
 20
94.2798611111111
 30
0.0
 10
77.69241536458332
 20
93.23978678385415
 30
0.0
 10
77.8155775282118
 20
92.70751953124998
 30
0.0
 10
77.88758002387152
 20
92.19488932291666
 30
0.0
 10
77.83797064887152
 20
91.7501274956597
 30
0.0
 10
77.83797064887152
 20
91.7501274956597
 30
0.0
 10
75.10928276909722
 20
91.7501274956597
 30
0.0
 10
75.10928276909722
 20
91.7501274956597
 30
0.0
  0
SPLINE
  5
D7
330
A
100
AcDbEntity
  8
0
 62
     7
100
AcDbSpline
210
0.0
220
0.0
230
1.0
 70
     8
 71
     3
 72
    32
 73
    28
 74
     0
 42
0.0000000001
 43
0.0000000001
 40
0.0
 40
0.0
 40
0.0
 40
0.0
 40
1.0
 40
1.0
 40
1.0
 40
2.0
 40
2.0
 40
2.0
 40
3.0
 40
3.0
 40
3.0
 40
4.0
 40
4.0
 40
4.0
 40
5.0
 40
5.0
 40
5.0
 40
6.0
 40
6.0
 40
6.0
 40
7.0
 40
7.0
 40
7.0
 40
8.0
 40
8.0
 40
8.0
 40
9.0
 40
9.0
 40
9.0
 40
9.0
 10
83.71530354817707
 20
99.89743381076388
 30
0.0
 10
80.48328721788193
 20
102.1212429470486
 30
0.0
 10
76.57207031249999
 20
103.4279676649305
 30
0.0
 10
72.3523451063368
 20
103.4279676649305
 30
0.0
 10
68.04132486979167
 20
103.4279676649305
 30
0.0
 10
64.05155978732638
 20
102.065087890625
 30
0.0
 10
60.77940809461805
 20
99.75342881944444
 30
0.0
 10
59.4540798611111
 20
98.83599989149304
 30
0.0
 10
58.07604166666666
 20
97.30534396701388
 30
0.0
 10
58.07604166666666
 20
95.1883327907986
 30
0.0
 10
58.07604166666666
 20
95.1883327907986
 30
0.0
 10
58.07604166666666
 20
71.61009928385415
 30
0.0
 10
58.07604166666666
 20
71.61009928385415
 30
0.0
 10
58.07604166666666
 20
69.22884928385416
 30
0.0
 10
59.50713433159721
 20
67.70336100260415
 30
0.0
 10
60.83745795355902
 20
66.87894965277777
 30
0.0
 10
64.0985853407118
 20
64.59209526909721
 30
0.0
 10
68.06699083116318
 20
63.24575195312499
 30
0.0
 10
72.3523451063368
 20
63.24575195312499
 30
0.0
 10
76.58119981553818
 20
63.24575195312499
 30
0.0
 10
80.49999593098958
 20
64.55833333333332
 30
0.0
 10
83.73614637586804
 20
66.79075520833333
 30
0.0
 10
84.85752495659722
 20
67.55074327256943
 30
0.0
 10
86.39076470269095
 20
69.28776041666665
 30
0.0
 10
86.39076470269095
 20
71.58150499131943
 30
0.0
 10
86.39076470269095
 20
71.58150499131943
 30
0.0
 10
86.39076470269095
 20
95.18661024305554
 30
0.0
 10
86.39076470269095
 20
95.18661024305554
 30
0.0
  0
SPLINE
  5
D6
330
A
100
AcDbEntity
  8
0
 62
     7
100
AcDbSpline
210
0.0
220
0.0
230
1.0
 70
     8
 71
     3
 72
    11
 73
     7
 74
     0
 42
0.0000000001
 43
0.0000000001
 40
0.0
 40
0.0
 40
0.0
 40
0.0
 40
1.0
 40
1.0
 40
1.0
 40
2.0
 40
2.0
 40
2.0
 40
2.0
 10
86.39076470269095
 20
95.18661024305554
 30
0.0
 10
86.44054633246527
 20
97.26228027343751
 30
0.0
 10
85.15673149956596
 20
99.01996799045138
 30
0.0
 10
83.71530354817707
 20
99.89743381076388
 30
0.0
 10
80.48328721788193
 20
102.1212429470486
 30
0.0
 10
76.57207031249999
 20
103.4279676649305
 30
0.0
 10
72.3523451063368
 20
103.4279676649305
 30
0.0
  0
LINE
  5
D5
330
A
100
AcDbEntity
  8
0
  6
AI9-LType1
 62
     7
100
AcDbLine
 10
163.3757297092013
 20
59.62840169270833
 30
0.0
 11
163.3757297092013
 21
105.8950005425347
 31
0.0
  0
SPLINE
  5
D4
330
A
100
AcDbEntity
  8
0
 62
     7
100
AcDbSpline
210
0.0
220
0.0
230
1.0
 70
     9
 71
     3
 72
    47
 73
    43
 74
     0
 42
0.0000000001
 43
0.0000000001
 40
0.0
 40
0.0
 40
0.0
 40
0.0
 40
1.0
 40
1.0
 40
1.0
 40
2.0
 40
2.0
 40
2.0
 40
3.0
 40
3.0
 40
3.0
 40
4.0
 40
4.0
 40
4.0
 40
5.0
 40
5.0
 40
5.0
 40
6.0
 40
6.0
 40
6.0
 40
7.0
 40
7.0
 40
7.0
 40
8.0
 40
8.0
 40
8.0
 40
9.0
 40
9.0
 40
9.0
 40
10.0
 40
10.0
 40
10.0
 40
11.0
 40
11.0
 40
11.0
 40
12.0
 40
12.0
 40
12.0
 40
13.0
 40
13.0
 40
13.0
 40
14.0
 40
14.0
 40
14.0
 40
14.0
 10
162.7339084201388
 20
88.09522569444444
 30
0.0
 10
162.7380425347222
 20
88.00668674045139
 30
0.0
 10
162.7414876302083
 20
87.9178032769097
 30
0.0
 10
162.7414876302083
 20
87.82857530381944
 30
0.0
 10
162.7414876302083
 20
85.43664550781249
 30
0.0
 10
161.3000596788194
 20
82.86625976562499
 30
0.0
 10
158.0099934895833
 20
82.59030761718749
 30
0.0
 10
157.7185384114583
 20
82.5658474392361
 30
0.0
 10
157.2248562282986
 20
82.38084581163194
 30
0.0
 10
157.2248562282986
 20
81.84306640624999
 30
0.0
 10
157.2248562282986
 20
81.44240180121526
 30
0.0
 10
157.4983968098958
 20
81.10374891493055
 30
0.0
 10
157.8218912760416
 20
81.10374891493055
 30
0.0
 10
157.8218912760416
 20
81.10374891493055
 30
0.0
 10
157.8718451605902
 20
81.10305989583332
 30
0.0
 10
157.8718451605902
 20
81.10305989583332
 30
0.0
 10
157.8718451605902
 20
81.10305989583332
 30
0.0
 10
163.396400282118
 20
80.98041449652777
 30
0.0
 10
163.4976860894097
 20
80.97834743923611
 30
0.0
 10
163.5986273871527
 20
80.98075900607637
 30
0.0
 10
168.8213921440972
 20
81.10374891493055
 30
0.0
 10
168.8213921440972
 20
81.10374891493055
 30
0.0
 10
168.8213921440972
 20
81.10374891493055
 30
0.0
 10
168.8479193793402
 20
81.10374891493055
 30
0.0
 10
168.8479193793402
 20
81.10374891493055
 30
0.0
 10
169.171413845486
 20
81.10374891493055
 30
0.0
 10
169.4446099175347
 20
81.44240180121526
 30
0.0
 10
169.4446099175347
 20
81.84306640624999
 30
0.0
 10
169.4446099175347
 20
82.49039984809028
 30
0.0
 10
168.7025363498263
 20
82.58548448350692
 30
0.0
 10
168.617787000868
 20
82.59409722222221
 30
0.0
 10
165.3401231553819
 20
82.93033854166665
 30
0.0
 10
163.9138536241319
 20
85.45456000434027
 30
0.0
 10
163.9138536241319
 20
87.79860297309026
 30
0.0
 10
163.9138536241319
 20
87.89816623263888
 30
0.0
 10
163.9186767578124
 20
87.99704047309026
 30
0.0
 10
163.9238444010416
 20
88.09591471354165
 30
0.0
 10
163.9183322482638
 20
88.49106716579859
 30
0.0
 10
163.6492702907986
 20
88.82351888020833
 30
0.0
 10
163.3288764105902
 20
88.82351888020833
 30
0.0
 10
163.0084825303819
 20
88.82351888020833
 30
0.0
 10
162.739076063368
 20
88.49072265624998
 30
0.0
 10
162.7339084201388
 20
88.09522569444444
 30
0.0
  0
LINE
  5
D3
330
A
100
AcDbEntity
  8
0
 62
     7
100
AcDbLine
 10
135.7040337456597
 20
72.30015190972221
 30
0.0
 11
141.0229166666666
 21
72.30015190972221
 31
0.0
  0
LINE
  5
D2
330
A
100
AcDbEntity
  8
0
 62
     7
100
AcDbLine
 10
135.7040337456597
 20
94.685693359375
 30
0.0
 11
141.0229166666666
 21
94.685693359375
 31
0.0
  0
LINE
  5
D1
330
A
100
AcDbEntity
  8
0
 62
     7
100
AcDbLine
 10
135.7040337456597
 20
94.685693359375
 30
0.0
 11
135.7040337456597
 21
72.2281494140625
 31
0.0
  0
HATCH
  5
D0
330
A
100
AcDbEntity
  8
0
 62
     7
100
AcDbHatch
 10
0.0
 20
0.0
 30
0.0
210
0.0
220
0.0
230
1.0
  2
SOLID
 70
     1
 71
     0
 91
        1
 92
        1
 93
        1
 72
     4
 94
        3
 73
     0
 74
     0
 95
       17
 96
       13
 40
0.0
 40
0.0
 40
0.0
 40
0.0
 40
1.0
 40
1.0
 40
1.0
 40
2.0
 40
2.0
 40
2.0
 40
3.0
 40
3.0
 40
3.0
 40
4.0
 40
4.0
 40
4.0
 40
4.0
 10
135.7112684461805
 20
94.94786512586804
 10
135.8159993489583
 20
94.94786512586804
 10
135.9007486979166
 20
94.86311577690971
 10
135.9007486979166
 20
94.75838487413193
 10
135.9007486979166
 20
94.65365397135416
 10
135.8159993489583
 20
94.56890462239583
 10
135.7112684461805
 20
94.56890462239583
 10
135.6065375434027
 20
94.56890462239583
 10
135.5217881944444
 20
94.65365397135416
 10
135.5217881944444
 20
94.75838487413193
 10
135.5217881944444
 20
94.86311577690971
 10
135.6065375434027
 20
94.94786512586804
 10
135.7112684461805
 20
94.94786512586804
 97
        0
 75
     0
 76
     1
 98
        1
 10
0.0
 20
0.0
  0
HATCH
  5
CF
330
A
100
AcDbEntity
  8
0
 62
     7
100
AcDbHatch
 10
0.0
 20
0.0
 30
0.0
210
0.0
220
0.0
230
1.0
  2
SOLID
 70
     1
 71
     0
 91
        1
 92
        1
 93
        1
 72
     4
 94
        3
 73
     0
 74
     0
 95
       17
 96
       13
 40
0.0
 40
0.0
 40
0.0
 40
0.0
 40
1.0
 40
1.0
 40
1.0
 40
2.0
 40
2.0
 40
2.0
 40
3.0
 40
3.0
 40
3.0
 40
4.0
 40
4.0
 40
4.0
 40
4.0
 10
135.7112684461805
 20
72.42004123263888
 10
135.8159993489583
 20
72.42004123263888
 10
135.9007486979166
 20
72.33529188368056
 10
135.9007486979166
 20
72.23056098090276
 10
135.9007486979166
 20
72.12583007812499
 10
135.8159993489583
 20
72.04108072916667
 10
135.7112684461805
 20
72.04108072916667
 10
135.6065375434027
 20
72.04108072916667
 10
135.5217881944444
 20
72.12583007812499
 10
135.5217881944444
 20
72.23056098090276
 10
135.5217881944444
 20
72.33529188368056
 10
135.6065375434027
 20
72.42004123263888
 10
135.7112684461805
 20
72.42004123263888
 97
        0
 75
     0
 76
     1
 98
        1
 10
0.0
 20
0.0
  0
INSERT
  5
B1
330
A
100
AcDbEntity
  8
0
  6
AI9-LType1
 62
     7
100
AcDbBlockReference
  2
AI9-BLK8
 10
133.5601508246527
 20
84.56779242621527
 30
0.0
  0
LINE
  5
AF
330
A
100
AcDbEntity
  8
0
  6
AI9-LType1
 62
     7
100
AcDbLine
 10
146.2584282769097
 20
72.30015190972221
 30
0.0
 11
181.1434651692708
 21
72.30015190972221
 31
0.0
  0
LINE
  5
AE
330
A
100
AcDbEntity
  8
0
 62
     7
100
AcDbLine
 10
154.6282877604166
 20
106.9006239149305
 30
0.0
 11
154.6282877604166
 21
112.2195068359374
 31
0.0
  0
LINE
  5
AD
330
A
100
AcDbEntity
  8
0
 62
     7
100
AcDbLine
 10
171.9326578776041
 20
106.9006239149305
 30
0.0
 11
171.9326578776041
 21
112.2195068359374
 31
0.0
  0
LINE
  5
AC
330
A
100
AcDbEntity
  8
0
 62
     7
100
AcDbLine
 10
154.5397488064236
 20
112.2195068359374
 30
0.0
 11
172.0046603732638
 21
112.2195068359374
 31
0.0
  0
HATCH
  5
AB
330
A
100
AcDbEntity
  8
0
 62
     7
100
AcDbHatch
 10
0.0
 20
0.0
 30
0.0
210
0.0
220
0.0
230
1.0
  2
SOLID
 70
     1
 71
     0
 91
        1
 92
        1
 93
        1
 72
     4
 94
        3
 73
     0
 74
     0
 95
       17
 96
       13
 40
0.0
 40
0.0
 40
0.0
 40
0.0
 40
1.0
 40
1.0
 40
1.0
 40
2.0
 40
2.0
 40
2.0
 40
3.0
 40
3.0
 40
3.0
 40
4.0
 40
4.0
 40
4.0
 40
4.0
 10
154.4384629991319
 20
112.2108940972222
 10
154.4384629991319
 20
112.3156249999999
 10
154.5232123480902
 20
112.4003743489583
 10
154.627943250868
 20
112.4003743489583
 10
154.7326741536458
 20
112.4003743489583
 10
154.8174235026041
 20
112.3156249999999
 10
154.8174235026041
 20
112.2108940972222
 10
154.8174235026041
 20
112.1061631944444
 10
154.7326741536458
 20
112.021413845486
 10
154.627943250868
 20
112.021413845486
 10
154.5232123480902
 20
112.021413845486
 10
154.4384629991319
 20
112.1061631944444
 10
154.4384629991319
 20
112.2108940972222
 97
        0
 75
     0
 76
     1
 98
        1
 10
0.0
 20
0.0
  0
HATCH
  5
AA
330
A
100
AcDbEntity
  8
0
 62
     7
100
AcDbHatch
 10
0.0
 20
0.0
 30
0.0
210
0.0
220
0.0
230
1.0
  2
SOLID
 70
     1
 71
     0
 91
        1
 92
        1
 93
        1
 72
     4
 94
        3
 73
     0
 74
     0
 95
       17
 96
       13
 40
0.0
 40
0.0
 40
0.0
 40
0.0
 40
1.0
 40
1.0
 40
1.0
 40
2.0
 40
2.0
 40
2.0
 40
3.0
 40
3.0
 40
3.0
 40
4.0
 40
4.0
 40
4.0
 40
4.0
 10
171.7442111545138
 20
112.2267415364583
 10
171.7442111545138
 20
112.331472439236
 10
171.8289605034722
 20
112.4162217881944
 10
171.9336914062499
 20
112.4162217881944
 10
172.0384223090277
 20
112.4162217881944
 10
172.123171657986
 20
112.331472439236
 10
172.123171657986
 20
112.2267415364583
 10
172.123171657986
 20
112.1220106336805
 10
172.0384223090277
 20
112.0372612847222
 10
171.9336914062499
 20
112.0372612847222
 10
171.8289605034722
 20
112.0372612847222
 10
171.7442111545138
 20
112.1220106336805
 10
171.7442111545138
 20
112.2267415364583
 97
        0
 75
     0
 76
     1
 98
        1
 10
0.0
 20
0.0
  0
INSERT
  5
8C
330
A
100
AcDbEntity
  8
0
  6
AI9-LType1
 62
     7
100
AcDbBlockReference
  2
AI9-BLK1
 10
163.4411865234374
 20
114.0981174045138
 30
0.0
  0
LINE
  5
8A
330
A
100
AcDbEntity
  8
0
  6
AI9-LType1
 62
     7
100
AcDbLine
 10
171.9326578776041
 20
69.794189453125
 30
0.0
 11
171.9326578776041
 21
105.7730441623263
 31
0.0
  0
LINE
  5
89
330
A
100
AcDbEntity
  8
0
  6
AI9-LType1
 62
     7
100
AcDbLine
 10
154.6282877604166
 20
69.794189453125
 30
0.0
 11
154.6282877604166
 21
105.7730441623263
 31
0.0
  0
LINE
  5
88
330
A
100
AcDbEntity
  8
0
  6
AI9-LType1
 62
     7
100
AcDbLine
 10
146.2908121744791
 20
94.685693359375
 30
0.0
 11
179.2707112630208
 21
94.685693359375
 31
0.0
  0
POLYLINE
  5
81
330
A
100
AcDbEntity
  8
0
 62
     7
100
AcDb2dPolyline
 66
     1
 10
0.0
 20
0.0
 30
0.0
 70
     1
  0
VERTEX
  5
82
330
81
100
AcDbEntity
  8
0
 62
     7
100
AcDbVertex
100
AcDb2dVertex
 10
131.0069905598958
 20
173.3570326063367
 30
0.0
  0
VERTEX
  5
83
330
81
100
AcDbEntity
  8
0
 62
     7
100
AcDbVertex
100
AcDb2dVertex
 10
125.0070122612847
 20
173.3570326063367
 30
0.0
  0
VERTEX
  5
84
330
81
100
AcDbEntity
  8
0
 62
     7
100
AcDbVertex
100
AcDb2dVertex
 10
125.0070122612847
 20
176.0070000542534
 30
0.0
  0
VERTEX
  5
85
330
81
100
AcDbEntity
  8
0
 62
     7
100
AcDbVertex
100
AcDb2dVertex
 10
131.0069905598958
 20
176.0070000542534
 30
0.0
  0
SEQEND
  5
86
330
81
100
AcDbEntity
  8
0
 62
     7
  0
POLYLINE
  5
7B
330
A
100
AcDbEntity
  8
0
 62
     7
100
AcDb2dPolyline
 66
     1
 10
0.0
 20
0.0
 30
0.0
 70
     1
  0
VERTEX
  5
7C
330
7B
100
AcDbEntity
  8
0
 62
     7
100
AcDbVertex
100
AcDb2dVertex
 10
132.1738444010416
 20
172.8821261935763
 30
0.0
  0
VERTEX
  5
7D
330
7B
100
AcDbEntity
  8
0
 62
     7
100
AcDbVertex
100
AcDb2dVertex
 10
131.013880750868
 20
172.8821261935763
 30
0.0
  0
VERTEX
  5
7E
330
7B
100
AcDbEntity
  8
0
 62
     7
100
AcDbVertex
100
AcDb2dVertex
 10
131.013880750868
 20
176.4820787217881
 30
0.0
  0
VERTEX
  5
7F
330
7B
100
AcDbEntity
  8
0
 62
     7
100
AcDbVertex
100
AcDb2dVertex
 10
132.1738444010416
 20
176.4820787217881
 30
0.0
  0
SEQEND
  5
80
330
7B
100
AcDbEntity
  8
0
 62
     7
  0
LINE
  5
7A
330
A
100
AcDbEntity
  8
0
 62
     7
100
AcDbLine
 10
163.6933675130208
 20
78.5784939236111
 30
0.0
 11
165.5433837890624
 21
78.5784939236111
 31
0.0
  0
SPLINE
  5
79
330
A
100
AcDbEntity
  8
0
 62
     7
100
AcDbSpline
210
0.0
220
0.0
230
1.0
 70
     9
 71
     3
 72
    41
 73
    37
 74
     0
 42
0.0000000001
 43
0.0000000001
 40
0.0
 40
0.0
 40
0.0
 40
0.0
 40
1.0
 40
1.0
 40
1.0
 40
2.0
 40
2.0
 40
2.0
 40
3.0
 40
3.0
 40
3.0
 40
4.0
 40
4.0
 40
4.0
 40
5.0
 40
5.0
 40
5.0
 40
6.0
 40
6.0
 40
6.0
 40
7.0
 40
7.0
 40
7.0
 40
8.0
 40
8.0
 40
8.0
 40
9.0
 40
9.0
 40
9.0
 40
10.0
 40
10.0
 40
10.0
 40
11.0
 40
11.0
 40
11.0
 40
12.0
 40
12.0
 40
12.0
 40
12.0
 10
177.4355088975694
 20
72.67360026041666
 30
0.0
 10
177.4355088975694
 20
72.74215766059026
 30
0.0
 10
177.4355088975694
 20
94.92306043836803
 30
0.0
 10
177.4355088975694
 20
94.92306043836803
 30
0.0
 10
177.4355088975694
 20
96.61666937934027
 30
0.0
 10
177.156800672743
 20
97.9075466579861
 30
0.0
 10
175.7684271918402
 20
99.10643988715278
 30
0.0
 10
174.392800564236
 20
100.2946533203124
 30
0.0
 10
169.498353407118
 20
103.3780137803819
 30
0.0
 10
163.4535888671874
 20
103.3780137803819
 30
0.0
 10
156.9299560546874
 20
103.3780137803819
 30
0.0
 10
152.4261827256944
 20
100.2298855251736
 30
0.0
 10
150.7925184461805
 20
98.87630750868055
 30
0.0
 10
149.3090603298611
 20
97.6470974392361
 30
0.0
 10
149.0555013020833
 20
95.58245171440971
 30
0.0
 10
149.0555013020833
 20
94.31465657552083
 30
0.0
 10
149.0555013020833
 20
93.74552680121526
 30
0.0
 10
149.1051106770833
 20
93.35140787760416
 30
0.0
 10
149.1188910590277
 20
93.25115559895833
 30
0.0
 10
149.1188910590277
 20
93.2008572048611
 30
0.0
 10
149.1188910590277
 20
72.81553819444444
 30
0.0
 10
149.1188910590277
 20
72.81553819444444
 30
0.0
 10
149.1188910590277
 20
68.90156521267361
 30
0.0
 10
150.6333550347221
 20
67.83737521701389
 30
0.0
 10
150.9416910807291
 20
67.66133083767361
 30
0.0
 10
153.4235378689236
 20
65.22978244357638
 30
0.0
 10
159.0965766059027
 20
63.18442925347222
 30
0.0
 10
163.3950222439235
 20
63.18442925347222
 30
0.0
 10
167.7334309895833
 20
63.18442925347222
 30
0.0
 10
173.1618679470486
 20
65.08336588541665
 30
0.0
 10
175.4959201388888
 20
67.41741807725694
 30
0.0
 10
177.212611219618
 20
69.13410915798611
 30
0.0
 10
177.4885633680555
 20
70.96448838975693
 30
0.0
 10
177.4885633680555
 20
71.96356608072917
 30
0.0
 10
177.4885633680555
 20
72.3339138454861
 30
0.0
 10
177.4520453559027
 20
72.57989366319444
 30
0.0
 10
177.4355088975694
 20
72.67360026041666
 30
0.0
  0
SPLINE
  5
78
330
A
100
AcDbEntity
  8
0
 62
     7
100
AcDbSpline
210
0.0
220
0.0
230
1.0
 70
     9
 71
     3
 72
    26
 73
    22
 74
     0
 42
0.0000000001
 43
0.0000000001
 40
0.0
 40
0.0
 40
0.0
 40
0.0
 40
1.0
 40
1.0
 40
1.0
 40
2.0
 40
2.0
 40
2.0
 40
3.0
 40
3.0
 40
3.0
 40
4.0
 40
4.0
 40
4.0
 40
5.0
 40
5.0
 40
5.0
 40
6.0
 40
6.0
 40
6.0
 40
7.0
 40
7.0
 40
7.0
 40
7.0
 10
175.2454616970485
 20
98.50079210069445
 30
0.0
 10
176.4140380859374
 20
97.4917236328125
 30
0.0
 10
176.6355577256944
 20
96.46474066840276
 30
0.0
 10
176.6355577256944
 20
94.92306043836803
 30
0.0
 10
176.6355577256944
 20
94.92306043836803
 30
0.0
 10
176.6355577256944
 20
94.51068250868054
 30
0.0
 10
176.6355577256944
 20
94.51068250868054
 30
0.0
 10
176.6355577256944
 20
94.51068250868054
 30
0.0
 10
175.4156494140624
 20
93.33797200520832
 30
0.0
 10
175.4156494140624
 20
93.33797200520832
 30
0.0
 10
175.5634440104166
 20
93.73588053385416
 30
0.0
 10
175.6481933593749
 20
94.16410590277775
 30
0.0
 10
175.6481933593749
 20
94.61334635416665
 30
0.0
 10
175.6481933593749
 20
95.79949273003471
 30
0.0
 10
175.0859537760416
 20
96.85265842013889
 30
0.0
 10
174.21572265625
 20
97.52961968315972
 30
0.0
 10
174.21572265625
 20
97.52961968315972
 30
0.0
 10
175.0335883246527
 20
98.67373589409723
 30
0.0
 10
175.0335883246527
 20
98.67373589409723
 30
0.0
 10
175.1090359157985
 20
98.61379123263887
 30
0.0
 10
175.1844835069444
 20
98.55350206163194
 30
0.0
 10
175.2454616970485
 20
98.50079210069445
 30
0.0
  0
SPLINE
  5
77
330
A
100
AcDbEntity
  8
0
 62
     7
100
AcDbSpline
210
0.0
220
0.0
230
1.0
 70
     9
 71
     3
 72
    29
 73
    25
 74
     0
 42
0.0000000001
 43
0.0000000001
 40
0.0
 40
0.0
 40
0.0
 40
0.0
 40
1.0
 40
1.0
 40
1.0
 40
2.0
 40
2.0
 40
2.0
 40
3.0
 40
3.0
 40
3.0
 40
4.0
 40
4.0
 40
4.0
 40
5.0
 40
5.0
 40
5.0
 40
6.0
 40
6.0
 40
6.0
 40
7.0
 40
7.0
 40
7.0
 40
8.0
 40
8.0
 40
8.0
 40
8.0
 10
166.0467122395833
 20
89.07914496527777
 30
0.0
 10
166.0029595269097
 20
89.20936957465277
 30
0.0
 10
165.9502495659721
 20
89.33511555989582
 30
0.0
 10
165.8903049045138
 20
89.45603841145832
 30
0.0
 10
165.8903049045138
 20
89.45603841145832
 30
0.0
 10
166.4866509331597
 20
90.81788465711804
 30
0.0
 10
166.4866509331597
 20
90.81788465711804
 30
0.0
 10
166.4866509331597
 20
90.81788465711804
 30
0.0
 10
169.9210666232638
 20
88.05491807725694
 30
0.0
 10
169.9210666232638
 20
88.05491807725694
 30
0.0
 10
169.9210666232638
 20
88.05491807725694
 30
0.0
 10
167.2211452907986
 20
85.45869411892359
 30
0.0
 10
167.2211452907986
 20
85.45869411892359
 30
0.0
 10
166.7415879991319
 20
85.84385579427083
 30
0.0
 10
166.4842393663194
 20
86.34442816840277
 30
0.0
 10
166.3488471137152
 20
86.80572645399305
 30
0.0
 10
166.3316216362846
 20
86.94938693576387
 30
0.0
 10
166.3195638020833
 20
87.09993760850693
 30
0.0
 10
166.318874782986
 20
87.26564670138888
 30
0.0
 10
166.3223198784722
 20
87.32317979600694
 30
0.0
 10
166.3254204644097
 20
87.39621582031249
 30
0.0
 10
166.3254204644097
 20
87.49784613715275
 30
0.0
 10
166.3254204644097
 20
87.85992567274304
 30
0.0
 10
166.2802897135416
 20
88.46764051649305
 30
0.0
 10
166.0467122395833
 20
89.07914496527777
 30
0.0
  0
SPLINE
  5
76
330
A
100
AcDbEntity
  8
0
 62
     7
100
AcDbSpline
210
0.0
220
0.0
230
1.0
 70
     9
 71
     3
 72
    23
 73
    19
 74
     0
 42
0.0000000001
 43
0.0000000001
 40
0.0
 40
0.0
 40
0.0
 40
0.0
 40
1.0
 40
1.0
 40
1.0
 40
2.0
 40
2.0
 40
2.0
 40
3.0
 40
3.0
 40
3.0
 40
4.0
 40
4.0
 40
4.0
 40
5.0
 40
5.0
 40
5.0
 40
6.0
 40
6.0
 40
6.0
 40
6.0
 10
171.9395480685763
 20
90.9126247829861
 30
0.0
 10
172.3440022786458
 20
90.9126247829861
 30
0.0
 10
172.7298529730902
 20
90.98462727864584
 30
0.0
 10
173.0936550564235
 20
91.10520562065971
 30
0.0
 10
173.0936550564235
 20
91.10520562065971
 30
0.0
 10
170.3568712022569
 20
88.47384168836805
 30
0.0
 10
170.3568712022569
 20
88.47384168836805
 30
0.0
 10
170.3568712022569
 20
88.47384168836805
 30
0.0
 10
166.7357313368055
 20
91.38701443142361
 30
0.0
 10
166.7357313368055
 20
91.38701443142361
 30
0.0
 10
166.7357313368055
 20
91.38701443142361
 30
0.0
 10
168.2426161024305
 20
94.82797580295139
 30
0.0
 10
168.2426161024305
 20
94.82797580295139
 30
0.0
 10
168.2384819878471
 20
94.75666232638888
 30
0.0
 10
168.2315917968749
 20
94.685693359375
 30
0.0
 10
168.2315917968749
 20
94.61334635416665
 30
0.0
 10
168.2315917968749
 20
92.56971571180555
 30
0.0
 10
169.8917833116319
 20
90.9126247829861
 30
0.0
 10
171.9395480685763
 20
90.9126247829861
 30
0.0
  0
SPLINE
  5
75
330
A
100
AcDbEntity
  8
0
 62
     7
100
AcDbSpline
210
0.0
220
0.0
230
1.0
 70
     9
 71
     3
 72
    17
 73
    13
 74
     0
 42
0.0000000001
 43
0.0000000001
 40
0.0
 40
0.0
 40
0.0
 40
0.0
 40
1.0
 40
1.0
 40
1.0
 40
2.0
 40
2.0
 40
2.0
 40
3.0
 40
3.0
 40
3.0
 40
4.0
 40
4.0
 40
4.0
 40
4.0
 10
173.5012098524305
 20
94.98128255208333
 30
0.0
 10
173.3534152560763
 20
95.60243326822916
 30
0.0
 10
172.8456081814235
 20
96.08233506944444
 30
0.0
 10
172.2089545355902
 20
96.19016655815972
 30
0.0
 10
172.2089545355902
 20
96.19016655815972
 30
0.0
 10
172.2089545355902
 20
97.69877387152776
 30
0.0
 10
172.2089545355902
 20
97.69877387152776
 30
0.0
 10
173.6738091362847
 20
97.57268337673611
 30
0.0
 10
174.849964735243
 20
96.42925618489583
 30
0.0
 10
175.0229085286458
 20
94.98128255208333
 30
0.0
 10
175.0229085286458
 20
94.98128255208333
 30
0.0
 10
173.5012098524305
 20
94.98128255208333
 30
0.0
 10
173.5012098524305
 20
94.98128255208333
 30
0.0
  0
SPLINE
  5
74
330
A
100
AcDbEntity
  8
0
 62
     7
100
AcDbSpline
210
0.0
220
0.0
230
1.0
 70
     9
 71
     3
 72
    17
 73
    13
 74
     0
 42
0.0000000001
 43
0.0000000001
 40
0.0
 40
0.0
 40
0.0
 40
0.0
 40
1.0
 40
1.0
 40
1.0
 40
2.0
 40
2.0
 40
2.0
 40
3.0
 40
3.0
 40
3.0
 40
4.0
 40
4.0
 40
4.0
 40
4.0
 10
175.0349663628472
 20
94.38114691840276
 30
0.0
 10
174.9216227213541
 20
92.8690945095486
 30
0.0
 10
173.7192843967013
 20
91.6567654079861
 30
0.0
 10
172.2089545355902
 20
91.52654079861111
 30
0.0
 10
172.2089545355902
 20
91.52654079861111
 30
0.0
 10
172.2089545355902
 20
93.03514811197915
 30
0.0
 10
172.2089545355902
 20
93.03514811197915
 30
0.0
 10
172.8914279513888
 20
93.1509033203125
 30
0.0
 10
173.423695203993
 20
93.69488389756943
 30
0.0
 10
173.5246365017361
 20
94.38114691840276
 30
0.0
 10
173.5246365017361
 20
94.38114691840276
 30
0.0
 10
175.0349663628472
 20
94.38114691840276
 30
0.0
 10
175.0349663628472
 20
94.38114691840276
 30
0.0
  0
CIRCLE
  5
73
330
A
100
AcDbEntity
  8
0
 62
     7
100
AcDbCircle
 10
171.9398925781249
 20
94.61265733506944
 30
0.0
 40
1.006656901041666
  0
SPLINE
  5
72
330
A
100
AcDbEntity
  8
0
 62
     7
100
AcDbSpline
210
0.0
220
0.0
230
1.0
 70
     9
 71
     3
 72
    17
 73
    13
 74
     0
 42
0.0000000001
 43
0.0000000001
 40
0.0
 40
0.0
 40
0.0
 40
0.0
 40
1.0
 40
1.0
 40
1.0
 40
2.0
 40
2.0
 40
2.0
 40
3.0
 40
3.0
 40
3.0
 40
4.0
 40
4.0
 40
4.0
 40
4.0
 10
171.6074408637152
 20
96.18189832899304
 30
0.0
 10
171.0000705295138
 20
96.05374077690973
 30
0.0
 10
170.521546766493
 20
95.5821072048611
 30
0.0
 10
170.3785753038194
 20
94.98128255208333
 30
0.0
 10
170.3785753038194
 20
94.98128255208333
 30
0.0
 10
168.8568766276041
 20
94.98128255208333
 30
0.0
 10
168.8568766276041
 20
94.98128255208333
 30
0.0
 10
169.0274088541666
 20
96.40824110243055
 30
0.0
 10
170.1718695746527
 20
97.5413330078125
 30
0.0
 10
171.6074408637152
 20
97.69429524739583
 30
0.0
 10
171.6074408637152
 20
97.69429524739583
 30
0.0
 10
171.6074408637152
 20
96.18189832899304
 30
0.0
 10
171.6074408637152
 20
96.18189832899304
 30
0.0
  0
SPLINE
  5
71
330
A
100
AcDbEntity
  8
0
 62
     7
100
AcDbSpline
210
0.0
220
0.0
230
1.0
 70
     9
 71
     3
 72
    17
 73
    13
 74
     0
 42
0.0000000001
 43
0.0000000001
 40
0.0
 40
0.0
 40
0.0
 40
0.0
 40
1.0
 40
1.0
 40
1.0
 40
2.0
 40
2.0
 40
2.0
 40
3.0
 40
3.0
 40
3.0
 40
4.0
 40
4.0
 40
4.0
 40
4.0
 10
170.3551486545138
 20
94.38114691840276
 30
0.0
 10
170.4529893663194
 20
93.71624348958333
 30
0.0
 10
170.9545952690972
 20
93.18087565104166
 30
0.0
 10
171.6074408637152
 20
93.04341634114583
 30
0.0
 10
171.6074408637152
 20
93.04341634114583
 30
0.0
 10
171.6074408637152
 20
91.53101942274304
 30
0.0
 10
171.6074408637152
 20
91.53101942274304
 30
0.0
 10
170.1263943142361
 20
91.68914930555555
 30
0.0
 10
168.9564398871527
 20
92.89010959201389
 30
0.0
 10
168.8448187934027
 20
94.38114691840276
 30
0.0
 10
168.8448187934027
 20
94.38114691840276
 30
0.0
 10
170.3551486545138
 20
94.38114691840276
 30
0.0
 10
170.3551486545138
 20
94.38114691840276
 30
0.0
  0
POLYLINE
  5
6C
330
A
100
AcDbEntity
  8
0
 62
     7
100
AcDb2dPolyline
 66
     1
 10
0.0
 20
0.0
 30
0.0
 70
     1
  0
VERTEX
  5
6D
330
6C
100
AcDbEntity
  8
0
 62
     7
100
AcDbVertex
100
AcDb2dVertex
 10
173.8784478081597
 20
91.09624837239582
 30
0.0
  0
VERTEX
  5
6E
330
6C
100
AcDbEntity
  8
0
 62
     7
100
AcDbVertex
100
AcDb2dVertex
 10
173.8784478081597
 20
85.64059516059026
 30
0.0
  0
VERTEX
  5
6F
330
6C
100
AcDbEntity
  8
0
 62
     7
100
AcDbVertex
100
AcDb2dVertex
 10
170.7892306857638
 20
88.12588704427083
 30
0.0
  0
SEQEND
  5
70
330
6C
100
AcDbEntity
  8
0
 62
     7
  0
SPLINE
  5
6B
330
A
100
AcDbEntity
  8
0
 62
     7
100
AcDbSpline
210
0.0
220
0.0
230
1.0
 70
     9
 71
     3
 72
    23
 73
    19
 74
     0
 42
0.0000000001
 43
0.0000000001
 40
0.0
 40
0.0
 40
0.0
 40
0.0
 40
1.0
 40
1.0
 40
1.0
 40
2.0
 40
2.0
 40
2.0
 40
3.0
 40
3.0
 40
3.0
 40
4.0
 40
4.0
 40
4.0
 40
5.0
 40
5.0
 40
5.0
 40
6.0
 40
6.0
 40
6.0
 40
6.0
 10
170.3534261067708
 20
87.70696343315972
 30
0.0
 10
170.3534261067708
 20
87.70696343315972
 30
0.0
 10
173.8784478081597
 20
84.87096082899304
 30
0.0
 10
173.8784478081597
 20
84.87096082899304
 30
0.0
 10
173.8784478081597
 20
84.87096082899304
 30
0.0
 10
173.8784478081597
 20
82.14072265624999
 30
0.0
 10
173.8784478081597
 20
82.14072265624999
 30
0.0
 10
173.8784478081597
 20
82.14072265624999
 30
0.0
 10
171.7231960720486
 20
82.14072265624999
 30
0.0
 10
171.7231960720486
 20
82.14072265624999
 30
0.0
 10
171.5785020616319
 20
83.63313802083332
 30
0.0
 10
170.3610053168402
 20
84.68148057725693
 30
0.0
 10
168.8896050347221
 20
84.83237575954859
 30
0.0
 10
168.4138373480902
 20
84.88095160590276
 30
0.0
 10
168.0238525390624
 20
84.99739583333333
 30
0.0
 10
167.7010470920138
 20
85.15621473524305
 30
0.0
 10
167.7010470920138
 20
85.15621473524305
 30
0.0
 10
170.3534261067708
 20
87.70696343315972
 30
0.0
 10
170.3534261067708
 20
87.70696343315972
 30
0.0
  0
SPLINE
  5
6A
330
A
100
AcDbEntity
  8
0
 62
     7
100
AcDbSpline
210
0.0
220
0.0
230
1.0
 70
     9
 71
     3
 72
    17
 73
    13
 74
     0
 42
0.0000000001
 43
0.0000000001
 40
0.0
 40
0.0
 40
0.0
 40
0.0
 40
1.0
 40
1.0
 40
1.0
 40
2.0
 40
2.0
 40
2.0
 40
3.0
 40
3.0
 40
3.0
 40
4.0
 40
4.0
 40
4.0
 40
4.0
 10
166.3746853298611
 20
76.34297146267361
 30
0.0
 10
165.4562228732638
 20
76.20482313368055
 30
0.0
 10
164.5598090277777
 20
76.14522298177083
 30
0.0
 10
163.6950900607638
 20
76.13902180989582
 30
0.0
 10
163.6950900607638
 20
76.13902180989582
 30
0.0
 10
163.6950900607638
 20
78.73145616319444
 30
0.0
 10
163.6950900607638
 20
78.73145616319444
 30
0.0
 10
163.6950900607638
 20
78.73145616319444
 30
0.0
 10
165.6205539279513
 20
78.7769314236111
 30
0.0
 10
165.6205539279513
 20
78.7769314236111
 30
0.0
 10
165.6205539279513
 20
78.7769314236111
 30
0.0
 10
166.3746853298611
 20
76.34297146267361
 30
0.0
 10
166.3746853298611
 20
76.34297146267361
 30
0.0
  0
SPLINE
  5
69
330
A
100
AcDbEntity
  8
0
 62
     7
100
AcDbSpline
210
0.0
220
0.0
230
1.0
 70
     9
 71
     3
 72
    29
 73
    25
 74
     0
 42
0.0000000001
 43
0.0000000001
 40
0.0
 40
0.0
 40
0.0
 40
0.0
 40
1.0
 40
1.0
 40
1.0
 40
2.0
 40
2.0
 40
2.0
 40
3.0
 40
3.0
 40
3.0
 40
4.0
 40
4.0
 40
4.0
 40
5.0
 40
5.0
 40
5.0
 40
6.0
 40
6.0
 40
6.0
 40
7.0
 40
7.0
 40
7.0
 40
8.0
 40
8.0
 40
8.0
 40
8.0
 10
166.2441162109374
 20
78.79140082465276
 30
0.0
 10
166.2441162109374
 20
78.79140082465276
 30
0.0
 10
167.879847547743
 20
78.82998589409722
 30
0.0
 10
167.879847547743
 20
78.82998589409722
 30
0.0
 10
167.879847547743
 20
78.82998589409722
 30
0.0
 10
168.8041666666666
 20
78.82998589409722
 30
0.0
 10
168.8041666666666
 20
78.82998589409722
 30
0.0
 10
168.8393066406249
 20
78.82998589409722
 30
0.0
 10
168.8747911241319
 20
78.83170844184028
 30
0.0
 10
168.9099310980902
 20
78.83515353732637
 30
0.0
 10
168.9781439887152
 20
78.84169921874999
 30
0.0
 10
169.0515245225694
 20
78.85237901475694
 30
0.0
 10
169.1273166232638
 20
78.86547037760415
 30
0.0
 10
169.5486518012152
 20
78.90198838975694
 30
0.0
 10
169.9420817057291
 20
79.0373806423611
 30
0.0
 10
170.2910698784721
 20
79.24511990017361
 30
0.0
 10
170.2910698784721
 20
79.24511990017361
 30
0.0
 10
171.4241617838541
 20
77.93184950086805
 30
0.0
 10
171.4241617838541
 20
77.93184950086805
 30
0.0
 10
169.9348470052083
 20
77.18874240451389
 30
0.0
 10
168.4327853732638
 20
76.71641981336804
 30
0.0
 10
166.9710313585069
 20
76.44563530815971
 30
0.0
 10
166.9710313585069
 20
76.44563530815971
 30
0.0
 10
166.2441162109374
 20
78.79140082465276
 30
0.0
 10
166.2441162109374
 20
78.79140082465276
 30
0.0
  0
SPLINE
  5
68
330
A
100
AcDbEntity
  8
0
 62
     7
100
AcDbSpline
210
0.0
220
0.0
230
1.0
 70
     9
 71
     3
 72
    17
 73
    13
 74
     0
 42
0.0000000001
 43
0.0000000001
 40
0.0
 40
0.0
 40
0.0
 40
0.0
 40
1.0
 40
1.0
 40
1.0
 40
2.0
 40
2.0
 40
2.0
 40
3.0
 40
3.0
 40
3.0
 40
4.0
 40
4.0
 40
4.0
 40
4.0
 10
166.5531412760416
 20
75.76557345920138
 30
0.0
 10
166.5531412760416
 20
75.76557345920138
 30
0.0
 10
167.5670328776041
 20
72.49307725694443
 30
0.0
 10
167.5670328776041
 20
72.49307725694443
 30
0.0
 10
166.1528211805555
 20
72.05451660156249
 30
0.0
 10
164.8471299913194
 20
71.87123752170139
 30
0.0
 10
163.6950900607638
 20
71.83092990451388
 30
0.0
 10
163.6950900607638
 20
71.83092990451388
 30
0.0
 10
163.6950900607638
 20
75.54302029079861
 30
0.0
 10
163.6950900607638
 20
75.54302029079861
 30
0.0
 10
164.6163085937499
 20
75.5492214626736
 30
0.0
 10
165.5726671006944
 20
75.61364474826388
 30
0.0
 10
166.5531412760416
 20
75.76557345920138
 30
0.0
  0
SPLINE
  5
67
330
A
100
AcDbEntity
  8
0
 62
     7
100
AcDbSpline
210
0.0
220
0.0
230
1.0
 70
     9
 71
     3
 72
    17
 73
    13
 74
     0
 42
0.0000000001
 43
0.0000000001
 40
0.0
 40
0.0
 40
0.0
 40
0.0
 40
1.0
 40
1.0
 40
1.0
 40
2.0
 40
2.0
 40
2.0
 40
3.0
 40
3.0
 40
3.0
 40
4.0
 40
4.0
 40
4.0
 40
4.0
 10
167.7444552951388
 20
71.91981336805554
 30
0.0
 10
167.7444552951388
 20
71.91981336805554
 30
0.0
 10
168.8255262586805
 20
68.43062065972222
 30
0.0
 10
168.8255262586805
 20
68.43062065972222
 30
0.0
 10
166.968275282118
 20
67.90903320312499
 30
0.0
 10
165.2316026475694
 20
67.69991590711805
 30
0.0
 10
163.6950900607638
 20
67.65995279947915
 30
0.0
 10
163.6950900607638
 20
67.65995279947915
 30
0.0
 10
163.6950900607638
 20
71.22149251302082
 30
0.0
 10
163.6950900607638
 20
71.22149251302082
 30
0.0
 10
164.8960503472222
 20
71.26490071614583
 30
0.0
 10
166.2592746310763
 20
71.45851508246527
 30
0.0
 10
167.7444552951388
 20
71.91981336805554
 30
0.0
  0
SPLINE
  5
66
330
A
100
AcDbEntity
  8
0
 62
     7
100
AcDbSpline
210
0.0
220
0.0
230
1.0
 70
     9
 71
     3
 72
    20
 73
    16
 74
     0
 42
0.0000000001
 43
0.0000000001
 40
0.0
 40
0.0
 40
0.0
 40
0.0
 40
1.0
 40
1.0
 40
1.0
 40
2.0
 40
2.0
 40
2.0
 40
3.0
 40
3.0
 40
3.0
 40
4.0
 40
4.0
 40
4.0
 40
5.0
 40
5.0
 40
5.0
 40
5.0
 10
168.2388264973958
 20
72.35389539930555
 30
0.0
 10
168.2388264973958
 20
72.35389539930555
 30
0.0
 10
167.1498318142361
 20
75.86892632378472
 30
0.0
 10
167.1498318142361
 20
75.86892632378472
 30
0.0
 10
168.6856553819444
 20
76.15934787326388
 30
0.0
 10
170.2645426432291
 20
76.66474338107637
 30
0.0
 10
171.8286159939236
 20
77.46262749565971
 30
0.0
 10
171.8286159939236
 20
77.46262749565971
 30
0.0
 10
173.4453993055555
 20
75.58884006076389
 30
0.0
 10
173.4453993055555
 20
75.58884006076389
 30
0.0
 10
172.985134548611
 20
75.79485677083332
 30
0.0
 10
172.476638454861
 20
75.91130099826388
 30
0.0
 10
171.9395480685763
 20
75.91130099826388
 30
0.0
 10
169.9396701388888
 20
75.91130099826388
 30
0.0
 10
168.313929578993
 20
74.33034667968749
 30
0.0
 10
168.2388264973958
 20
72.35389539930555
 30
0.0
  0
SPLINE
  5
65
330
A
100
AcDbEntity
  8
0
 62
     7
100
AcDbSpline
210
0.0
220
0.0
230
1.0
 70
     9
 71
     3
 72
    17
 73
    13
 74
     0
 42
0.0000000001
 43
0.0000000001
 40
0.0
 40
0.0
 40
0.0
 40
0.0
 40
1.0
 40
1.0
 40
1.0
 40
2.0
 40
2.0
 40
2.0
 40
3.0
 40
3.0
 40
3.0
 40
4.0
 40
4.0
 40
4.0
 40
4.0
 10
175.0229085286458
 20
72.57989366319444
 30
0.0
 10
175.0229085286458
 20
72.57989366319444
 30
0.0
 10
173.5012098524305
 20
72.57989366319444
 30
0.0
 10
173.5012098524305
 20
72.57989366319444
 30
0.0
 10
173.3534152560763
 20
73.20104437934027
 30
0.0
 10
172.8456081814235
 20
73.68094618055555
 30
0.0
 10
172.2089545355902
 20
73.78877766927082
 30
0.0
 10
172.2089545355902
 20
73.78877766927082
 30
0.0
 10
172.2089545355902
 20
75.29738498263888
 30
0.0
 10
172.2089545355902
 20
75.29738498263888
 30
0.0
 10
173.6738091362847
 20
75.17129448784722
 30
0.0
 10
174.849964735243
 20
74.02786729600693
 30
0.0
 10
175.0229085286458
 20
72.57989366319444
 30
0.0
  0
SPLINE
  5
64
330
A
100
AcDbEntity
  8
0
 62
     7
100
AcDbSpline
210
0.0
220
0.0
230
1.0
 70
     9
 71
     3
 72
    17
 73
    13
 74
     0
 42
0.0000000001
 43
0.0000000001
 40
0.0
 40
0.0
 40
0.0
 40
0.0
 40
1.0
 40
1.0
 40
1.0
 40
2.0
 40
2.0
 40
2.0
 40
3.0
 40
3.0
 40
3.0
 40
4.0
 40
4.0
 40
4.0
 40
4.0
 10
171.6074408637152
 20
75.29290635850694
 30
0.0
 10
171.6074408637152
 20
75.29290635850694
 30
0.0
 10
171.6074408637152
 20
73.78050944010415
 30
0.0
 10
171.6074408637152
 20
73.78050944010415
 30
0.0
 10
171.0000705295138
 20
73.65235188802083
 30
0.0
 10
170.521546766493
 20
73.18071831597221
 30
0.0
 10
170.3785753038194
 20
72.57989366319444
 30
0.0
 10
170.3785753038194
 20
72.57989366319444
 30
0.0
 10
168.8568766276041
 20
72.57989366319444
 30
0.0
 10
168.8568766276041
 20
72.57989366319444
 30
0.0
 10
169.0274088541666
 20
74.00685221354166
 30
0.0
 10
170.1718695746527
 20
75.13994411892361
 30
0.0
 10
171.6074408637152
 20
75.29290635850694
 30
0.0
  0
SPLINE
  5
63
330
A
100
AcDbEntity
  8
0
 62
     7
100
AcDbSpline
210
0.0
220
0.0
230
1.0
 70
     9
 71
     3
 72
    17
 73
    13
 74
     0
 42
0.0000000001
 43
0.0000000001
 40
0.0
 40
0.0
 40
0.0
 40
0.0
 40
1.0
 40
1.0
 40
1.0
 40
2.0
 40
2.0
 40
2.0
 40
3.0
 40
3.0
 40
3.0
 40
4.0
 40
4.0
 40
4.0
 40
4.0
 10
170.3551486545138
 20
71.97975802951389
 30
0.0
 10
170.4529893663194
 20
71.31485460069443
 30
0.0
 10
170.9545952690972
 20
70.77948676215277
 30
0.0
 10
171.6074408637152
 20
70.64202745225694
 30
0.0
 10
171.6074408637152
 20
70.64202745225694
 30
0.0
 10
171.6074408637152
 20
69.12963053385415
 30
0.0
 10
171.6074408637152
 20
69.12963053385415
 30
0.0
 10
170.1263943142361
 20
69.28776041666665
 30
0.0
 10
168.9564398871527
 20
70.488720703125
 30
0.0
 10
168.8448187934027
 20
71.97975802951389
 30
0.0
 10
168.8448187934027
 20
71.97975802951389
 30
0.0
 10
170.3551486545138
 20
71.97975802951389
 30
0.0
 10
170.3551486545138
 20
71.97975802951389
 30
0.0
  0
CIRCLE
  5
62
330
A
100
AcDbEntity
  8
0
 62
     7
100
AcDbCircle
 10
171.9398925781249
 20
72.21126844618055
 30
0.0
 40
1.006656901041666
  0
SPLINE
  5
61
330
A
100
AcDbEntity
  8
0
 62
     7
100
AcDbSpline
210
0.0
220
0.0
230
1.0
 70
     9
 71
     3
 72
    26
 73
    22
 74
     0
 42
0.0000000001
 43
0.0000000001
 40
0.0
 40
0.0
 40
0.0
 40
0.0
 40
1.0
 40
1.0
 40
1.0
 40
2.0
 40
2.0
 40
2.0
 40
3.0
 40
3.0
 40
3.0
 40
4.0
 40
4.0
 40
4.0
 40
5.0
 40
5.0
 40
5.0
 40
6.0
 40
6.0
 40
6.0
 40
7.0
 40
7.0
 40
7.0
 40
7.0
 10
172.2089545355902
 20
70.63375922309027
 30
0.0
 10
172.8914279513888
 20
70.7495144314236
 30
0.0
 10
173.423695203993
 20
71.29349500868055
 30
0.0
 10
173.5246365017361
 20
71.97975802951389
 30
0.0
 10
173.5246365017361
 20
71.97975802951389
 30
0.0
 10
175.0349663628472
 20
71.97975802951389
 30
0.0
 10
175.0349663628472
 20
71.97975802951389
 30
0.0
 10
174.9608968098958
 20
70.99239366319443
 30
0.0
 10
174.4207058376736
 20
70.13490939670139
 30
0.0
 10
173.6355685763888
 20
69.62124565972222
 30
0.0
 10
173.6355685763888
 20
69.62124565972222
 30
0.0
 10
173.6348795572916
 20
69.62193467881944
 30
0.0
 10
173.6348795572916
 20
69.62193467881944
 30
0.0
 10
173.6348795572916
 20
69.62193467881944
 30
0.0
 10
173.617654079861
 20
69.60953233506943
 30
0.0
 10
173.617654079861
 20
69.60953233506943
 30
0.0
 10
173.2042426215277
 20
69.34322645399305
 30
0.0
 10
172.7253743489583
 20
69.16959364149305
 30
0.0
 10
172.2089545355902
 20
69.12515190972222
 30
0.0
 10
172.2089545355902
 20
69.12515190972222
 30
0.0
 10
172.2089545355902
 20
70.63375922309027
 30
0.0
 10
172.2089545355902
 20
70.63375922309027
 30
0.0
  0
POLYLINE
  5
5A
330
A
100
AcDbEntity
  8
0
 62
     7
100
AcDb2dPolyline
 66
     1
 10
0.0
 20
0.0
 30
0.0
  0
VERTEX
  5
5B
330
5A
100
AcDbEntity
  8
0
 62
     7
100
AcDbVertex
100
AcDb2dVertex
 10
174.4761718749999
 20
81.54058702256945
 30
0.0
  0
VERTEX
  5
5C
330
5A
100
AcDbEntity
  8
0
 62
     7
100
AcDbVertex
100
AcDb2dVertex
 10
176.6355577256944
 20
81.54058702256945
 30
0.0
  0
VERTEX
  5
5D
330
5A
100
AcDbEntity
  8
0
 62
     7
100
AcDbVertex
100
AcDb2dVertex
 10
176.6355577256944
 20
72.81037055121527
 30
0.0
  0
VERTEX
  5
5E
330
5A
100
AcDbEntity
  8
0
 62
     7
100
AcDbVertex
100
AcDb2dVertex
 10
174.4799614800347
 20
75.30875379774305
 30
0.0
  0
VERTEX
  5
5F
330
5A
100
AcDbEntity
  8
0
 62
     7
100
AcDbVertex
100
AcDb2dVertex
 10
174.4799614800347
 20
81.47685275607638
 30
0.0
  0
SEQEND
  5
60
330
5A
100
AcDbEntity
  8
0
 62
     7
  0
SPLINE
  5
59
330
A
100
AcDbEntity
  8
0
 62
     7
100
AcDbSpline
210
0.0
220
0.0
230
1.0
 70
     8
 71
     3
 72
    29
 73
    25
 74
     0
 42
0.0000000001
 43
0.0000000001
 40
0.0
 40
0.0
 40
0.0
 40
0.0
 40
1.0
 40
1.0
 40
1.0
 40
2.0
 40
2.0
 40
2.0
 40
3.0
 40
3.0
 40
3.0
 40
4.0
 40
4.0
 40
4.0
 40
5.0
 40
5.0
 40
5.0
 40
6.0
 40
6.0
 40
6.0
 40
7.0
 40
7.0
 40
7.0
 40
8.0
 40
8.0
 40
8.0
 40
8.0
 10
173.8784478081597
 20
81.47685275607638
 30
0.0
 10
173.8784478081597
 20
81.47685275607638
 30
0.0
 10
173.8784478081597
 20
76.00604112413194
 30
0.0
 10
173.8784478081597
 20
76.00604112413194
 30
0.0
 10
173.8784478081597
 20
76.00604112413194
 30
0.0
 10
170.7733832465277
 20
79.60478786892361
 30
0.0
 10
170.7733832465277
 20
79.60478786892361
 30
0.0
 10
170.8546874999999
 20
79.68023546006944
 30
0.0
 10
170.9328911675347
 20
79.75843912760416
 30
0.0
 10
171.0055826822916
 20
79.84284396701387
 30
0.0
 10
171.3662841796874
 20
80.22731662326389
 30
0.0
 10
171.6381022135416
 20
80.73753526475694
 30
0.0
 10
171.7076931423611
 20
81.40726182725693
 30
0.0
 10
171.7111382378472
 20
81.4306884765625
 30
0.0
 10
171.7163058810763
 20
81.45342610677081
 30
0.0
 10
171.7190619574652
 20
81.47685275607638
 30
0.0
 10
171.7190619574652
 20
81.47685275607638
 30
0.0
 10
171.7118272569444
 20
81.47685275607638
 30
0.0
 10
171.7118272569444
 20
81.47685275607638
 30
0.0
 10
171.7135498046874
 20
81.49752332899305
 30
0.0
 10
171.713894314236
 20
81.51957194010416
 30
0.0
 10
171.7152723524305
 20
81.54058702256945
 30
0.0
 10
171.7152723524305
 20
81.54058702256945
 30
0.0
 10
173.8863715277777
 20
81.54058702256945
 30
0.0
 10
173.8863715277777
 20
81.54058702256945
 30
0.0
  0
POLYLINE
  5
53
330
A
100
AcDbEntity
  8
0
 62
     7
100
AcDb2dPolyline
 66
     1
 10
0.0
 20
0.0
 30
0.0
 70
     1
  0
VERTEX
  5
54
330
53
100
AcDbEntity
  8
0
 62
     7
100
AcDbVertex
100
AcDb2dVertex
 10
174.4799614800347
 20
82.14072265624999
 30
0.0
  0
VERTEX
  5
55
330
53
100
AcDbEntity
  8
0
 62
     7
100
AcDbVertex
100
AcDb2dVertex
 10
174.4799614800347
 20
91.67467990451388
 30
0.0
  0
VERTEX
  5
56
330
53
100
AcDbEntity
  8
0
 62
     7
100
AcDbVertex
100
AcDb2dVertex
 10
176.6355577256944
 20
93.74724934895832
 30
0.0
  0
VERTEX
  5
57
330
53
100
AcDbEntity
  8
0
 62
     7
100
AcDbVertex
100
AcDb2dVertex
 10
176.6355577256944
 20
82.14072265624999
 30
0.0
  0
SEQEND
  5
58
330
53
100
AcDbEntity
  8
0
 62
     7
  0
SPLINE
  5
52
330
A
100
AcDbEntity
  8
0
 62
     7
100
AcDbSpline
210
0.0
220
0.0
230
1.0
 70
     9
 71
     3
 72
    20
 73
    16
 74
     0
 42
0.0000000001
 43
0.0000000001
 40
0.0
 40
0.0
 40
0.0
 40
0.0
 40
1.0
 40
1.0
 40
1.0
 40
2.0
 40
2.0
 40
2.0
 40
3.0
 40
3.0
 40
3.0
 40
4.0
 40
4.0
 40
4.0
 40
5.0
 40
5.0
 40
5.0
 40
5.0
 10
174.5529975043402
 20
99.03374837239582
 30
0.0
 10
174.5529975043402
 20
99.03374837239582
 30
0.0
 10
173.715150282118
 20
97.86138237847222
 30
0.0
 10
173.715150282118
 20
97.86138237847222
 30
0.0
 10
173.1877061631944
 20
98.14904785156249
 30
0.0
 10
172.5827473958332
 20
98.31268988715278
 30
0.0
 10
171.9395480685763
 20
98.31268988715278
 30
0.0
 10
170.8912055121527
 20
98.31268988715278
 30
0.0
 10
169.9462158203124
 20
97.87688530815971
 30
0.0
 10
169.2716661241319
 20
97.17890896267361
 30
0.0
 10
169.2716661241319
 20
97.17890896267361
 30
0.0
 10
170.944949001736
 20
100.9998643663194
 30
0.0
 10
170.944949001736
 20
100.9998643663194
 30
0.0
 10
172.5010986328124
 20
100.3446072048611
 30
0.0
 10
173.7423665364583
 20
99.6070122612847
 30
0.0
 10
174.5529975043402
 20
99.03374837239582
 30
0.0
  0
SPLINE
  5
51
330
A
100
AcDbEntity
  8
0
 62
     7
100
AcDbSpline
210
0.0
220
0.0
230
1.0
 70
     9
 71
     3
 72
    17
 73
    13
 74
     0
 42
0.0000000001
 43
0.0000000001
 40
0.0
 40
0.0
 40
0.0
 40
0.0
 40
1.0
 40
1.0
 40
1.0
 40
2.0
 40
2.0
 40
2.0
 40
3.0
 40
3.0
 40
3.0
 40
4.0
 40
4.0
 40
4.0
 40
4.0
 10
163.6950900607638
 20
102.5711724175347
 30
0.0
 10
166.2310248480902
 20
102.5353434244791
 30
0.0
 10
168.5413058810763
 20
101.9469211154513
 30
0.0
 10
170.440931532118
 20
101.2031249999999
 30
0.0
 10
170.440931532118
 20
101.2031249999999
 30
0.0
 10
169.4893961588541
 20
99.02995876736111
 30
0.0
 10
169.4893961588541
 20
99.02995876736111
 30
0.0
 10
167.3861653645833
 20
99.76617567274304
 30
0.0
 10
165.4207383897569
 20
100.0490180121527
 30
0.0
 10
163.6950900607638
 20
100.0827799479166
 30
0.0
 10
163.6950900607638
 20
100.0827799479166
 30
0.0
 10
163.6950900607638
 20
102.5711724175347
 30
0.0
 10
163.6950900607638
 20
102.5711724175347
 30
0.0
  0
SPLINE
  5
50
330
A
100
AcDbEntity
  8
0
 62
     7
100
AcDbSpline
210
0.0
220
0.0
230
1.0
 70
     9
 71
     3
 72
    17
 73
    13
 74
     0
 42
0.0000000001
 43
0.0000000001
 40
0.0
 40
0.0
 40
0.0
 40
0.0
 40
1.0
 40
1.0
 40
1.0
 40
2.0
 40
2.0
 40
2.0
 40
3.0
 40
3.0
 40
3.0
 40
4.0
 40
4.0
 40
4.0
 40
4.0
 10
163.6950900607638
 20
99.4671413845486
 30
0.0
 10
165.3573486328124
 20
99.43785807291666
 30
0.0
 10
167.2438829210069
 20
99.17327473958332
 30
0.0
 10
169.2478949652777
 20
98.4780544704861
 30
0.0
 10
169.2478949652777
 20
98.4780544704861
 30
0.0
 10
167.8161132812499
 20
95.20831434461804
 30
0.0
 10
167.8161132812499
 20
95.20831434461804
 30
0.0
 10
166.3860541449652
 20
95.52664116753472
 30
0.0
 10
164.9742540147569
 20
95.64549696180554
 30
0.0
 10
163.6950900607638
 20
95.65996636284721
 30
0.0
 10
163.6950900607638
 20
95.65996636284721
 30
0.0
 10
163.6950900607638
 20
99.4671413845486
 30
0.0
 10
163.6950900607638
 20
99.4671413845486
 30
0.0
  0
SPLINE
  5
4F
330
A
100
AcDbEntity
  8
0
 62
     7
100
AcDbSpline
210
0.0
220
0.0
230
1.0
 70
     9
 71
     3
 72
    17
 73
    13
 74
     0
 42
0.0000000001
 43
0.0000000001
 40
0.0
 40
0.0
 40
0.0
 40
0.0
 40
1.0
 40
1.0
 40
1.0
 40
2.0
 40
2.0
 40
2.0
 40
3.0
 40
3.0
 40
3.0
 40
4.0
 40
4.0
 40
4.0
 40
4.0
 10
163.6950900607638
 20
95.05431857638887
 30
0.0
 10
164.9063856336805
 20
95.04226074218749
 30
0.0
 10
166.2358479817708
 20
94.93477376302083
 30
0.0
 10
167.5711669921874
 20
94.64848632812499
 30
0.0
 10
167.5711669921874
 20
94.64848632812499
 30
0.0
 10
165.5361490885416
 20
90.0007080078125
 30
0.0
 10
165.5361490885416
 20
90.0007080078125
 30
0.0
 10
165.0813964843749
 20
90.56777072482637
 30
0.0
 10
164.4344075520833
 20
90.95982259114583
 30
0.0
 10
163.6950900607638
 20
91.05077311197915
 30
0.0
 10
163.6950900607638
 20
91.05077311197915
 30
0.0
 10
163.6950900607638
 20
95.05431857638887
 30
0.0
 10
163.6950900607638
 20
95.05431857638887
 30
0.0
  0
SPLINE
  5
4E
330
A
100
AcDbEntity
  8
0
 62
     7
100
AcDbSpline
210
0.0
220
0.0
230
1.0
 70
     9
 71
     3
 72
    17
 73
    13
 74
     0
 42
0.0000000001
 43
0.0000000001
 40
0.0
 40
0.0
 40
0.0
 40
0.0
 40
1.0
 40
1.0
 40
1.0
 40
2.0
 40
2.0
 40
2.0
 40
3.0
 40
3.0
 40
3.0
 40
4.0
 40
4.0
 40
4.0
 40
4.0
 10
153.1530978732638
 20
71.98595920138888
 30
0.0
 10
153.2509385850694
 20
71.32105577256943
 30
0.0
 10
153.7525444878472
 20
70.78568793402777
 30
0.0
 10
154.4053900824652
 20
70.64822862413193
 30
0.0
 10
154.4053900824652
 20
70.64822862413193
 30
0.0
 10
154.4053900824652
 20
69.13583170572916
 30
0.0
 10
154.4053900824652
 20
69.13583170572916
 30
0.0
 10
152.9246880425347
 20
69.29396158854166
 30
0.0
 10
151.7547336154513
 20
70.49492187499999
 30
0.0
 10
151.6431125217013
 20
71.98595920138888
 30
0.0
 10
151.6431125217013
 20
71.98595920138888
 30
0.0
 10
153.1530978732638
 20
71.98595920138888
 30
0.0
 10
153.1530978732638
 20
71.98595920138888
 30
0.0
  0
SPLINE
  5
4D
330
A
100
AcDbEntity
  8
0
 62
     7
100
AcDbSpline
210
0.0
220
0.0
230
1.0
 70
     9
 71
     3
 72
    17
 73
    13
 74
     0
 42
0.0000000001
 43
0.0000000001
 40
0.0
 40
0.0
 40
0.0
 40
0.0
 40
1.0
 40
1.0
 40
1.0
 40
2.0
 40
2.0
 40
2.0
 40
3.0
 40
3.0
 40
3.0
 40
4.0
 40
4.0
 40
4.0
 40
4.0
 10
151.6551703559027
 20
72.58609483506943
 30
0.0
 10
151.8257025824652
 20
74.01305338541665
 30
0.0
 10
152.9698187934027
 20
75.1461452907986
 30
0.0
 10
154.4053900824652
 20
75.29910753038193
 30
0.0
 10
154.4053900824652
 20
75.29910753038193
 30
0.0
 10
154.4053900824652
 20
73.78671061197916
 30
0.0
 10
154.4053900824652
 20
73.78671061197916
 30
0.0
 10
153.7983642578125
 20
73.65855305989582
 30
0.0
 10
153.3198404947916
 20
73.18691948784722
 30
0.0
 10
153.176869032118
 20
72.58609483506943
 30
0.0
 10
153.176869032118
 20
72.58609483506943
 30
0.0
 10
151.6551703559027
 20
72.58609483506943
 30
0.0
 10
151.6551703559027
 20
72.58609483506943
 30
0.0
  0
CIRCLE
  5
4C
330
A
100
AcDbEntity
  8
0
 62
     7
100
AcDbCircle
 10
154.7380140516492
 20
72.21746961805554
 30
0.0
 40
1.006829155815972
  0
SPLINE
  5
4B
330
A
100
AcDbEntity
  8
0
 62
     7
100
AcDbSpline
210
0.0
220
0.0
230
1.0
 70
     9
 71
     3
 72
    17
 73
    13
 74
     0
 42
0.0000000001
 43
0.0000000001
 40
0.0
 40
0.0
 40
0.0
 40
0.0
 40
1.0
 40
1.0
 40
1.0
 40
2.0
 40
2.0
 40
2.0
 40
3.0
 40
3.0
 40
3.0
 40
4.0
 40
4.0
 40
4.0
 40
4.0
 10
155.0069037543402
 20
73.79497884114582
 30
0.0
 10
155.0069037543402
 20
73.79497884114582
 30
0.0
 10
155.0069037543402
 20
75.30358615451388
 30
0.0
 10
155.0069037543402
 20
75.30358615451388
 30
0.0
 10
156.4721028645833
 20
75.17749565972221
 30
0.0
 10
157.647913953993
 20
74.03406846788193
 30
0.0
 10
157.8208577473958
 20
72.58609483506943
 30
0.0
 10
157.8208577473958
 20
72.58609483506943
 30
0.0
 10
156.2991590711805
 20
72.58609483506943
 30
0.0
 10
156.2991590711805
 20
72.58609483506943
 30
0.0
 10
156.1517089843749
 20
73.20724555121526
 30
0.0
 10
155.6435574001735
 20
73.68714735243054
 30
0.0
 10
155.0069037543402
 20
73.79497884114582
 30
0.0
  0
SPLINE
  5
4A
330
A
100
AcDbEntity
  8
0
 62
     7
100
AcDbSpline
210
0.0
220
0.0
230
1.0
 70
     9
 71
     3
 72
    17
 73
    13
 74
     0
 42
0.0000000001
 43
0.0000000001
 40
0.0
 40
0.0
 40
0.0
 40
0.0
 40
1.0
 40
1.0
 40
1.0
 40
2.0
 40
2.0
 40
2.0
 40
3.0
 40
3.0
 40
3.0
 40
4.0
 40
4.0
 40
4.0
 40
4.0
 10
155.0069037543402
 20
70.63996039496527
 30
0.0
 10
155.6897216796874
 20
70.75571560329861
 30
0.0
 10
156.2219889322916
 20
71.29969618055554
 30
0.0
 10
156.3229302300347
 20
71.98595920138888
 30
0.0
 10
156.3229302300347
 20
71.98595920138888
 30
0.0
 10
157.8329155815971
 20
71.98595920138888
 30
0.0
 10
157.8329155815971
 20
71.98595920138888
 30
0.0
 10
157.7199164496527
 20
70.47390679253472
 30
0.0
 10
156.5175781249999
 20
69.26157769097222
 30
0.0
 10
155.0069037543402
 20
69.13135308159721
 30
0.0
 10
155.0069037543402
 20
69.13135308159721
 30
0.0
 10
155.0069037543402
 20
70.63996039496527
 30
0.0
 10
155.0069037543402
 20
70.63996039496527
 30
0.0
  0
SPLINE
  5
49
330
A
100
AcDbEntity
  8
0
 62
     7
100
AcDbSpline
210
0.0
220
0.0
230
1.0
 70
     9
 71
     3
 72
    20
 73
    16
 74
     0
 42
0.0000000001
 43
0.0000000001
 40
0.0
 40
0.0
 40
0.0
 40
0.0
 40
1.0
 40
1.0
 40
1.0
 40
2.0
 40
2.0
 40
2.0
 40
3.0
 40
3.0
 40
3.0
 40
4.0
 40
4.0
 40
4.0
 40
5.0
 40
5.0
 40
5.0
 40
5.0
 10
154.7378417968749
 20
75.91750217013888
 30
0.0
 10
154.1280598958333
 20
75.91750217013888
 30
0.0
 10
153.5544514973958
 20
75.76729600694443
 30
0.0
 10
153.0473334418402
 20
75.50650227864583
 30
0.0
 10
153.0473334418402
 20
75.50650227864583
 30
0.0
 10
154.6468912760416
 20
77.3603081597222
 30
0.0
 10
154.6468912760416
 20
77.3603081597222
 30
0.0
 10
155.1509087456597
 20
77.13603244357638
 30
0.0
 10
156.97646484375
 20
76.37673339843749
 30
0.0
 10
159.5244574652777
 20
75.91164550781249
 30
0.0
 10
159.5244574652777
 20
75.91164550781249
 30
0.0
 10
158.4296061197916
 20
72.54337565104165
 30
0.0
 10
158.4296061197916
 20
72.54337565104165
 30
0.0
 10
158.2642415364583
 20
74.43369954427082
 30
0.0
 10
156.6753634982638
 20
75.91750217013888
 30
0.0
 10
154.7378417968749
 20
75.91750217013888
 30
0.0
  0
SPLINE
  5
48
330
A
100
AcDbEntity
  8
0
 62
     7
100
AcDbSpline
210
0.0
220
0.0
230
1.0
 70
     9
 71
     3
 72
    26
 73
    22
 74
     0
 42
0.0000000001
 43
0.0000000001
 40
0.0
 40
0.0
 40
0.0
 40
0.0
 40
1.0
 40
1.0
 40
1.0
 40
2.0
 40
2.0
 40
2.0
 40
3.0
 40
3.0
 40
3.0
 40
4.0
 40
4.0
 40
4.0
 40
5.0
 40
5.0
 40
5.0
 40
6.0
 40
6.0
 40
6.0
 40
7.0
 40
7.0
 40
7.0
 40
7.0
 10
155.0572021484374
 20
77.83607584635416
 30
0.0
 10
155.0572021484374
 20
77.83607584635416
 30
0.0
 10
156.3301649305555
 20
79.31126573350694
 30
0.0
 10
156.3301649305555
 20
79.31126573350694
 30
0.0
 10
156.3487684461805
 20
79.29920789930554
 30
0.0
 10
156.3656494140625
 20
79.28473849826388
 30
0.0
 10
156.3845974392361
 20
79.2730251736111
 30
0.0
 10
156.7635579427083
 20
79.00568576388888
 30
0.0
 10
157.2331244574652
 20
78.82998589409722
 30
0.0
 10
157.809144422743
 20
78.82998589409722
 30
0.0
 10
157.809144422743
 20
78.82998589409722
 30
0.0
 10
158.9119194878471
 20
78.82998589409722
 30
0.0
 10
158.9119194878471
 20
78.82998589409722
 30
0.0
 10
158.9119194878471
 20
78.82998589409722
 30
0.0
 10
160.4618679470485
 20
78.7955349392361
 30
0.0
 10
160.4618679470485
 20
78.7955349392361
 30
0.0
 10
160.4618679470485
 20
78.7955349392361
 30
0.0
 10
159.7108371310763
 20
76.48456488715277
 30
0.0
 10
159.7108371310763
 20
76.48456488715277
 30
0.0
 10
157.412269422743
 20
76.89694281684026
 30
0.0
 10
155.7079806857638
 20
77.55874565972222
 30
0.0
 10
155.0572021484374
 20
77.83607584635416
 30
0.0
  0
SPLINE
  5
47
330
A
100
AcDbEntity
  8
0
 62
     7
100
AcDbSpline
210
0.0
220
0.0
230
1.0
 70
     9
 71
     3
 72
    26
 73
    22
 74
     0
 42
0.0000000001
 43
0.0000000001
 40
0.0
 40
0.0
 40
0.0
 40
0.0
 40
1.0
 40
1.0
 40
1.0
 40
2.0
 40
2.0
 40
2.0
 40
3.0
 40
3.0
 40
3.0
 40
4.0
 40
4.0
 40
4.0
 40
5.0
 40
5.0
 40
5.0
 40
6.0
 40
6.0
 40
6.0
 40
7.0
 40
7.0
 40
7.0
 40
7.0
 10
155.0048366970486
 20
82.14072265624999
 30
0.0
 10
155.0048366970486
 20
82.14072265624999
 30
0.0
 10
152.717982313368
 20
82.14072265624999
 30
0.0
 10
152.717982313368
 20
82.14072265624999
 30
0.0
 10
152.717982313368
 20
82.14072265624999
 30
0.0
 10
152.717982313368
 20
84.86372612847221
 30
0.0
 10
152.717982313368
 20
84.86372612847221
 30
0.0
 10
152.717982313368
 20
84.86372612847221
 30
0.0
 10
156.2071750217013
 20
87.67078993055553
 30
0.0
 10
156.2071750217013
 20
87.67078993055553
 30
0.0
 10
156.2071750217013
 20
87.67078993055553
 30
0.0
 10
158.8960720486111
 20
85.08524576822916
 30
0.0
 10
158.8960720486111
 20
85.08524576822916
 30
0.0
 10
158.6104736328124
 20
84.96328938802083
 30
0.0
 10
158.2759548611111
 20
84.87578396267361
 30
0.0
 10
157.8814914279513
 20
84.83857693142359
 30
0.0
 10
157.8053548177083
 20
84.83168674045137
 30
0.0
 10
157.7199164496527
 20
84.82066243489581
 30
0.0
 10
157.6289659288194
 20
84.80584852430554
 30
0.0
 10
156.2512722439236
 20
84.60258789062498
 30
0.0
 10
155.142640516493
 20
83.56492513020832
 30
0.0
 10
155.0048366970486
 20
82.14072265624999
 30
0.0
  0
SPLINE
  5
46
330
A
100
AcDbEntity
  8
0
 62
     7
100
AcDbSpline
210
0.0
220
0.0
230
1.0
 70
     9
 71
     3
 72
    17
 73
    13
 74
     0
 42
0.0000000001
 43
0.0000000001
 40
0.0
 40
0.0
 40
0.0
 40
0.0
 40
1.0
 40
1.0
 40
1.0
 40
2.0
 40
2.0
 40
2.0
 40
3.0
 40
3.0
 40
3.0
 40
4.0
 40
4.0
 40
4.0
 40
4.0
 10
163.0422444661458
 20
95.65824381510415
 30
0.0
 10
160.977943250868
 20
95.62413736979165
 30
0.0
 10
159.3528917100694
 20
95.33440483940971
 30
0.0
 10
158.7520670572916
 20
95.2100368923611
 30
0.0
 10
158.7520670572916
 20
95.2100368923611
 30
0.0
 10
157.3605929904513
 20
98.40088433159721
 30
0.0
 10
157.3605929904513
 20
98.40088433159721
 30
0.0
 10
158.0516791449652
 20
98.6768364800347
 30
0.0
 10
160.1586995442708
 20
99.41064181857639
 30
0.0
 10
163.0422444661458
 20
99.46541883680554
 30
0.0
 10
163.0422444661458
 20
99.46541883680554
 30
0.0
 10
163.0422444661458
 20
95.65824381510415
 30
0.0
 10
163.0422444661458
 20
95.65824381510415
 30
0.0
  0
SPLINE
  5
45
330
A
100
AcDbEntity
  8
0
 62
     7
100
AcDbSpline
210
0.0
220
0.0
230
1.0
 70
     9
 71
     3
 72
    20
 73
    16
 74
     0
 42
0.0000000001
 43
0.0000000001
 40
0.0
 40
0.0
 40
0.0
 40
0.0
 40
1.0
 40
1.0
 40
1.0
 40
2.0
 40
2.0
 40
2.0
 40
3.0
 40
3.0
 40
3.0
 40
4.0
 40
4.0
 40
4.0
 40
5.0
 40
5.0
 40
5.0
 40
5.0
 10
153.4321506076388
 20
91.10279405381943
 30
0.0
 10
153.8300591362847
 20
90.95603298611109
 30
0.0
 10
154.2596625434027
 20
90.87438422309027
 30
0.0
 10
154.7089029947916
 20
90.87438422309027
 30
0.0
 10
156.7266954210069
 20
90.87438422309027
 30
0.0
 10
158.3651828342013
 20
92.48393283420138
 30
0.0
 10
158.4130696614583
 20
94.48622233072915
 30
0.0
 10
158.4130696614583
 20
94.48622233072915
 30
0.0
 10
159.791796875
 20
91.324658203125
 30
0.0
 10
159.791796875
 20
91.324658203125
 30
0.0
 10
159.791796875
 20
91.324658203125
 30
0.0
 10
156.2037299262152
 20
88.43801269531249
 30
0.0
 10
156.2037299262152
 20
88.43801269531249
 30
0.0
 10
156.2037299262152
 20
88.43801269531249
 30
0.0
 10
153.4321506076388
 20
91.10279405381943
 30
0.0
 10
153.4321506076388
 20
91.10279405381943
 30
0.0
  0
POLYLINE
  5
40
330
A
100
AcDbEntity
  8
0
 62
     7
100
AcDb2dPolyline
 66
     1
 10
0.0
 20
0.0
 30
0.0
 70
     1
  0
VERTEX
  5
41
330
40
100
AcDbEntity
  8
0
 62
     7
100
AcDbVertex
100
AcDb2dVertex
 10
155.7713704427083
 20
88.09005805121527
 30
0.0
  0
VERTEX
  5
42
330
40
100
AcDbEntity
  8
0
 62
     7
100
AcDbVertex
100
AcDb2dVertex
 10
152.717982313368
 20
85.63336046006943
 30
0.0
  0
VERTEX
  5
43
330
40
100
AcDbEntity
  8
0
 62
     7
100
AcDbVertex
100
AcDb2dVertex
 10
152.717982313368
 20
91.02596842447916
 30
0.0
  0
SEQEND
  5
44
330
40
100
AcDbEntity
  8
0
 62
     7
  0
SPLINE
  5
3F
330
A
100
AcDbEntity
  8
0
 62
     7
100
AcDbSpline
210
0.0
220
0.0
230
1.0
 70
     9
 71
     3
 72
    17
 73
    13
 74
     0
 42
0.0000000001
 43
0.0000000001
 40
0.0
 40
0.0
 40
0.0
 40
0.0
 40
1.0
 40
1.0
 40
1.0
 40
2.0
 40
2.0
 40
2.0
 40
3.0
 40
3.0
 40
3.0
 40
4.0
 40
4.0
 40
4.0
 40
4.0
 10
154.9783094618055
 20
91.48830023871527
 30
0.0
 10
154.9783094618055
 20
91.48830023871527
 30
0.0
 10
154.9783094618055
 20
92.99690755208333
 30
0.0
 10
154.9783094618055
 20
92.99690755208333
 30
0.0
 10
155.6607828776041
 20
93.11266276041665
 30
0.0
 10
156.1933946397569
 20
93.65664333767361
 30
0.0
 10
156.2939914279513
 20
94.34290635850693
 30
0.0
 10
156.2939914279513
 20
94.34290635850693
 30
0.0
 10
157.8043212890624
 20
94.34290635850693
 30
0.0
 10
157.8043212890624
 20
94.34290635850693
 30
0.0
 10
157.6909776475694
 20
92.83085394965276
 30
0.0
 10
156.4889838324652
 20
91.61852484809028
 30
0.0
 10
154.9783094618055
 20
91.48830023871527
 30
0.0
  0
SPLINE
  5
3E
330
A
100
AcDbEntity
  8
0
 62
     7
100
AcDbSpline
210
0.0
220
0.0
230
1.0
 70
     9
 71
     3
 72
    17
 73
    13
 74
     0
 42
0.0000000001
 43
0.0000000001
 40
0.0
 40
0.0
 40
0.0
 40
0.0
 40
1.0
 40
1.0
 40
1.0
 40
2.0
 40
2.0
 40
2.0
 40
3.0
 40
3.0
 40
3.0
 40
4.0
 40
4.0
 40
4.0
 40
4.0
 10
157.792263454861
 20
94.94304199218749
 30
0.0
 10
157.792263454861
 20
94.94304199218749
 30
0.0
 10
156.2705647786458
 20
94.94304199218749
 30
0.0
 10
156.2705647786458
 20
94.94304199218749
 30
0.0
 10
156.1227701822916
 20
95.56419270833332
 30
0.0
 10
155.6149631076388
 20
96.04409450954861
 30
0.0
 10
154.9783094618055
 20
96.15192599826388
 30
0.0
 10
154.9783094618055
 20
96.15192599826388
 30
0.0
 10
154.9783094618055
 20
97.66053331163194
 30
0.0
 10
154.9783094618055
 20
97.66053331163194
 30
0.0
 10
156.4431640624999
 20
97.53444281684027
 30
0.0
 10
157.6193196614583
 20
96.391015625
 30
0.0
 10
157.792263454861
 20
94.94304199218749
 30
0.0
  0
CIRCLE
  5
3D
330
A
100
AcDbEntity
  8
0
 62
     7
100
AcDbCircle
 10
154.7094197591145
 20
94.5744167751736
 30
0.0
 40
1.006829155815972
  0
SPLINE
  5
3C
330
A
100
AcDbEntity
  8
0
 62
     7
100
AcDbSpline
210
0.0
220
0.0
230
1.0
 70
     9
 71
     3
 72
    17
 73
    13
 74
     0
 42
0.0000000001
 43
0.0000000001
 40
0.0
 40
0.0
 40
0.0
 40
0.0
 40
1.0
 40
1.0
 40
1.0
 40
2.0
 40
2.0
 40
2.0
 40
3.0
 40
3.0
 40
3.0
 40
4.0
 40
4.0
 40
4.0
 40
4.0
 10
154.3767957899305
 20
96.14365776909721
 30
0.0
 10
153.7694254557291
 20
96.01550021701388
 30
0.0
 10
153.2909016927083
 20
95.54386664496526
 30
0.0
 10
153.1479302300347
 20
94.94304199218749
 30
0.0
 10
153.1479302300347
 20
94.94304199218749
 30
0.0
 10
151.626576063368
 20
94.94304199218749
 30
0.0
 10
151.626576063368
 20
94.94304199218749
 30
0.0
 10
151.7971082899305
 20
96.37000054253471
 30
0.0
 10
152.941224500868
 20
97.50309244791665
 30
0.0
 10
154.3767957899305
 20
97.65605468749999
 30
0.0
 10
154.3767957899305
 20
97.65605468749999
 30
0.0
 10
154.3767957899305
 20
96.14365776909721
 30
0.0
 10
154.3767957899305
 20
96.14365776909721
 30
0.0
  0
SPLINE
  5
3B
330
A
100
AcDbEntity
  8
0
 62
     7
100
AcDbSpline
210
0.0
220
0.0
230
1.0
 70
     9
 71
     3
 72
    17
 73
    13
 74
     0
 42
0.0000000001
 43
0.0000000001
 40
0.0
 40
0.0
 40
0.0
 40
0.0
 40
1.0
 40
1.0
 40
1.0
 40
2.0
 40
2.0
 40
2.0
 40
3.0
 40
3.0
 40
3.0
 40
4.0
 40
4.0
 40
4.0
 40
4.0
 10
153.1245035807291
 20
94.34290635850693
 30
0.0
 10
153.2223442925347
 20
93.6780029296875
 30
0.0
 10
153.7239501953124
 20
93.14263509114582
 30
0.0
 10
154.3767957899305
 20
93.00517578124999
 30
0.0
 10
154.3767957899305
 20
93.00517578124999
 30
0.0
 10
154.3767957899305
 20
91.49277886284721
 30
0.0
 10
154.3767957899305
 20
91.49277886284721
 30
0.0
 10
152.8960937499999
 20
91.65090874565972
 30
0.0
 10
151.725794813368
 20
92.85186903211805
 30
0.0
 10
151.6145182291666
 20
94.34290635850693
 30
0.0
 10
151.6145182291666
 20
94.34290635850693
 30
0.0
 10
153.1245035807291
 20
94.34290635850693
 30
0.0
 10
153.1245035807291
 20
94.34290635850693
 30
0.0
  0
SPLINE
  5
3A
330
A
100
AcDbEntity
  8
0
 62
     7
100
AcDbSpline
210
0.0
220
0.0
230
1.0
 70
     9
 71
     3
 72
    26
 73
    22
 74
     0
 42
0.0000000001
 43
0.0000000001
 40
0.0
 40
0.0
 40
0.0
 40
0.0
 40
1.0
 40
1.0
 40
1.0
 40
2.0
 40
2.0
 40
2.0
 40
3.0
 40
3.0
 40
3.0
 40
4.0
 40
4.0
 40
4.0
 40
5.0
 40
5.0
 40
5.0
 40
6.0
 40
6.0
 40
6.0
 40
7.0
 40
7.0
 40
7.0
 40
7.0
 10
156.6395345052083
 20
88.01874457465277
 30
0.0
 10
156.6395345052083
 20
88.01874457465277
 30
0.0
 10
160.0405327690972
 20
90.75483940972221
 30
0.0
 10
160.0405327690972
 20
90.75483940972221
 30
0.0
 10
160.0405327690972
 20
90.75483940972221
 30
0.0
 10
160.7171495225694
 20
89.20316840277775
 30
0.0
 10
160.7171495225694
 20
89.20316840277775
 30
0.0
 10
160.6351562499999
 20
88.99060601128471
 30
0.0
 10
160.5741780598958
 20
88.76633029513888
 30
0.0
 10
160.5404161241319
 20
88.53275282118055
 30
0.0
 10
160.4618679470485
 20
88.21166992187498
 30
0.0
 10
160.4132921006944
 20
87.85716959635415
 30
0.0
 10
160.4132921006944
 20
87.45581597222221
 30
0.0
 10
160.4119140624999
 20
87.32145724826388
 30
0.0
 10
160.3981336805555
 20
87.01725531684026
 30
0.0
 10
160.3178629557291
 20
86.6620659722222
 30
0.0
 10
160.1628336588541
 20
86.20317925347221
 30
0.0
 10
159.8858479817708
 20
85.72293294270833
 30
0.0
 10
159.3969889322916
 20
85.36739908854166
 30
0.0
 10
159.3969889322916
 20
85.36739908854166
 30
0.0
 10
156.6395345052083
 20
88.01874457465277
 30
0.0
 10
156.6395345052083
 20
88.01874457465277
 30
0.0
  0
SPLINE
  5
39
330
A
100
AcDbEntity
  8
0
 62
     7
100
AcDbSpline
210
0.0
220
0.0
230
1.0
 70
     9
 71
     3
 72
    17
 73
    13
 74
     0
 42
0.0000000001
 43
0.0000000001
 40
0.0
 40
0.0
 40
0.0
 40
0.0
 40
1.0
 40
1.0
 40
1.0
 40
2.0
 40
2.0
 40
2.0
 40
3.0
 40
3.0
 40
3.0
 40
4.0
 40
4.0
 40
4.0
 40
4.0
 10
158.9983913845486
 20
94.6460747612847
 30
0.0
 10
159.6546820746527
 20
94.77250976562499
 30
0.0
 10
161.1667344835069
 20
95.01814507378471
 30
0.0
 10
163.0422444661458
 20
95.05190700954861
 30
0.0
 10
163.0422444661458
 20
95.05190700954861
 30
0.0
 10
163.0422444661458
 20
91.05146213107637
 30
0.0
 10
163.0422444661458
 20
91.05146213107637
 30
0.0
 10
162.2398817274305
 20
90.95844455295138
 30
0.0
 10
161.5384602864583
 20
90.51885036892361
 30
0.0
 10
161.0785400390625
 20
89.87599555121526
 30
0.0
 10
161.0785400390625
 20
89.87599555121526
 30
0.0
 10
158.9983913845486
 20
94.6460747612847
 30
0.0
 10
158.9983913845486
 20
94.6460747612847
 30
0.0
  0
SPLINE
  5
38
330
A
100
AcDbEntity
  8
0
 62
     7
100
AcDbSpline
210
0.0
220
0.0
230
1.0
 70
     9
 71
     3
 72
    17
 73
    13
 74
     0
 42
0.0000000001
 43
0.0000000001
 40
0.0
 40
0.0
 40
0.0
 40
0.0
 40
1.0
 40
1.0
 40
1.0
 40
2.0
 40
2.0
 40
2.0
 40
3.0
 40
3.0
 40
3.0
 40
4.0
 40
4.0
 40
4.0
 40
4.0
 10
163.0422444661458
 20
102.5660047743055
 30
0.0
 10
163.0422444661458
 20
102.5660047743055
 30
0.0
 10
163.0422444661458
 20
100.0831244574652
 30
0.0
 10
163.0422444661458
 20
100.0831244574652
 30
0.0
 10
160.0295084635416
 20
100.0345486111111
 30
0.0
 10
157.8494520399305
 20
99.25423448350693
 30
0.0
 10
157.1197808159721
 20
98.95347764756943
 30
0.0
 10
157.1197808159721
 20
98.95347764756943
 30
0.0
 10
156.1675564236111
 20
101.136634657118
 30
0.0
 10
156.1675564236111
 20
101.136634657118
 30
0.0
 10
158.0444444444444
 20
101.9062689887152
 30
0.0
 10
160.3581705729166
 20
102.5084716796874
 30
0.0
 10
163.0422444661458
 20
102.5660047743055
 30
0.0
  0
SPLINE
  5
37
330
A
100
AcDbEntity
  8
0
 62
     7
100
AcDbSpline
210
0.0
220
0.0
230
1.0
 70
     9
 71
     3
 72
    20
 73
    16
 74
     0
 42
0.0000000001
 43
0.0000000001
 40
0.0
 40
0.0
 40
0.0
 40
0.0
 40
1.0
 40
1.0
 40
1.0
 40
2.0
 40
2.0
 40
2.0
 40
3.0
 40
3.0
 40
3.0
 40
4.0
 40
4.0
 40
4.0
 40
5.0
 40
5.0
 40
5.0
 40
5.0
 10
155.613929578993
 20
100.9044352213541
 30
0.0
 10
155.613929578993
 20
100.9044352213541
 30
0.0
 10
157.1697347005208
 20
97.33738335503472
 30
0.0
 10
157.1697347005208
 20
97.33738335503472
 30
0.0
 10
156.5144775390624
 20
97.91857096354165
 30
0.0
 10
155.6542371961805
 20
98.27444932725693
 30
0.0
 10
154.7089029947916
 20
98.27444932725693
 30
0.0
 10
154.0129937065971
 20
98.27444932725693
 30
0.0
 10
153.3642822265624
 20
98.07945692274305
 30
0.0
 10
152.8075547960069
 20
97.7466606987847
 30
0.0
 10
152.8075547960069
 20
97.7466606987847
 30
0.0
 10
152.0337863498263
 20
98.82979871961804
 30
0.0
 10
152.0337863498263
 20
98.82979871961804
 30
0.0
 10
152.8733561197916
 20
99.44784884982638
 30
0.0
 10
154.0801730685763
 20
100.2209282769097
 30
0.0
 10
155.613929578993
 20
100.9044352213541
 30
0.0
  0
SPLINE
  5
36
330
A
100
AcDbEntity
  8
0
 62
     7
100
AcDbSpline
210
0.0
220
0.0
230
1.0
 70
     9
 71
     3
 72
    23
 73
    19
 74
     0
 42
0.0000000001
 43
0.0000000001
 40
0.0
 40
0.0
 40
0.0
 40
0.0
 40
1.0
 40
1.0
 40
1.0
 40
2.0
 40
2.0
 40
2.0
 40
3.0
 40
3.0
 40
3.0
 40
4.0
 40
4.0
 40
4.0
 40
5.0
 40
5.0
 40
5.0
 40
6.0
 40
6.0
 40
6.0
 40
6.0
 10
151.3030815972222
 20
98.26032443576387
 30
0.0
 10
151.3792182074652
 20
98.32336968315971
 30
0.0
 10
151.4674126519097
 20
98.39364963107639
 30
0.0
 10
151.556640625
 20
98.46461859809027
 30
0.0
 10
151.556640625
 20
98.46461859809027
 30
0.0
 10
152.3180067274305
 20
97.40008409288194
 30
0.0
 10
152.3180067274305
 20
97.40008409288194
 30
0.0
 10
151.5132324218749
 20
96.72140028211805
 30
0.0
 10
151.0012912326388
 20
95.70854220920137
 30
0.0
 10
151.0012912326388
 20
94.57510579427083
 30
0.0
 10
151.0012912326388
 20
94.07763400607638
 30
0.0
 10
151.1022325303819
 20
93.60427788628472
 30
0.0
 10
151.281032986111
 20
93.17122938368054
 30
0.0
 10
151.281032986111
 20
93.17122938368054
 30
0.0
 10
149.8637207031249
 20
94.53376464843749
 30
0.0
 10
149.8637207031249
 20
94.53376464843749
 30
0.0
 10
149.8933485243055
 20
95.65927734375
 30
0.0
 10
150.1527642144097
 20
97.30741102430556
 30
0.0
 10
151.3030815972222
 20
98.26032443576387
 30
0.0
  0
SPLINE
  5
35
330
A
100
AcDbEntity
  8
0
 62
     7
100
AcDbSpline
210
0.0
220
0.0
230
1.0
 70
     9
 71
     3
 72
    23
 73
    19
 74
     0
 42
0.0000000001
 43
0.0000000001
 40
0.0
 40
0.0
 40
0.0
 40
0.0
 40
1.0
 40
1.0
 40
1.0
 40
2.0
 40
2.0
 40
2.0
 40
3.0
 40
3.0
 40
3.0
 40
4.0
 40
4.0
 40
4.0
 40
5.0
 40
5.0
 40
5.0
 40
6.0
 40
6.0
 40
6.0
 40
6.0
 10
149.8768120659722
 20
93.75758463541666
 30
0.0
 10
149.8768120659722
 20
93.75758463541666
 30
0.0
 10
152.116468641493
 20
91.60405544704861
 30
0.0
 10
152.116468641493
 20
91.60405544704861
 30
0.0
 10
152.116468641493
 20
91.60405544704861
 30
0.0
 10
152.116468641493
 20
82.14072265624999
 30
0.0
 10
152.116468641493
 20
82.14072265624999
 30
0.0
 10
152.116468641493
 20
82.14072265624999
 30
0.0
 10
149.9188422309027
 20
82.14072265624999
 30
0.0
 10
149.9188422309027
 20
82.14072265624999
 30
0.0
 10
149.9188422309027
 20
82.14072265624999
 30
0.0
 10
149.9188422309027
 20
93.27664930555554
 30
0.0
 10
149.9188422309027
 20
93.27664930555554
 30
0.0
 10
149.9188422309027
 20
93.29594184027776
 30
0.0
 10
149.9174641927083
 20
93.3155788845486
 30
0.0
 10
149.9147081163194
 20
93.33452690972221
 30
0.0
 10
149.9136745876735
 20
93.34176161024304
 30
0.0
 10
149.8926595052083
 20
93.50299207899304
 30
0.0
 10
149.8768120659722
 20
93.75758463541666
 30
0.0
  0
SPLINE
  5
34
330
A
100
AcDbEntity
  8
0
 62
     7
100
AcDbSpline
210
0.0
220
0.0
230
1.0
 70
     8
 71
     3
 72
    20
 73
    16
 74
     0
 42
0.0000000001
 43
0.0000000001
 40
0.0
 40
0.0
 40
0.0
 40
0.0
 40
1.0
 40
1.0
 40
1.0
 40
2.0
 40
2.0
 40
2.0
 40
3.0
 40
3.0
 40
3.0
 40
4.0
 40
4.0
 40
4.0
 40
5.0
 40
5.0
 40
5.0
 40
5.0
 10
152.6866319444444
 20
81.54058702256945
 30
0.0
 10
152.6866319444444
 20
81.54058702256945
 30
0.0
 10
155.0709825303819
 20
81.54058702256945
 30
0.0
 10
155.0709825303819
 20
81.54058702256945
 30
0.0
 10
155.0733940972222
 20
81.51922743055555
 30
0.0
 10
155.0093153211805
 20
81.47685275607638
 30
0.0
 10
155.0093153211805
 20
81.47685275607638
 30
0.0
 10
155.0909640842013
 20
80.77749837239583
 30
0.0
 10
155.4034342447916
 20
80.15393608940971
 30
0.0
 10
155.8640435112847
 20
79.68988172743054
 30
0.0
 10
155.8640435112847
 20
79.68988172743054
 30
0.0
 10
152.717982313368
 20
76.04359266493054
 30
0.0
 10
152.717982313368
 20
76.04359266493054
 30
0.0
 10
152.717982313368
 20
76.04359266493054
 30
0.0
 10
152.717982313368
 20
81.47685275607638
 30
0.0
 10
152.717982313368
 20
81.47685275607638
 30
0.0
  0
SPLINE
  5
33
330
A
100
AcDbEntity
  8
0
 62
     7
100
AcDbSpline
210
0.0
220
0.0
230
1.0
 70
     8
 71
     3
 72
    23
 73
    19
 74
     0
 42
0.0000000001
 43
0.0000000001
 40
0.0
 40
0.0
 40
0.0
 40
0.0
 40
1.0
 40
1.0
 40
1.0
 40
2.0
 40
2.0
 40
2.0
 40
3.0
 40
3.0
 40
3.0
 40
4.0
 40
4.0
 40
4.0
 40
5.0
 40
5.0
 40
5.0
 40
6.0
 40
6.0
 40
6.0
 40
6.0
 10
152.116468641493
 20
81.47685275607638
 30
0.0
 10
152.116468641493
 20
81.47685275607638
 30
0.0
 10
152.116468641493
 20
75.34630533854166
 30
0.0
 10
152.116468641493
 20
75.34630533854166
 30
0.0
 10
152.116468641493
 20
75.34630533854166
 30
0.0
 10
149.9191867404513
 20
72.79969075520833
 30
0.0
 10
149.9191867404513
 20
72.79969075520833
 30
0.0
 10
149.9191867404513
 20
72.8052029079861
 30
0.0
 10
149.9188422309027
 20
72.81002604166666
 30
0.0
 10
149.9188422309027
 20
72.81553819444444
 30
0.0
 10
149.9188422309027
 20
72.81553819444444
 30
0.0
 10
149.9188422309027
 20
81.54058702256945
 30
0.0
 10
149.9188422309027
 20
81.54058702256945
 30
0.0
 10
149.9188422309027
 20
81.54058702256945
 30
0.0
 10
152.0575575086805
 20
81.54058702256945
 30
0.0
 10
152.0575575086805
 20
81.54058702256945
 30
0.0
 10
152.0575575086805
 20
81.54058702256945
 30
0.0
 10
152.110267469618
 20
81.54058702256945
 30
0.0
 10
152.110267469618
 20
81.54058702256945
 30
0.0
  0
SPLINE
  5
32
330
A
100
AcDbEntity
  8
0
 62
     7
100
AcDbSpline
210
0.0
220
0.0
230
1.0
 70
     9
 71
     3
 72
    26
 73
    22
 74
     0
 42
0.0000000001
 43
0.0000000001
 40
0.0
 40
0.0
 40
0.0
 40
0.0
 40
1.0
 40
1.0
 40
1.0
 40
2.0
 40
2.0
 40
2.0
 40
3.0
 40
3.0
 40
3.0
 40
4.0
 40
4.0
 40
4.0
 40
5.0
 40
5.0
 40
5.0
 40
6.0
 40
6.0
 40
6.0
 40
7.0
 40
7.0
 40
7.0
 40
7.0
 10
151.4481201171875
 20
68.27696940104165
 30
0.0
 10
151.4188368055555
 20
68.30625271267361
 30
0.0
 10
151.3778401692708
 20
68.33450249565972
 30
0.0
 10
151.3409776475694
 20
68.35345052083332
 30
0.0
 10
151.3282307942708
 20
68.35999620225694
 30
0.0
 10
150.1582763671874
 20
69.00767415364582
 30
0.0
 10
149.9526041666666
 20
71.91981336805554
 30
0.0
 10
149.9526041666666
 20
71.91981336805554
 30
0.0
 10
151.2245334201388
 20
73.39362521701388
 30
0.0
 10
151.2245334201388
 20
73.39362521701388
 30
0.0
 10
151.1001654730902
 20
73.02396647135416
 30
0.0
 10
151.0298855251735
 20
72.62950303819444
 30
0.0
 10
151.0298855251735
 20
72.21815863715277
 30
0.0
 10
151.0298855251735
 20
71.05233832465277
 30
0.0
 10
151.5711100260416
 20
70.01398654513888
 30
0.0
 10
152.4155029296874
 20
69.3356472439236
 30
0.0
 10
152.4155029296874
 20
69.3356472439236
 30
0.0
 10
151.5904025607638
 20
68.14605577256944
 30
0.0
 10
151.5904025607638
 20
68.14605577256944
 30
0.0
 10
151.5438937717013
 20
68.18980848524304
 30
0.0
 10
151.4922173394097
 20
68.23287217881944
 30
0.0
 10
151.4481201171875
 20
68.27696940104165
 30
0.0
  0
SPLINE
  5
31
330
A
100
AcDbEntity
  8
0
 62
     7
100
AcDbSpline
210
0.0
220
0.0
230
1.0
 70
     9
 71
     3
 72
    20
 73
    16
 74
     0
 42
0.0000000001
 43
0.0000000001
 40
0.0
 40
0.0
 40
0.0
 40
0.0
 40
1.0
 40
1.0
 40
1.0
 40
2.0
 40
2.0
 40
2.0
 40
3.0
 40
3.0
 40
3.0
 40
4.0
 40
4.0
 40
4.0
 40
5.0
 40
5.0
 40
5.0
 40
5.0
 10
152.0451551649305
 20
67.74849175347222
 30
0.0
 10
152.0451551649305
 20
67.74849175347222
 30
0.0
 10
152.9126302083333
 20
68.99906141493055
 30
0.0
 10
152.9126302083333
 20
68.99906141493055
 30
0.0
 10
153.4517876519097
 20
68.69382595486111
 30
0.0
 10
154.0736273871527
 20
68.51743706597222
 30
0.0
 10
154.7378417968749
 20
68.51743706597222
 30
0.0
 10
155.8561197916666
 20
68.51743706597222
 30
0.0
 10
156.8565755208333
 20
69.01387532552083
 30
0.0
 10
157.536292860243
 20
69.79522298177082
 30
0.0
 10
157.536292860243
 20
69.79522298177082
 30
0.0
 10
156.1362060546874
 20
65.48747558593749
 30
0.0
 10
156.1362060546874
 20
65.48747558593749
 30
0.0
 10
154.533203125
 20
66.11586100260416
 30
0.0
 10
153.0934977213541
 20
66.89789767795137
 30
0.0
 10
152.0451551649305
 20
67.74849175347222
 30
0.0
  0
SPLINE
  5
30
330
A
100
AcDbEntity
  8
0
 62
     7
100
AcDbSpline
210
0.0
220
0.0
230
1.0
 70
     9
 71
     3
 72
    17
 73
    13
 74
     0
 42
0.0000000001
 43
0.0000000001
 40
0.0
 40
0.0
 40
0.0
 40
0.0
 40
1.0
 40
1.0
 40
1.0
 40
2.0
 40
2.0
 40
2.0
 40
3.0
 40
3.0
 40
3.0
 40
4.0
 40
4.0
 40
4.0
 40
4.0
 10
163.0422444661458
 20
63.99437120225694
 30
0.0
 10
161.0368543836805
 20
64.0460476345486
 30
0.0
 10
158.7648139105902
 20
64.52629394531249
 30
0.0
 10
156.6977566189236
 20
65.27353515624999
 30
0.0
 10
156.6977566189236
 20
65.27353515624999
 30
0.0
 10
157.5259575737846
 20
67.82152777777778
 30
0.0
 10
157.5259575737846
 20
67.82152777777778
 30
0.0
 10
158.3265977647569
 20
67.55556640624999
 30
0.0
 10
160.3230305989583
 20
67.02123209635415
 30
0.0
 10
163.0422444661458
 20
67.01640896267361
 30
0.0
 10
163.0422444661458
 20
67.01640896267361
 30
0.0
 10
163.0422444661458
 20
63.99437120225694
 30
0.0
 10
163.0422444661458
 20
63.99437120225694
 30
0.0
  0
SPLINE
  5
2F
330
A
100
AcDbEntity
  8
0
 62
     7
100
AcDbSpline
210
0.0
220
0.0
230
1.0
 70
     9
 71
     3
 72
    17
 73
    13
 74
     0
 42
0.0000000001
 43
0.0000000001
 40
0.0
 40
0.0
 40
0.0
 40
0.0
 40
1.0
 40
1.0
 40
1.0
 40
2.0
 40
2.0
 40
2.0
 40
3.0
 40
3.0
 40
3.0
 40
4.0
 40
4.0
 40
4.0
 40
4.0
 10
163.0422444661458
 20
67.65099555121527
 30
0.0
 10
160.376429578993
 20
67.66408691406249
 30
0.0
 10
158.4209933810763
 20
68.17671712239583
 30
0.0
 10
157.7130262586805
 20
68.39685872395833
 30
0.0
 10
157.7130262586805
 20
68.39685872395833
 30
0.0
 10
158.8574869791666
 20
71.91740180121527
 30
0.0
 10
158.8574869791666
 20
71.91740180121527
 30
0.0
 10
159.4738145616319
 20
71.68726942274304
 30
0.0
 10
160.9689860026041
 20
71.23010525173611
 30
0.0
 10
163.0422444661458
 20
71.21219075520833
 30
0.0
 10
163.0422444661458
 20
71.21219075520833
 30
0.0
 10
163.0422444661458
 20
67.65099555121527
 30
0.0
 10
163.0422444661458
 20
67.65099555121527
 30
0.0
  0
SPLINE
  5
2E
330
A
100
AcDbEntity
  8
0
 62
     7
100
AcDbSpline
210
0.0
220
0.0
230
1.0
 70
     9
 71
     3
 72
    17
 73
    13
 74
     0
 42
0.0000000001
 43
0.0000000001
 40
0.0
 40
0.0
 40
0.0
 40
0.0
 40
1.0
 40
1.0
 40
1.0
 40
2.0
 40
2.0
 40
2.0
 40
3.0
 40
3.0
 40
3.0
 40
4.0
 40
4.0
 40
4.0
 40
4.0
 10
163.0422444661458
 20
71.82300618489583
 30
0.0
 10
161.0361653645833
 20
71.84539930555555
 30
0.0
 10
159.5926703559027
 20
72.28878309461805
 30
0.0
 10
159.0438666449652
 20
72.49101019965277
 30
0.0
 10
159.0438666449652
 20
72.49101019965277
 30
0.0
 10
160.1228705512152
 20
75.81104871961804
 30
0.0
 10
160.1228705512152
 20
75.81104871961804
 30
0.0
 10
161.0258300781249
 20
75.6697998046875
 30
0.0
 10
162.0076822916666
 20
75.57230360243055
 30
0.0
 10
163.0422444661458
 20
75.54715440538193
 30
0.0
 10
163.0422444661458
 20
75.54715440538193
 30
0.0
 10
163.0422444661458
 20
71.82300618489583
 30
0.0
 10
163.0422444661458
 20
71.82300618489583
 30
0.0
  0
SPLINE
  5
2D
330
A
100
AcDbEntity
  8
0
 62
     7
100
AcDbSpline
210
0.0
220
0.0
230
1.0
 70
     9
 71
     3
 72
    17
 73
    13
 74
     0
 42
0.0000000001
 43
0.0000000001
 40
0.0
 40
0.0
 40
0.0
 40
0.0
 40
1.0
 40
1.0
 40
1.0
 40
2.0
 40
2.0
 40
2.0
 40
3.0
 40
3.0
 40
3.0
 40
4.0
 40
4.0
 40
4.0
 40
4.0
 10
163.0422444661458
 20
76.14384494357638
 30
0.0
 10
162.0765842013888
 20
76.16761610243054
 30
0.0
 10
161.1581217447916
 20
76.25649956597222
 30
0.0
 10
160.3095947265624
 20
76.38534613715276
 30
0.0
 10
160.3095947265624
 20
76.38534613715276
 30
0.0
 10
161.0885308159722
 20
78.78175455729166
 30
0.0
 10
161.0885308159722
 20
78.78175455729166
 30
0.0
 10
161.0885308159722
 20
78.78175455729166
 30
0.0
 10
163.0422444661458
 20
78.73834635416667
 30
0.0
 10
163.0422444661458
 20
78.73834635416667
 30
0.0
 10
163.0422444661458
 20
78.73834635416667
 30
0.0
 10
163.0422444661458
 20
76.14384494357638
 30
0.0
 10
163.0422444661458
 20
76.14384494357638
 30
0.0
  0
SPLINE
  5
2C
330
A
100
AcDbEntity
  8
0
 62
     7
100
AcDbSpline
210
0.0
220
0.0
230
1.0
 70
     9
 71
     3
 72
    23
 73
    19
 74
     0
 42
0.0000000001
 43
0.0000000001
 40
0.0
 40
0.0
 40
0.0
 40
0.0
 40
1.0
 40
1.0
 40
1.0
 40
2.0
 40
2.0
 40
2.0
 40
3.0
 40
3.0
 40
3.0
 40
4.0
 40
4.0
 40
4.0
 40
5.0
 40
5.0
 40
5.0
 40
6.0
 40
6.0
 40
6.0
 40
6.0
 10
163.6423800998263
 20
63.99092610677083
 30
0.0
 10
163.6423800998263
 20
63.99092610677083
 30
0.0
 10
163.6423800998263
 20
64.04466959635415
 30
0.0
 10
163.6423800998263
 20
64.04466959635415
 30
0.0
 10
163.6423800998263
 20
64.04466959635415
 30
0.0
 10
163.6950900607638
 20
64.04432508680554
 30
0.0
 10
163.6950900607638
 20
64.04432508680554
 30
0.0
 10
163.6950900607638
 20
64.04432508680554
 30
0.0
 10
163.6950900607638
 20
67.02708875868054
 30
0.0
 10
163.6950900607638
 20
67.02708875868054
 30
0.0
 10
165.2774224175346
 20
67.07359754774305
 30
0.0
 10
167.0702501085069
 20
67.30097384982638
 30
0.0
 10
169.0026041666666
 20
67.85907931857638
 30
0.0
 10
169.0026041666666
 20
67.85907931857638
 30
0.0
 10
169.8387288411458
 20
65.16088053385415
 30
0.0
 10
169.8387288411458
 20
65.16088053385415
 30
0.0
 10
167.8312717013888
 20
64.46841634114583
 30
0.0
 10
165.6129747178819
 20
64.02572157118055
 30
0.0
 10
163.6423800998263
 20
63.99092610677083
 30
0.0
  0
SPLINE
  5
2B
330
A
100
AcDbEntity
  8
0
 62
     7
100
AcDbSpline
210
0.0
220
0.0
230
1.0
 70
     9
 71
     3
 72
    20
 73
    16
 74
     0
 42
0.0000000001
 43
0.0000000001
 40
0.0
 40
0.0
 40
0.0
 40
0.0
 40
1.0
 40
1.0
 40
1.0
 40
2.0
 40
2.0
 40
2.0
 40
3.0
 40
3.0
 40
3.0
 40
4.0
 40
4.0
 40
4.0
 40
5.0
 40
5.0
 40
5.0
 40
5.0
 10
170.4040690104166
 20
65.36414116753471
 30
0.0
 10
170.4040690104166
 20
65.36414116753471
 30
0.0
 10
168.965052625868
 20
70.00916341145833
 30
0.0
 10
168.965052625868
 20
70.00916341145833
 30
0.0
 10
169.640980360243
 20
69.10172526041666
 30
0.0
 10
170.7196397569444
 20
68.51123589409721
 30
0.0
 10
171.9395480685763
 20
68.51123589409721
 30
0.0
 10
172.4807725694444
 20
68.51123589409721
 30
0.0
 10
172.9934027777777
 20
68.62974717881944
 30
0.0
 10
173.4571126302083
 20
68.83783094618054
 30
0.0
 10
173.4571126302083
 20
68.83783094618054
 30
0.0
 10
174.4031358506944
 20
67.5152587890625
 30
0.0
 10
174.4031358506944
 20
67.5152587890625
 30
0.0
 10
173.4030246310763
 20
66.7032497829861
 30
0.0
 10
171.986745876736
 20
65.95945366753472
 30
0.0
 10
170.4040690104166
 20
65.36414116753471
 30
0.0
  0
SPLINE
  5
2A
330
A
100
AcDbEntity
  8
0
 62
     7
100
AcDbSpline
210
0.0
220
0.0
230
1.0
 70
     9
 71
     3
 72
    23
 73
    19
 74
     0
 42
0.0000000001
 43
0.0000000001
 40
0.0
 40
0.0
 40
0.0
 40
0.0
 40
1.0
 40
1.0
 40
1.0
 40
2.0
 40
2.0
 40
2.0
 40
3.0
 40
3.0
 40
3.0
 40
4.0
 40
4.0
 40
4.0
 40
5.0
 40
5.0
 40
5.0
 40
6.0
 40
6.0
 40
6.0
 40
6.0
 10
174.9302354600694
 20
67.98310275607637
 30
0.0
 10
174.9071533203125
 20
67.96002061631944
 30
0.0
 10
174.8789035373263
 20
67.93762749565971
 30
0.0
 10
174.8551323784722
 20
67.91488986545139
 30
0.0
 10
174.8551323784722
 20
67.91488986545139
 30
0.0
 10
173.988001844618
 20
69.12825249565972
 30
0.0
 10
173.988001844618
 20
69.12825249565972
 30
0.0
 10
174.9881130642361
 20
69.7910888671875
 30
0.0
 10
175.6481933593749
 20
70.92418077256944
 30
0.0
 10
175.6481933593749
 20
72.21195746527778
 30
0.0
 10
175.6481933593749
 20
72.5537109375
 30
0.0
 10
175.5968614366319
 20
72.8827175564236
 30
0.0
 10
175.5097005208333
 20
73.19656575520832
 30
0.0
 10
175.5097005208333
 20
73.19656575520832
 30
0.0
 10
176.6872341579861
 20
71.8316189236111
 30
0.0
 10
176.6872341579861
 20
71.8316189236111
 30
0.0
 10
176.6644965277777
 20
70.95932074652776
 30
0.0
 10
176.3837212456597
 20
69.43658854166667
 30
0.0
 10
174.9302354600694
 20
67.98310275607637
 30
0.0
  0
SPLINE
  5
29
330
A
100
AcDbEntity
  8
0
 62
     7
100
AcDbSpline
210
0.0
220
0.0
230
1.0
 70
     9
 71
     3
 72
    41
 73
    37
 74
     0
 42
0.0000000001
 43
0.0000000001
 40
0.0
 40
0.0
 40
0.0
 40
0.0
 40
1.0
 40
1.0
 40
1.0
 40
2.0
 40
2.0
 40
2.0
 40
3.0
 40
3.0
 40
3.0
 40
4.0
 40
4.0
 40
4.0
 40
5.0
 40
5.0
 40
5.0
 40
6.0
 40
6.0
 40
6.0
 40
7.0
 40
7.0
 40
7.0
 40
8.0
 40
8.0
 40
8.0
 40
9.0
 40
9.0
 40
9.0
 40
10.0
 40
10.0
 40
10.0
 40
11.0
 40
11.0
 40
11.0
 40
12.0
 40
12.0
 40
12.0
 40
12.0
 10
177.4355088975694
 20
72.67360026041666
 30
0.0
 10
177.4355088975694
 20
72.74215766059026
 30
0.0
 10
177.4355088975694
 20
94.92306043836803
 30
0.0
 10
177.4355088975694
 20
94.92306043836803
 30
0.0
 10
177.4355088975694
 20
96.61666937934027
 30
0.0
 10
177.156800672743
 20
97.9075466579861
 30
0.0
 10
175.7684271918402
 20
99.10643988715278
 30
0.0
 10
174.392800564236
 20
100.2946533203124
 30
0.0
 10
169.498353407118
 20
103.3780137803819
 30
0.0
 10
163.4535888671874
 20
103.3780137803819
 30
0.0
 10
156.9299560546874
 20
103.3780137803819
 30
0.0
 10
152.4261827256944
 20
100.2298855251736
 30
0.0
 10
150.7925184461805
 20
98.87630750868055
 30
0.0
 10
149.3090603298611
 20
97.6470974392361
 30
0.0
 10
149.0555013020833
 20
95.58245171440971
 30
0.0
 10
149.0555013020833
 20
94.31465657552083
 30
0.0
 10
149.0555013020833
 20
93.74552680121526
 30
0.0
 10
149.1051106770833
 20
93.35140787760416
 30
0.0
 10
149.1188910590277
 20
93.25115559895833
 30
0.0
 10
149.1188910590277
 20
93.2008572048611
 30
0.0
 10
149.1188910590277
 20
72.81553819444444
 30
0.0
 10
149.1188910590277
 20
72.81553819444444
 30
0.0
 10
149.1188910590277
 20
68.90156521267361
 30
0.0
 10
150.6333550347221
 20
67.83737521701389
 30
0.0
 10
150.9416910807291
 20
67.66133083767361
 30
0.0
 10
153.4235378689236
 20
65.22978244357638
 30
0.0
 10
159.0965766059027
 20
63.18442925347222
 30
0.0
 10
163.3950222439235
 20
63.18442925347222
 30
0.0
 10
167.7334309895833
 20
63.18442925347222
 30
0.0
 10
173.1618679470486
 20
65.08336588541665
 30
0.0
 10
175.4959201388888
 20
67.41741807725694
 30
0.0
 10
177.212611219618
 20
69.13410915798611
 30
0.0
 10
177.4885633680555
 20
70.96448838975693
 30
0.0
 10
177.4885633680555
 20
71.96356608072917
 30
0.0
 10
177.4885633680555
 20
72.3339138454861
 30
0.0
 10
177.4520453559027
 20
72.57989366319444
 30
0.0
 10
177.4355088975694
 20
72.67360026041666
 30
0.0
  0
ENDSEC
  0
SECTION
  2
OBJECTS
  0
DICTIONARY
  5
19
330
0
100
AcDbDictionary
281
     1
  3
ACAD_GROUP
350
1A
  3
ACAD_MLINESTYLE
350
1B
  3
ACAD_LAYOUT
350
1E
  3
ACAD_PLOTSETTINGS
350
22
  3
ACAD_PLOTSTYLENAME
350
1F
  3
ACAD_WIPEOUT_VARS
350
23
  0
DICTIONARY
  5
1A
102
{ACAD_REACTORS
330
19
102
}
330
19
100
AcDbDictionary
281
     1
  0
DICTIONARY
  5
1B
102
{ACAD_REACTORS
330
19
102
}
330
19
100
AcDbDictionary
281
     1
  3
Standard
350
1C
  0
DICTIONARY
  5
1E
102
{ACAD_REACTORS
330
19
102
}
330
19
100
AcDbDictionary
281
     1
  3
Layout1
350
21
  3
Model
350
20
  0
DICTIONARY
  5
22
102
{ACAD_REACTORS
330
19
102
}
330
19
100
AcDbDictionary
281
     1
  0
ACDBDICTIONARYWDFLT
  5
1F
102
{ACAD_REACTORS
330
19
102
}
330
19
100
AcDbDictionary
281
     1
  3
Normal
350
1D
100
AcDbDictionaryWithDefault
340
1D
  0
ACAD_PROXY_OBJECT
  5
23
330
19
100
AcDbProxyObject
 90
      499
 91
      521
 95
   393239
 70
     0
 93
       10
310
4044
 94
        0
  0
MLINESTYLE
  5
1C
102
{ACAD_REACTORS
330
1B
102
}
330
1B
100
AcDbMlineStyle
  2
STANDARD
 70
     0
  3

 62
     0
 51
90.00000000000019
 52
90.00000000000019
 71
     2
 49
0.5
 62
   256
  6
BYLAYER
 49
-0.5
 62
   256
  6
BYLAYER
  0
LAYOUT
  5
21
102
{ACAD_REACTORS
330
1E
102
}
330
1E
100
AcDbPlotSettings
  1

  2

  4

  6

 40
0.0
 41
0.0
 42
0.0
 43
0.0
 44
0.0
 45
0.0
 46
0.0
 47
0.0
 48
0.0
 49
0.0
140
0.0
141
0.0
142
1.0
143
1.0
 70
     0
 72
     0
 73
     0
 74
     0
  7

 75
     0
147
1.0
148
0.0
149
0.0
100
AcDbLayout
  1
Layout1
 70
     0
 71
     1
 10
0.0
 20
0.0
 11
12.0
 21
9.0
 12
0.0
 22
0.0
 32
0.0
 14
1.000000000000000E+20
 24
1.000000000000000E+20
 34
1.000000000000000E+20
 15
-1.000000000000000E+20
 25
-1.000000000000000E+20
 35
-1.000000000000000E+20
146
0.0
 13
0.0
 23
0.0
 33
0.0
 16
1.0
 26
0.0
 36
0.0
 17
0.0
 27
1.0
 37
0.0
 76
     0
330
B
  0
LAYOUT
  5
20
102
{ACAD_REACTORS
330
1E
102
}
330
1E
100
AcDbPlotSettings
  1

  2

  4

  6

 40
0.0
 41
0.0
 42
0.0
 43
0.0
 44
0.0
 45
0.0
 46
0.0
 47
0.0
 48
0.0
 49
0.0
140
0.0
141
0.0
142
1.0
143
1.0
 70
  1024
 72
     0
 73
     0
 74
     0
  7

 75
     0
147
1.0
148
0.0
149
0.0
100
AcDbLayout
  1
Model
 70
     0
 71
     0
 10
0.0
 20
0.0
 11
0.0
 21
0.0
 12
0.0
 22
0.0
 32
0.0
 14
0.0
 24
0.0
 34
0.0
 15
0.0
 25
0.0
 35
0.0
146
0.0
 13
0.0
 23
0.0
 33
0.0
 16
0.0
 26
0.0
 36
0.0
 17
0.0
 27
0.0
 37
0.0
 76
     0
330
A
  0
ACDBPLACEHOLDER
  5
1D
102
{ACAD_REACTORS
330
1F
102
}
330
1F
  0
ENDSEC
  0
EOF
