  0
SECTION
  2
HEADER
  9
$ACADVER
  1
AC1015
  9
$ACADMAINTVER
 70
     6
  9
$DWGCODEPAGE
  3
ANSI_932
  9
$INSBASE
 10
0.0
 20
0.0
 30
0.0
  9
$EXTMIN
 10
11.93656684027777
 20
12.66107042100694
 30
-0.00000001
  9
$EXTMAX
 10
200.4074055989583
 20
286.7888685438367
 30
0.00000001
  9
$LIMMIN
 10
11.76017795138888
 20
12.48468153211805
  9
$LIMMAX
 10
200.5837944878472
 20
286.9652574327256
  9
$ORTHOMODE
 70
     0
  9
$REGENMODE
 70
     1
  9
$FILLMODE
 70
     1
  9
$QTEXTMODE
 70
     0
  9
$MIRRTEXT
 70
     1
  9
$LTSCALE
 40
1.0
  9
$ATTMODE
 70
     1
  9
$TEXTSIZE
 40
0.0
  9
$TRACEWID
 40
0.05
  9
$TEXTSTYLE
  7
Standard
  9
$CLAYER
  8
0
  9
$CELTYPE
  6
Continuous
  9
$CECOLOR
 62
   256
  9
$CELTSCALE
 40
1.0
  9
$DISPSILH
 70
     0
  9
$DIMSCALE
 40
1.0
  9
$DIMASZ
 40
0.18
  9
$DIMEXO
 40
0.0625
  9
$DIMDLI
 40
0.38
  9
$DIMRND
 40
0.0
  9
$DIMDLE
 40
0.0
  9
$DIMEXE
 40
0.18
  9
$DIMTP
 40
0.0
  9
$DIMTM
 40
0.0
  9
$DIMTXT
 40
0.18
  9
$DIMCEN
 40
0.09
  9
$DIMTSZ
 40
0.0
  9
$DIMTOL
 70
     0
  9
$DIMLIM
 70
     0
  9
$DIMTIH
 70
     1
  9
$DIMTOH
 70
     1
  9
$DIMSE1
 70
     0
  9
$DIMSE2
 70
     0
  9
$DIMTAD
 70
     0
  9
$DIMZIN
 70
     0
  9
$DIMBLK
  1

  9
$DIMASO
 70
     1
  9
$DIMSHO
 70
     1
  9
$DIMPOST
  1

  9
$DIMAPOST
  1

  9
$DIMALT
 70
     0
  9
$DIMALTD
 70
     2
  9
$DIMALTF
 40
25.4
  9
$DIMLFAC
 40
1.0
  9
$DIMTOFL
 70
     0
  9
$DIMTVP
 40
0.0
  9
$DIMTIX
 70
     0
  9
$DIMSOXD
 70
     0
  9
$DIMSAH
 70
     0
  9
$DIMBLK1
  1

  9
$DIMBLK2
  1

  9
$DIMSTYLE
  2
Standard
  9
$DIMCLRD
 70
     0
  9
$DIMCLRE
 70
     0
  9
$DIMCLRT
 70
     0
  9
$DIMTFAC
 40
1.0
  9
$DIMGAP
 40
0.09
  9
$DIMJUST
 70
     0
  9
$DIMSD1
 70
     0
  9
$DIMSD2
 70
     0
  9
$DIMTOLJ
 70
     1
  9
$DIMTZIN
 70
     0
  9
$DIMALTZ
 70
     0
  9
$DIMALTTZ
 70
     0
  9
$DIMUPT
 70
     0
  9
$DIMDEC
 70
     4
  9
$DIMTDEC
 70
     4
  9
$DIMALTU
 70
     2
  9
$DIMALTTD
 70
     2
  9
$DIMTXSTY
  7
Standard
  9
$DIMAUNIT
 70
     0
  9
$DIMADEC
 70
     0
  9
$DIMALTRND
 40
0.0
  9
$DIMAZIN
 70
     0
  9
$DIMDSEP
 70
     0
  9
$DIMATFIT
 70
     3
  9
$DIMFRAC
 70
     0
  9
$DIMLDRBLK
  1

  9
$DIMLUNIT
 70
     2
  9
$DIMLWD
 70
     0
  9
$DIMLWE
 70
     0
  9
$DIMTMOVE
 70
     0
  9
$LUNITS
 70
     2
  9
$LUPREC
 70
     4
  9
$SKETCHINC
 40
0.1
  9
$FILLETRAD
 40
0.0
  9
$AUNITS
 70
     0
  9
$AUPREC
 70
     0
  9
$MENU
  1
acad
  9
$ELEVATION
 40
0.0
  9
$PELEVATION
 40
0.0
  9
$THICKNESS
 40
0.0
  9
$LIMCHECK
 70
     0
  9
$CHAMFERA
 40
0.0
  9
$CHAMFERB
 40
0.0
  9
$CHAMFERC
 40
0.0
  9
$CHAMFERD
 40
0.0
  9
$SKPOLY
 70
     0
  9
$TDCREATE
 40
2454999.434832534
  9
$TDUCREATE
 40
2454999.059832534
  9
$TDUPDATE
 40
2454999.435122789
  9
$TDUUPDATE
 40
2454999.060122789
  9
$TDINDWG
 40
0.0002913426
  9
$TDUSRTIMER
 40
0.0002913426
  9
$USRTIMER
 70
     1
  9
$ANGBASE
 50
0.0
  9
$ANGDIR
 70
     0
  9
$PDMODE
 70
     0
  9
$PDSIZE
 40
0.0
  9
$PLINEWID
 40
0.0
  9
$SPLFRAME
 70
     0
  9
$SPLINETYPE
 70
     6
  9
$SPLINESEGS
 70
     8
  9
$HANDSEED
  5
52B
  9
$SURFTAB1
 70
     6
  9
$SURFTAB2
 70
     6
  9
$SURFTYPE
 70
     6
  9
$SURFU
 70
     6
  9
$SURFV
 70
     6
  9
$UCSBASE
  2

  9
$UCSNAME
  2

  9
$UCSORG
 10
0.0
 20
0.0
 30
0.0
  9
$UCSXDIR
 10
1.0
 20
0.0
 30
0.0
  9
$UCSYDIR
 10
0.0
 20
1.0
 30
0.0
  9
$UCSORTHOREF
  2

  9
$UCSORTHOVIEW
 70
     0
  9
$UCSORGTOP
 10
0.0
 20
0.0
 30
0.0
  9
$UCSORGBOTTOM
 10
0.0
 20
0.0
 30
0.0
  9
$UCSORGLEFT
 10
0.0
 20
0.0
 30
0.0
  9
$UCSORGRIGHT
 10
0.0
 20
0.0
 30
0.0
  9
$UCSORGFRONT
 10
0.0
 20
0.0
 30
0.0
  9
$UCSORGBACK
 10
0.0
 20
0.0
 30
0.0
  9
$PUCSBASE
  2

  9
$PUCSNAME
  2

  9
$PUCSORG
 10
0.0
 20
0.0
 30
0.0
  9
$PUCSXDIR
 10
1.0
 20
0.0
 30
0.0
  9
$PUCSYDIR
 10
0.0
 20
1.0
 30
0.0
  9
$PUCSORTHOREF
  2

  9
$PUCSORTHOVIEW
 70
     0
  9
$PUCSORGTOP
 10
0.0
 20
0.0
 30
0.0
  9
$PUCSORGBOTTOM
 10
0.0
 20
0.0
 30
0.0
  9
$PUCSORGLEFT
 10
0.0
 20
0.0
 30
0.0
  9
$PUCSORGRIGHT
 10
0.0
 20
0.0
 30
0.0
  9
$PUCSORGFRONT
 10
0.0
 20
0.0
 30
0.0
  9
$PUCSORGBACK
 10
0.0
 20
0.0
 30
0.0
  9
$USERI1
 70
     0
  9
$USERI2
 70
     0
  9
$USERI3
 70
     0
  9
$USERI4
 70
     0
  9
$USERI5
 70
     0
  9
$USERR1
 40
0.0
  9
$USERR2
 40
0.0
  9
$USERR3
 40
0.0
  9
$USERR4
 40
0.0
  9
$USERR5
 40
0.0
  9
$WORLDVIEW
 70
     1
  9
$SHADEDGE
 70
     3
  9
$SHADEDIF
 70
    70
  9
$TILEMODE
 70
     1
  9
$MAXACTVP
 70
    16
  9
$PINSBASE
 10
0.0
 20
0.0
 30
0.0
  9
$PLIMCHECK
 70
     0
  9
$PEXTMIN
 10
1.000000000000000E+20
 20
1.000000000000000E+20
 30
1.000000000000000E+20
  9
$PEXTMAX
 10
-1.000000000000000E+20
 20
-1.000000000000000E+20
 30
-1.000000000000000E+20
  9
$PLIMMIN
 10
0.0
 20
0.0
  9
$PLIMMAX
 10
12.0
 20
9.0
  9
$UNITMODE
 70
     0
  9
$VISRETAIN
 70
     0
  9
$PLINEGEN
 70
     1
  9
$PSLTSCALE
 70
     0
  9
$TREEDEPTH
 70
  3020
  9
$CMLSTYLE
  2
Standard
  9
$CMLJUST
 70
     0
  9
$CMLSCALE
 40
1.0
  9
$PROXYGRAPHICS
 70
     0
  9
$MEASUREMENT
 70
     0
  9
$CELWEIGHT
370
     0
  9
$ENDCAPS
280
     0
  9
$JOINSTYLE
280
     0
  9
$LWDISPLAY
290
     0
  9
$INSUNITS
 70
     0
  9
$HYPERLINKBASE
  1

  9
$STYLESHEET
  1

  9
$XEDIT
290
     1
  9
$CEPSNTYPE
380
     0
  9
$PSTYLEMODE
290
     1
  9
$FINGERPRINTGUID
  2

  9
$VERSIONGUID
  2

  9
$EXTNAMES
290
     1
  9
$PSVPSCALE
 40
0.0
  9
$OLESTARTUP
290
     0
  0
ENDSEC
  0
SECTION
  2
CLASSES
  0
CLASS
  1
LWPOLYLINE
  2
AcDbPolyline
  3
AutoCAD 2000
 90
    32768
280
     0
281
     1
  0
CLASS
  1
IMAGE
  2
AcDbRasterImage
  3
ISM
 90
    32895
280
     0
281
     1
  0
CLASS
  1
OLE2FRAME
  2
AcDbOle2Frame
  3
AutoCAD 2000
 90
    32768
280
     0
281
     1
  0
CLASS
  1
HATCH
  2
AcDbHatch
  3
AutoCAD 2000
 90
    32768
280
     0
281
     1
  0
CLASS
  1
DICTIONARYVAR
  2
AcDbDictionaryVar
  3
AutoCAD 2000
 90
    32768
280
     0
281
     0
  0
CLASS
  1
RASTERVARIABLES
  2
AcDbRasterVariables
  3
ISM
 90
    32768
280
     0
281
     0
  0
CLASS
  1
IMAGEDEF
  2
AcDbRasterImageDef
  3
ISM
 90
    32768
280
     0
281
     0
  0
CLASS
  1
IMAGEDEF_REACTOR
  2
AcDbRasterImageDefReactor
  3
ISM
 90
    32769
280
     0
281
     0
  0
CLASS
  1
IDBUFFER
  2
AcDbIdBuffer
  3
AutoCAD 2000
 90
    32768
280
     0
281
     0
  0
CLASS
  1
SPATIAL_FILTER
  2
AcDbSpatialFilter
  3
AutoCAD 2000
 90
    32768
280
     0
281
     0
  0
CLASS
  1
XRECORD
  2
AcDbXrecord
  3
AutoCAD 2000
 90
    32768
280
     0
281
     0
  0
CLASS
  1
SORTENTSTABLE
  2
AcDbSortentsTable
  3
AutoCAD 2000
 90
    32768
280
     0
281
     0
  0
CLASS
  1
LAYER_INDEX
  2
AcDbLayerIndex
  3
AutoCAD 2000
 90
    32768
280
     0
281
     0
  0
CLASS
  1
SPATIAL_INDEX
  2
AcDbSpatialIndex
  3
AutoCAD 2000
 90
    32768
280
     0
281
     0
  0
CLASS
  1
OBJECT_PTR
  2
CAseDLPNTableRecord
  3
"ASE-LPNTableRecord"
 90
    32769
280
     0
281
     0
  0
CLASS
  1
LAYOUT
  2
AcDbLayout
  3
AutoCAD 2000
 90
        0
280
     0
281
     0
  0
CLASS
  1
PLOTSETTINGS
  2
AcDbPlotSettings
  3
AutoCAD 2000
 90
    32768
280
     0
281
     0
  0
CLASS
  1
ACDBDICTIONARYWDFLT
  2
AcDbDictionaryWithDefault
  3
AutoCAD 2000
 90
        0
280
     0
281
     0
  0
CLASS
  1
ACDBPLACEHOLDER
  2
AcDbPlaceHolder
  3
AutoCAD 2000
 90
        0
280
     0
281
     0
  0
CLASS
  1
VBA_PROJECT
  2
AcDbVbaProject
  3
"acadvba"
 90
    32769
280
     0
281
     0
  0
CLASS
  1
WIPEOUT
  2
AcDbWipeout
  3
WipeOut|AutoCAD Express Tool|expresstools@autodesk.com
 90
    32895
280
     0
281
     1
  0
CLASS
  1
WIPEOUTVARIABLES
  2
AcDbWipeoutVariables
  3
WipeOut|AutoCAD Express Tool|expresstools@autodesk.com
 90
        0
280
     0
281
     0
  0
CLASS
  1
RTEXT
  2
RText
  3
RText|AutoCAD Express Tool|expresstools@autodesk.com
 90
    32768
280
     0
281
     1
  0
CLASS
  1
ARCALIGNEDTEXT
  2
AcDbArcAlignedText
  3
ATEXT|AutoCAD Express Tool|expresstools@autodesk.com
 90
    32768
280
     0
281
     1
  0
ENDSEC
  0
SECTION
  2
TABLES
  0
TABLE
  2
VPORT
  5
7
330
0
100
AcDbSymbolTable
 70
     2
  0
VPORT
  5
52A
330
7
100
AcDbSymbolTableRecord
100
AcDbViewportTableRecord
  2
*Active
 70
     0
 10
0.0
 20
0.0
 11
1.0
 21
1.0
 12
10.21970012841924
 22
4.579183999999999
 13
0.0
 23
0.0
 14
1.0
 24
1.0
 15
0.0
 25
0.0
 16
0.0
 26
0.0
 36
1.0
 17
0.0
 27
0.0
 37
0.0
 40
9.158369
 41
1.480934809348093
 42
50.0
 43
0.0
 44
0.0
 50
0.0
 51
0.0
 71
     0
 72
   100
 73
     1
 74
     1
 75
     0
 76
     0
 77
     0
 78
     0
281
     0
 65
     0
110
0.0
120
0.0
130
0.0
111
1.0
121
0.0
131
0.0
112
0.0
122
1.0
132
0.0
 79
     0
146
0.0
  0
ENDTAB
  0
TABLE
  2
LTYPE
  5
4
330
0
100
AcDbSymbolTable
 70
     7
  0
LTYPE
  5
11
330
4
100
AcDbSymbolTableRecord
100
AcDbLinetypeTableRecord
  2
ByBlock
 70
     0
  3

 72
    65
 73
     0
 40
0.0
  0
LTYPE
  5
12
330
4
100
AcDbSymbolTableRecord
100
AcDbLinetypeTableRecord
  2
ByLayer
 70
     0
  3

 72
    65
 73
     0
 40
0.0
  0
LTYPE
  5
13
330
4
100
AcDbSymbolTableRecord
100
AcDbLinetypeTableRecord
  2
Continuous
 70
     0
  3
Solid line
 72
    65
 73
     0
 40
0.0
  0
LTYPE
  5
87
330
4
100
AcDbSymbolTableRecord
100
AcDbLinetypeTableRecord
  2
AI9-LType1
 70
     0
  3
Illustrator Dash Style No.1
 72
    65
 73
     4
 40
9.80104870531294
 49
6.534044133292303
 74
     0
 49
-0.816751143005159
 74
     0
 49
1.633502286010318
 74
     0
 49
-0.816751143005159
 74
     0
  0
LTYPE
  5
250
330
4
100
AcDbSymbolTableRecord
100
AcDbLinetypeTableRecord
  2
AI9-LType2
 70
     0
  3
Illustrator Dash Style No.2
 72
    65
 73
     4
 40
1.909268596106105
 49
1.272857477929856
 74
     0
 49
-0.1591027795440621
 74
     0
 49
0.3182055590881241
 74
     0
 49
-0.1591027795440621
 74
     0
  0
LTYPE
  5
283
330
4
100
AcDbSymbolTableRecord
100
AcDbLinetypeTableRecord
  2
AI9-LType3
 70
     0
  3
Illustrator Dash Style No.3
 72
    65
 73
     4
 40
3.999935515721638
 49
0.9999838789304096
 74
     0
 49
-0.9999838789304096
 74
     0
 49
0.9999838789304096
 74
     0
 49
-0.9999838789304096
 74
     0
  0
LTYPE
  5
2C8
330
4
100
AcDbSymbolTableRecord
100
AcDbLinetypeTableRecord
  2
AI9-LType4
 70
     0
  3
Illustrator Dash Style No.4
 72
    65
 73
     4
 40
1.960174423787328
 49
1.306794696384006
 74
     0
 49
-0.1633361109428935
 74
     0
 49
0.3267075055175357
 74
     0
 49
-0.1633361109428935
 74
     0
  0
LTYPE
  5
2FF
330
4
100
AcDbSymbolTableRecord
100
AcDbLinetypeTableRecord
  2
AI9-LType5
 70
     0
  3
Illustrator Dash Style No.5
 72
    65
 73
     4
 40
5.880629122257231
 49
3.920419414838154
 74
     0
 49
-0.4900435954332351
 74
     0
 49
0.9801225165526071
 74
     0
 49
-0.4900435954332351
 74
     0
  0
LTYPE
  5
3F8
330
4
100
AcDbSymbolTableRecord
100
AcDbLinetypeTableRecord
  2
AI9-LType6
 70
     0
  3
Illustrator Dash Style No.6
 72
    65
 73
     4
 40
3.999935515721638
 49
0.9999838789304096
 74
     0
 49
-0.9999838789304096
 74
     0
 49
0.9999838789304096
 74
     0
 49
-0.9999838789304096
 74
     0
  0
ENDTAB
  0
TABLE
  2
LAYER
  5
2
330
0
100
AcDbSymbolTable
 70
     2
  0
LAYER
  5
14
330
2
100
AcDbSymbolTableRecord
100
AcDbLayerTableRecord
  2
0
 70
     0
 62
     7
  6
Continuous
370
    -3
390
1D
  0
LAYER
  5
28
330
2
100
AcDbSymbolTableRecord
100
AcDbLayerTableRecord
  2
0
 70
     0
 62
     7
  6
Continuous
370
    -3
390
1F
  0
ENDTAB
  0
TABLE
  2
STYLE
  5
3
330
0
100
AcDbSymbolTable
 70
     5
  0
STYLE
  5
17
330
3
100
AcDbSymbolTableRecord
100
AcDbTextStyleTableRecord
  2
Standard
 70
     0
 40
0.0
 41
1.0
 50
0.0
 71
     0
 42
0.0
  3
txt
  4

  0
STYLE
  5
24
330
3
100
AcDbSymbolTableRecord
100
AcDbTextStyleTableRecord
  2
STD
 70
     0
 40
0.0
 41
1.0
 50
0.0
 71
     0
 42
0.0
  3
txt
  4

  0
STYLE
  5
25
330
3
100
AcDbSymbolTableRecord
100
AcDbTextStyleTableRecord
  2
TATESTD
 70
     4
 40
0.0
 41
1.0
 50
0.0
 71
     0
 42
0.0
  3
txt
  4

  0
STYLE
  5
26
330
3
100
AcDbSymbolTableRecord
100
AcDbTextStyleTableRecord
  2
KANJISTD
 70
     0
 40
0.0
 41
1.0
 50
0.0
 71
     0
 42
0.0
  3
txt
  4
extfont
  0
STYLE
  5
27
330
3
100
AcDbSymbolTableRecord
100
AcDbTextStyleTableRecord
  2
KANJITATE
 70
     4
 40
0.0
 41
1.0
 50
0.0
 71
     0
 42
0.0
  3
txt
  4
extfont
  0
ENDTAB
  0
TABLE
  2
VIEW
  5
5
330
0
100
AcDbSymbolTable
 70
     0
  0
ENDTAB
  0
TABLE
  2
UCS
  5
6
330
0
100
AcDbSymbolTable
 70
     0
  0
ENDTAB
  0
TABLE
  2
APPID
  5
8
330
0
100
AcDbSymbolTable
 70
     1
  0
APPID
  5
16
330
8
100
AcDbSymbolTableRecord
100
AcDbRegAppTableRecord
  2
ACAD
 70
     0
  0
ENDTAB
  0
TABLE
  2
DIMSTYLE
  5
9
330
0
100
AcDbSymbolTable
 70
     1
100
AcDbDimStyleTable
 71
     0
  0
DIMSTYLE
105
18
330
9
100
AcDbSymbolTableRecord
100
AcDbDimStyleTableRecord
  2
Standard
 70
     0
289
     0
340
17
  0
ENDTAB
  0
TABLE
  2
BLOCK_RECORD
  5
1
330
0
100
AcDbSymbolTable
 70
   188
  0
BLOCK_RECORD
  5
A
330
1
100
AcDbSymbolTableRecord
100
AcDbBlockTableRecord
  2
*MODEL_SPACE
340
20
  0
BLOCK_RECORD
  5
B
330
1
100
AcDbSymbolTableRecord
100
AcDbBlockTableRecord
  2
*PAPER_SPACE
340
21
  0
BLOCK_RECORD
  5
8B
330
1
100
AcDbSymbolTableRecord
100
AcDbBlockTableRecord
  2
AI9-BLK1
340
0
102
{BLKREFS
331
8C
102
}
  0
BLOCK_RECORD
  5
8E
330
1
100
AcDbSymbolTableRecord
100
AcDbBlockTableRecord
  2
AI9-BLK2
340
0
102
{BLKREFS
331
8F
102
}
  0
BLOCK_RECORD
  5
91
330
1
100
AcDbSymbolTableRecord
100
AcDbBlockTableRecord
  2
AI9-BLK3
340
0
102
{BLKREFS
331
92
102
}
  0
BLOCK_RECORD
  5
97
330
1
100
AcDbSymbolTableRecord
100
AcDbBlockTableRecord
  2
AI9-BLK4
340
0
102
{BLKREFS
331
98
102
}
  0
BLOCK_RECORD
  5
9A
330
1
100
AcDbSymbolTableRecord
100
AcDbBlockTableRecord
  2
AI9-BLK5
340
0
102
{BLKREFS
331
9B
102
}
  0
BLOCK_RECORD
  5
A0
330
1
100
AcDbSymbolTableRecord
100
AcDbBlockTableRecord
  2
AI9-BLK6
340
0
102
{BLKREFS
331
A1
102
}
  0
BLOCK_RECORD
  5
A3
330
1
100
AcDbSymbolTableRecord
100
AcDbBlockTableRecord
  2
AI9-BLK7
340
0
102
{BLKREFS
331
A4
102
}
  0
BLOCK_RECORD
  5
B0
330
1
100
AcDbSymbolTableRecord
100
AcDbBlockTableRecord
  2
AI9-BLK8
340
0
102
{BLKREFS
331
B1
102
}
  0
BLOCK_RECORD
  5
B3
330
1
100
AcDbSymbolTableRecord
100
AcDbBlockTableRecord
  2
AI9-BLK9
340
0
102
{BLKREFS
331
B4
102
}
  0
BLOCK_RECORD
  5
B6
330
1
100
AcDbSymbolTableRecord
100
AcDbBlockTableRecord
  2
AI9-BLK10
340
0
102
{BLKREFS
331
B7
102
}
  0
BLOCK_RECORD
  5
BC
330
1
100
AcDbSymbolTableRecord
100
AcDbBlockTableRecord
  2
AI9-BLK11
340
0
102
{BLKREFS
331
BD
102
}
  0
BLOCK_RECORD
  5
BF
330
1
100
AcDbSymbolTableRecord
100
AcDbBlockTableRecord
  2
AI9-BLK12
340
0
102
{BLKREFS
331
C0
102
}
  0
BLOCK_RECORD
  5
C5
330
1
100
AcDbSymbolTableRecord
100
AcDbBlockTableRecord
  2
AI9-BLK13
340
0
102
{BLKREFS
331
C6
102
}
  0
BLOCK_RECORD
  5
C8
330
1
100
AcDbSymbolTableRecord
100
AcDbBlockTableRecord
  2
AI9-BLK14
340
0
102
{BLKREFS
331
C9
102
}
  0
BLOCK_RECORD
  5
DA
330
1
100
AcDbSymbolTableRecord
100
AcDbBlockTableRecord
  2
AI9-BLK15
340
0
102
{BLKREFS
331
DB
102
}
  0
BLOCK_RECORD
  5
DD
330
1
100
AcDbSymbolTableRecord
100
AcDbBlockTableRecord
  2
AI9-BLK16
340
0
102
{BLKREFS
331
DE
102
}
  0
BLOCK_RECORD
  5
110
330
1
100
AcDbSymbolTableRecord
100
AcDbBlockTableRecord
  2
AI9-BLK17
340
0
102
{BLKREFS
331
111
102
}
  0
BLOCK_RECORD
  5
113
330
1
100
AcDbSymbolTableRecord
100
AcDbBlockTableRecord
  2
AI9-BLK18
340
0
102
{BLKREFS
331
114
102
}
  0
BLOCK_RECORD
  5
116
330
1
100
AcDbSymbolTableRecord
100
AcDbBlockTableRecord
  2
AI9-BLK19
340
0
102
{BLKREFS
331
117
102
}
  0
BLOCK_RECORD
  5
11C
330
1
100
AcDbSymbolTableRecord
100
AcDbBlockTableRecord
  2
AI9-BLK20
340
0
102
{BLKREFS
331
11D
102
}
  0
BLOCK_RECORD
  5
11F
330
1
100
AcDbSymbolTableRecord
100
AcDbBlockTableRecord
  2
AI9-BLK21
340
0
102
{BLKREFS
331
120
102
}
  0
BLOCK_RECORD
  5
125
330
1
100
AcDbSymbolTableRecord
100
AcDbBlockTableRecord
  2
AI9-BLK22
340
0
102
{BLKREFS
331
126
102
}
  0
BLOCK_RECORD
  5
128
330
1
100
AcDbSymbolTableRecord
100
AcDbBlockTableRecord
  2
AI9-BLK23
340
0
102
{BLKREFS
331
129
102
}
  0
BLOCK_RECORD
  5
12F
330
1
100
AcDbSymbolTableRecord
100
AcDbBlockTableRecord
  2
AI9-BLK24
340
0
102
{BLKREFS
331
130
102
}
  0
BLOCK_RECORD
  5
132
330
1
100
AcDbSymbolTableRecord
100
AcDbBlockTableRecord
  2
AI9-BLK25
340
0
102
{BLKREFS
331
133
102
}
  0
BLOCK_RECORD
  5
138
330
1
100
AcDbSymbolTableRecord
100
AcDbBlockTableRecord
  2
AI9-BLK26
340
0
102
{BLKREFS
331
139
102
}
  0
BLOCK_RECORD
  5
13B
330
1
100
AcDbSymbolTableRecord
100
AcDbBlockTableRecord
  2
AI9-BLK27
340
0
102
{BLKREFS
331
13C
102
}
  0
BLOCK_RECORD
  5
141
330
1
100
AcDbSymbolTableRecord
100
AcDbBlockTableRecord
  2
AI9-BLK28
340
0
102
{BLKREFS
331
142
102
}
  0
BLOCK_RECORD
  5
144
330
1
100
AcDbSymbolTableRecord
100
AcDbBlockTableRecord
  2
AI9-BLK29
340
0
102
{BLKREFS
331
145
102
}
  0
BLOCK_RECORD
  5
147
330
1
100
AcDbSymbolTableRecord
100
AcDbBlockTableRecord
  2
AI9-BLK30
340
0
102
{BLKREFS
331
148
102
}
  0
BLOCK_RECORD
  5
14D
330
1
100
AcDbSymbolTableRecord
100
AcDbBlockTableRecord
  2
AI9-BLK31
340
0
102
{BLKREFS
331
14E
102
}
  0
BLOCK_RECORD
  5
150
330
1
100
AcDbSymbolTableRecord
100
AcDbBlockTableRecord
  2
AI9-BLK32
340
0
102
{BLKREFS
331
151
102
}
  0
BLOCK_RECORD
  5
15C
330
1
100
AcDbSymbolTableRecord
100
AcDbBlockTableRecord
  2
AI9-BLK33
340
0
102
{BLKREFS
331
15D
102
}
  0
BLOCK_RECORD
  5
15F
330
1
100
AcDbSymbolTableRecord
100
AcDbBlockTableRecord
  2
AI9-BLK34
340
0
102
{BLKREFS
331
160
102
}
  0
BLOCK_RECORD
  5
165
330
1
100
AcDbSymbolTableRecord
100
AcDbBlockTableRecord
  2
AI9-BLK35
340
0
102
{BLKREFS
331
166
102
}
  0
BLOCK_RECORD
  5
168
330
1
100
AcDbSymbolTableRecord
100
AcDbBlockTableRecord
  2
AI9-BLK36
340
0
102
{BLKREFS
331
169
102
}
  0
BLOCK_RECORD
  5
173
330
1
100
AcDbSymbolTableRecord
100
AcDbBlockTableRecord
  2
AI9-BLK37
340
0
102
{BLKREFS
331
174
102
}
  0
BLOCK_RECORD
  5
176
330
1
100
AcDbSymbolTableRecord
100
AcDbBlockTableRecord
  2
AI9-BLK38
340
0
102
{BLKREFS
331
177
102
}
  0
BLOCK_RECORD
  5
179
330
1
100
AcDbSymbolTableRecord
100
AcDbBlockTableRecord
  2
AI9-BLK39
340
0
102
{BLKREFS
331
17A
102
}
  0
BLOCK_RECORD
  5
17F
330
1
100
AcDbSymbolTableRecord
100
AcDbBlockTableRecord
  2
AI9-BLK40
340
0
102
{BLKREFS
331
180
102
}
  0
BLOCK_RECORD
  5
182
330
1
100
AcDbSymbolTableRecord
100
AcDbBlockTableRecord
  2
AI9-BLK41
340
0
102
{BLKREFS
331
183
102
}
  0
BLOCK_RECORD
  5
188
330
1
100
AcDbSymbolTableRecord
100
AcDbBlockTableRecord
  2
AI9-BLK42
340
0
102
{BLKREFS
331
189
102
}
  0
BLOCK_RECORD
  5
18B
330
1
100
AcDbSymbolTableRecord
100
AcDbBlockTableRecord
  2
AI9-BLK43
340
0
102
{BLKREFS
331
18C
102
}
  0
BLOCK_RECORD
  5
192
330
1
100
AcDbSymbolTableRecord
100
AcDbBlockTableRecord
  2
AI9-BLK44
340
0
102
{BLKREFS
331
193
102
}
  0
BLOCK_RECORD
  5
195
330
1
100
AcDbSymbolTableRecord
100
AcDbBlockTableRecord
  2
AI9-BLK45
340
0
102
{BLKREFS
331
196
102
}
  0
BLOCK_RECORD
  5
198
330
1
100
AcDbSymbolTableRecord
100
AcDbBlockTableRecord
  2
AI9-BLK46
340
0
102
{BLKREFS
331
199
102
}
  0
BLOCK_RECORD
  5
19E
330
1
100
AcDbSymbolTableRecord
100
AcDbBlockTableRecord
  2
AI9-BLK47
340
0
102
{BLKREFS
331
19F
102
}
  0
BLOCK_RECORD
  5
1A1
330
1
100
AcDbSymbolTableRecord
100
AcDbBlockTableRecord
  2
AI9-BLK48
340
0
102
{BLKREFS
331
1A2
102
}
  0
BLOCK_RECORD
  5
1BC
330
1
100
AcDbSymbolTableRecord
100
AcDbBlockTableRecord
  2
AI9-BLK49
340
0
102
{BLKREFS
331
1BD
102
}
  0
BLOCK_RECORD
  5
1BF
330
1
100
AcDbSymbolTableRecord
100
AcDbBlockTableRecord
  2
AI9-BLK50
340
0
102
{BLKREFS
331
1C0
102
}
  0
BLOCK_RECORD
  5
1C5
330
1
100
AcDbSymbolTableRecord
100
AcDbBlockTableRecord
  2
AI9-BLK51
340
0
102
{BLKREFS
331
1C6
102
}
  0
BLOCK_RECORD
  5
1C8
330
1
100
AcDbSymbolTableRecord
100
AcDbBlockTableRecord
  2
AI9-BLK52
340
0
102
{BLKREFS
331
1C9
102
}
  0
BLOCK_RECORD
  5
1CE
330
1
100
AcDbSymbolTableRecord
100
AcDbBlockTableRecord
  2
AI9-BLK53
340
0
102
{BLKREFS
331
1CF
102
}
  0
BLOCK_RECORD
  5
1D1
330
1
100
AcDbSymbolTableRecord
100
AcDbBlockTableRecord
  2
AI9-BLK54
340
0
102
{BLKREFS
331
1D2
102
}
  0
BLOCK_RECORD
  5
1D7
330
1
100
AcDbSymbolTableRecord
100
AcDbBlockTableRecord
  2
AI9-BLK55
340
0
102
{BLKREFS
331
1D8
102
}
  0
BLOCK_RECORD
  5
1DA
330
1
100
AcDbSymbolTableRecord
100
AcDbBlockTableRecord
  2
AI9-BLK56
340
0
102
{BLKREFS
331
1DB
102
}
  0
BLOCK_RECORD
  5
1DD
330
1
100
AcDbSymbolTableRecord
100
AcDbBlockTableRecord
  2
AI9-BLK57
340
0
102
{BLKREFS
331
1DE
102
}
  0
BLOCK_RECORD
  5
1E3
330
1
100
AcDbSymbolTableRecord
100
AcDbBlockTableRecord
  2
AI9-BLK58
340
0
102
{BLKREFS
331
1E4
102
}
  0
BLOCK_RECORD
  5
1E6
330
1
100
AcDbSymbolTableRecord
100
AcDbBlockTableRecord
  2
AI9-BLK59
340
0
102
{BLKREFS
331
1E7
102
}
  0
BLOCK_RECORD
  5
1F2
330
1
100
AcDbSymbolTableRecord
100
AcDbBlockTableRecord
  2
AI9-BLK60
340
0
102
{BLKREFS
331
1F3
102
}
  0
BLOCK_RECORD
  5
1F5
330
1
100
AcDbSymbolTableRecord
100
AcDbBlockTableRecord
  2
AI9-BLK61
340
0
102
{BLKREFS
331
1F6
102
}
  0
BLOCK_RECORD
  5
1FB
330
1
100
AcDbSymbolTableRecord
100
AcDbBlockTableRecord
  2
AI9-BLK62
340
0
102
{BLKREFS
331
1FC
102
}
  0
BLOCK_RECORD
  5
1FE
330
1
100
AcDbSymbolTableRecord
100
AcDbBlockTableRecord
  2
AI9-BLK63
340
0
102
{BLKREFS
331
1FF
102
}
  0
BLOCK_RECORD
  5
204
330
1
100
AcDbSymbolTableRecord
100
AcDbBlockTableRecord
  2
AI9-BLK64
340
0
102
{BLKREFS
331
205
102
}
  0
BLOCK_RECORD
  5
207
330
1
100
AcDbSymbolTableRecord
100
AcDbBlockTableRecord
  2
AI9-BLK65
340
0
102
{BLKREFS
331
208
102
}
  0
BLOCK_RECORD
  5
20D
330
1
100
AcDbSymbolTableRecord
100
AcDbBlockTableRecord
  2
AI9-BLK66
340
0
102
{BLKREFS
331
20E
102
}
  0
BLOCK_RECORD
  5
210
330
1
100
AcDbSymbolTableRecord
100
AcDbBlockTableRecord
  2
AI9-BLK67
340
0
102
{BLKREFS
331
211
102
}
  0
BLOCK_RECORD
  5
216
330
1
100
AcDbSymbolTableRecord
100
AcDbBlockTableRecord
  2
AI9-BLK68
340
0
102
{BLKREFS
331
217
102
}
  0
BLOCK_RECORD
  5
219
330
1
100
AcDbSymbolTableRecord
100
AcDbBlockTableRecord
  2
AI9-BLK69
340
0
102
{BLKREFS
331
21A
102
}
  0
BLOCK_RECORD
  5
21F
330
1
100
AcDbSymbolTableRecord
100
AcDbBlockTableRecord
  2
AI9-BLK70
340
0
102
{BLKREFS
331
220
102
}
  0
BLOCK_RECORD
  5
222
330
1
100
AcDbSymbolTableRecord
100
AcDbBlockTableRecord
  2
AI9-BLK71
340
0
102
{BLKREFS
331
223
102
}
  0
BLOCK_RECORD
  5
228
330
1
100
AcDbSymbolTableRecord
100
AcDbBlockTableRecord
  2
AI9-BLK72
340
0
102
{BLKREFS
331
229
102
}
  0
BLOCK_RECORD
  5
22B
330
1
100
AcDbSymbolTableRecord
100
AcDbBlockTableRecord
  2
AI9-BLK73
340
0
102
{BLKREFS
331
22C
102
}
  0
BLOCK_RECORD
  5
22E
330
1
100
AcDbSymbolTableRecord
100
AcDbBlockTableRecord
  2
AI9-BLK74
340
0
102
{BLKREFS
331
22F
102
}
  0
BLOCK_RECORD
  5
234
330
1
100
AcDbSymbolTableRecord
100
AcDbBlockTableRecord
  2
AI9-BLK75
340
0
102
{BLKREFS
331
235
102
}
  0
BLOCK_RECORD
  5
237
330
1
100
AcDbSymbolTableRecord
100
AcDbBlockTableRecord
  2
AI9-BLK76
340
0
102
{BLKREFS
331
238
102
}
  0
BLOCK_RECORD
  5
23D
330
1
100
AcDbSymbolTableRecord
100
AcDbBlockTableRecord
  2
AI9-BLK77
340
0
102
{BLKREFS
331
23E
102
}
  0
BLOCK_RECORD
  5
240
330
1
100
AcDbSymbolTableRecord
100
AcDbBlockTableRecord
  2
AI9-BLK78
340
0
102
{BLKREFS
331
241
102
}
  0
BLOCK_RECORD
  5
247
330
1
100
AcDbSymbolTableRecord
100
AcDbBlockTableRecord
  2
AI9-BLK79
340
0
102
{BLKREFS
331
248
102
}
  0
BLOCK_RECORD
  5
25B
330
1
100
AcDbSymbolTableRecord
100
AcDbBlockTableRecord
  2
AI9-BLK80
340
0
102
{BLKREFS
331
25C
102
}
  0
BLOCK_RECORD
  5
25E
330
1
100
AcDbSymbolTableRecord
100
AcDbBlockTableRecord
  2
AI9-BLK81
340
0
102
{BLKREFS
331
25F
102
}
  0
BLOCK_RECORD
  5
261
330
1
100
AcDbSymbolTableRecord
100
AcDbBlockTableRecord
  2
AI9-BLK82
340
0
102
{BLKREFS
331
262
102
}
  0
BLOCK_RECORD
  5
267
330
1
100
AcDbSymbolTableRecord
100
AcDbBlockTableRecord
  2
AI9-BLK83
340
0
102
{BLKREFS
331
268
102
}
  0
BLOCK_RECORD
  5
26A
330
1
100
AcDbSymbolTableRecord
100
AcDbBlockTableRecord
  2
AI9-BLK84
340
0
102
{BLKREFS
331
26B
102
}
  0
BLOCK_RECORD
  5
270
330
1
100
AcDbSymbolTableRecord
100
AcDbBlockTableRecord
  2
AI9-BLK85
340
0
102
{BLKREFS
331
271
102
}
  0
BLOCK_RECORD
  5
273
330
1
100
AcDbSymbolTableRecord
100
AcDbBlockTableRecord
  2
AI9-BLK86
340
0
102
{BLKREFS
331
274
102
}
  0
BLOCK_RECORD
  5
27F
330
1
100
AcDbSymbolTableRecord
100
AcDbBlockTableRecord
  2
AI9-BLK87
340
0
102
{BLKREFS
331
280
102
}
  0
BLOCK_RECORD
  5
2CE
330
1
100
AcDbSymbolTableRecord
100
AcDbBlockTableRecord
  2
AI9-BLK88
340
0
102
{BLKREFS
331
2CF
102
}
  0
BLOCK_RECORD
  5
2D4
330
1
100
AcDbSymbolTableRecord
100
AcDbBlockTableRecord
  2
AI9-BLK89
340
0
102
{BLKREFS
331
2D5
102
}
  0
BLOCK_RECORD
  5
2DC
330
1
100
AcDbSymbolTableRecord
100
AcDbBlockTableRecord
  2
AI9-BLK90
340
0
102
{BLKREFS
331
2DD
102
}
  0
BLOCK_RECORD
  5
2DF
330
1
100
AcDbSymbolTableRecord
100
AcDbBlockTableRecord
  2
AI9-BLK91
340
0
102
{BLKREFS
331
2E0
102
}
  0
BLOCK_RECORD
  5
2EC
330
1
100
AcDbSymbolTableRecord
100
AcDbBlockTableRecord
  2
AI9-BLK92
340
0
102
{BLKREFS
331
2ED
102
}
  0
BLOCK_RECORD
  5
2EF
330
1
100
AcDbSymbolTableRecord
100
AcDbBlockTableRecord
  2
AI9-BLK93
340
0
102
{BLKREFS
331
2F0
102
}
  0
BLOCK_RECORD
  5
2F5
330
1
100
AcDbSymbolTableRecord
100
AcDbBlockTableRecord
  2
AI9-BLK94
340
0
102
{BLKREFS
331
2F6
102
}
  0
BLOCK_RECORD
  5
2F8
330
1
100
AcDbSymbolTableRecord
100
AcDbBlockTableRecord
  2
AI9-BLK95
340
0
102
{BLKREFS
331
2F9
102
}
  0
BLOCK_RECORD
  5
320
330
1
100
AcDbSymbolTableRecord
100
AcDbBlockTableRecord
  2
AI9-BLK96
340
0
102
{BLKREFS
331
321
102
}
  0
BLOCK_RECORD
  5
323
330
1
100
AcDbSymbolTableRecord
100
AcDbBlockTableRecord
  2
AI9-BLK97
340
0
102
{BLKREFS
331
324
102
}
  0
BLOCK_RECORD
  5
329
330
1
100
AcDbSymbolTableRecord
100
AcDbBlockTableRecord
  2
AI9-BLK98
340
0
102
{BLKREFS
331
32A
102
}
  0
BLOCK_RECORD
  5
32C
330
1
100
AcDbSymbolTableRecord
100
AcDbBlockTableRecord
  2
AI9-BLK99
340
0
102
{BLKREFS
331
32D
102
}
  0
BLOCK_RECORD
  5
32F
330
1
100
AcDbSymbolTableRecord
100
AcDbBlockTableRecord
  2
AI9-BLK100
340
0
102
{BLKREFS
331
330
102
}
  0
BLOCK_RECORD
  5
335
330
1
100
AcDbSymbolTableRecord
100
AcDbBlockTableRecord
  2
AI9-BLK101
340
0
102
{BLKREFS
331
336
102
}
  0
BLOCK_RECORD
  5
338
330
1
100
AcDbSymbolTableRecord
100
AcDbBlockTableRecord
  2
AI9-BLK102
340
0
102
{BLKREFS
331
339
102
}
  0
BLOCK_RECORD
  5
33E
330
1
100
AcDbSymbolTableRecord
100
AcDbBlockTableRecord
  2
AI9-BLK103
340
0
102
{BLKREFS
331
33F
102
}
  0
BLOCK_RECORD
  5
341
330
1
100
AcDbSymbolTableRecord
100
AcDbBlockTableRecord
  2
AI9-BLK104
340
0
102
{BLKREFS
331
342
102
}
  0
BLOCK_RECORD
  5
348
330
1
100
AcDbSymbolTableRecord
100
AcDbBlockTableRecord
  2
AI9-BLK105
340
0
102
{BLKREFS
331
349
102
}
  0
BLOCK_RECORD
  5
34B
330
1
100
AcDbSymbolTableRecord
100
AcDbBlockTableRecord
  2
AI9-BLK106
340
0
102
{BLKREFS
331
34C
102
}
  0
BLOCK_RECORD
  5
34E
330
1
100
AcDbSymbolTableRecord
100
AcDbBlockTableRecord
  2
AI9-BLK107
340
0
102
{BLKREFS
331
34F
102
}
  0
BLOCK_RECORD
  5
354
330
1
100
AcDbSymbolTableRecord
100
AcDbBlockTableRecord
  2
AI9-BLK108
340
0
102
{BLKREFS
331
355
102
}
  0
BLOCK_RECORD
  5
357
330
1
100
AcDbSymbolTableRecord
100
AcDbBlockTableRecord
  2
AI9-BLK109
340
0
102
{BLKREFS
331
358
102
}
  0
BLOCK_RECORD
  5
35D
330
1
100
AcDbSymbolTableRecord
100
AcDbBlockTableRecord
  2
AI9-BLK110
340
0
102
{BLKREFS
331
35E
102
}
  0
BLOCK_RECORD
  5
360
330
1
100
AcDbSymbolTableRecord
100
AcDbBlockTableRecord
  2
AI9-BLK111
340
0
102
{BLKREFS
331
361
102
}
  0
BLOCK_RECORD
  5
367
330
1
100
AcDbSymbolTableRecord
100
AcDbBlockTableRecord
  2
AI9-BLK112
340
0
102
{BLKREFS
331
368
102
}
  0
BLOCK_RECORD
  5
36A
330
1
100
AcDbSymbolTableRecord
100
AcDbBlockTableRecord
  2
AI9-BLK113
340
0
102
{BLKREFS
331
36B
102
}
  0
BLOCK_RECORD
  5
36D
330
1
100
AcDbSymbolTableRecord
100
AcDbBlockTableRecord
  2
AI9-BLK114
340
0
102
{BLKREFS
331
36E
102
}
  0
BLOCK_RECORD
  5
373
330
1
100
AcDbSymbolTableRecord
100
AcDbBlockTableRecord
  2
AI9-BLK115
340
0
102
{BLKREFS
331
374
102
}
  0
BLOCK_RECORD
  5
376
330
1
100
AcDbSymbolTableRecord
100
AcDbBlockTableRecord
  2
AI9-BLK116
340
0
102
{BLKREFS
331
377
102
}
  0
BLOCK_RECORD
  5
37C
330
1
100
AcDbSymbolTableRecord
100
AcDbBlockTableRecord
  2
AI9-BLK117
340
0
102
{BLKREFS
331
37D
102
}
  0
BLOCK_RECORD
  5
37F
330
1
100
AcDbSymbolTableRecord
100
AcDbBlockTableRecord
  2
AI9-BLK118
340
0
102
{BLKREFS
331
380
102
}
  0
BLOCK_RECORD
  5
390
330
1
100
AcDbSymbolTableRecord
100
AcDbBlockTableRecord
  2
AI9-BLK119
340
0
102
{BLKREFS
331
391
102
}
  0
BLOCK_RECORD
  5
393
330
1
100
AcDbSymbolTableRecord
100
AcDbBlockTableRecord
  2
AI9-BLK120
340
0
102
{BLKREFS
331
394
102
}
  0
BLOCK_RECORD
  5
396
330
1
100
AcDbSymbolTableRecord
100
AcDbBlockTableRecord
  2
AI9-BLK121
340
0
102
{BLKREFS
331
397
102
}
  0
BLOCK_RECORD
  5
39C
330
1
100
AcDbSymbolTableRecord
100
AcDbBlockTableRecord
  2
AI9-BLK122
340
0
102
{BLKREFS
331
39D
102
}
  0
BLOCK_RECORD
  5
39F
330
1
100
AcDbSymbolTableRecord
100
AcDbBlockTableRecord
  2
AI9-BLK123
340
0
102
{BLKREFS
331
3A0
102
}
  0
BLOCK_RECORD
  5
3A5
330
1
100
AcDbSymbolTableRecord
100
AcDbBlockTableRecord
  2
AI9-BLK124
340
0
102
{BLKREFS
331
3A6
102
}
  0
BLOCK_RECORD
  5
3A8
330
1
100
AcDbSymbolTableRecord
100
AcDbBlockTableRecord
  2
AI9-BLK125
340
0
102
{BLKREFS
331
3A9
102
}
  0
BLOCK_RECORD
  5
3AF
330
1
100
AcDbSymbolTableRecord
100
AcDbBlockTableRecord
  2
AI9-BLK126
340
0
102
{BLKREFS
331
3B0
102
}
  0
BLOCK_RECORD
  5
3B2
330
1
100
AcDbSymbolTableRecord
100
AcDbBlockTableRecord
  2
AI9-BLK127
340
0
102
{BLKREFS
331
3B3
102
}
  0
BLOCK_RECORD
  5
3B5
330
1
100
AcDbSymbolTableRecord
100
AcDbBlockTableRecord
  2
AI9-BLK128
340
0
102
{BLKREFS
331
3B6
102
}
  0
BLOCK_RECORD
  5
3BB
330
1
100
AcDbSymbolTableRecord
100
AcDbBlockTableRecord
  2
AI9-BLK129
340
0
102
{BLKREFS
331
3BC
102
}
  0
BLOCK_RECORD
  5
3BE
330
1
100
AcDbSymbolTableRecord
100
AcDbBlockTableRecord
  2
AI9-BLK130
340
0
102
{BLKREFS
331
3BF
102
}
  0
BLOCK_RECORD
  5
3C4
330
1
100
AcDbSymbolTableRecord
100
AcDbBlockTableRecord
  2
AI9-BLK131
340
0
102
{BLKREFS
331
3C5
102
}
  0
BLOCK_RECORD
  5
3C7
330
1
100
AcDbSymbolTableRecord
100
AcDbBlockTableRecord
  2
AI9-BLK132
340
0
102
{BLKREFS
331
3C8
102
}
  0
BLOCK_RECORD
  5
3F4
330
1
100
AcDbSymbolTableRecord
100
AcDbBlockTableRecord
  2
AI9-BLK133
340
0
102
{BLKREFS
331
3F5
102
}
  0
BLOCK_RECORD
  5
40C
330
1
100
AcDbSymbolTableRecord
100
AcDbBlockTableRecord
  2
AI9-BLK134
340
0
102
{BLKREFS
331
40D
102
}
  0
BLOCK_RECORD
  5
40F
330
1
100
AcDbSymbolTableRecord
100
AcDbBlockTableRecord
  2
AI9-BLK135
340
0
102
{BLKREFS
331
410
102
}
  0
BLOCK_RECORD
  5
415
330
1
100
AcDbSymbolTableRecord
100
AcDbBlockTableRecord
  2
AI9-BLK136
340
0
102
{BLKREFS
331
416
102
}
  0
BLOCK_RECORD
  5
418
330
1
100
AcDbSymbolTableRecord
100
AcDbBlockTableRecord
  2
AI9-BLK137
340
0
102
{BLKREFS
331
419
102
}
  0
BLOCK_RECORD
  5
41B
330
1
100
AcDbSymbolTableRecord
100
AcDbBlockTableRecord
  2
AI9-BLK138
340
0
102
{BLKREFS
331
41C
102
}
  0
BLOCK_RECORD
  5
421
330
1
100
AcDbSymbolTableRecord
100
AcDbBlockTableRecord
  2
AI9-BLK139
340
0
102
{BLKREFS
331
422
102
}
  0
BLOCK_RECORD
  5
424
330
1
100
AcDbSymbolTableRecord
100
AcDbBlockTableRecord
  2
AI9-BLK140
340
0
102
{BLKREFS
331
425
102
}
  0
BLOCK_RECORD
  5
42A
330
1
100
AcDbSymbolTableRecord
100
AcDbBlockTableRecord
  2
AI9-BLK141
340
0
102
{BLKREFS
331
42B
102
}
  0
BLOCK_RECORD
  5
42D
330
1
100
AcDbSymbolTableRecord
100
AcDbBlockTableRecord
  2
AI9-BLK142
340
0
102
{BLKREFS
331
42E
102
}
  0
BLOCK_RECORD
  5
433
330
1
100
AcDbSymbolTableRecord
100
AcDbBlockTableRecord
  2
AI9-BLK143
340
0
102
{BLKREFS
331
434
102
}
  0
BLOCK_RECORD
  5
436
330
1
100
AcDbSymbolTableRecord
100
AcDbBlockTableRecord
  2
AI9-BLK144
340
0
102
{BLKREFS
331
437
102
}
  0
BLOCK_RECORD
  5
43C
330
1
100
AcDbSymbolTableRecord
100
AcDbBlockTableRecord
  2
AI9-BLK145
340
0
102
{BLKREFS
331
43D
102
}
  0
BLOCK_RECORD
  5
43F
330
1
100
AcDbSymbolTableRecord
100
AcDbBlockTableRecord
  2
AI9-BLK146
340
0
102
{BLKREFS
331
440
102
}
  0
BLOCK_RECORD
  5
445
330
1
100
AcDbSymbolTableRecord
100
AcDbBlockTableRecord
  2
AI9-BLK147
340
0
102
{BLKREFS
331
446
102
}
  0
BLOCK_RECORD
  5
448
330
1
100
AcDbSymbolTableRecord
100
AcDbBlockTableRecord
  2
AI9-BLK148
340
0
102
{BLKREFS
331
449
102
}
  0
BLOCK_RECORD
  5
44E
330
1
100
AcDbSymbolTableRecord
100
AcDbBlockTableRecord
  2
AI9-BLK149
340
0
102
{BLKREFS
331
44F
102
}
  0
BLOCK_RECORD
  5
451
330
1
100
AcDbSymbolTableRecord
100
AcDbBlockTableRecord
  2
AI9-BLK150
340
0
102
{BLKREFS
331
452
102
}
  0
BLOCK_RECORD
  5
458
330
1
100
AcDbSymbolTableRecord
100
AcDbBlockTableRecord
  2
AI9-BLK151
340
0
102
{BLKREFS
331
459
102
}
  0
BLOCK_RECORD
  5
45B
330
1
100
AcDbSymbolTableRecord
100
AcDbBlockTableRecord
  2
AI9-BLK152
340
0
102
{BLKREFS
331
45C
102
}
  0
BLOCK_RECORD
  5
45E
330
1
100
AcDbSymbolTableRecord
100
AcDbBlockTableRecord
  2
AI9-BLK153
340
0
102
{BLKREFS
331
45F
102
}
  0
BLOCK_RECORD
  5
464
330
1
100
AcDbSymbolTableRecord
100
AcDbBlockTableRecord
  2
AI9-BLK154
340
0
102
{BLKREFS
331
465
102
}
  0
BLOCK_RECORD
  5
467
330
1
100
AcDbSymbolTableRecord
100
AcDbBlockTableRecord
  2
AI9-BLK155
340
0
102
{BLKREFS
331
468
102
}
  0
BLOCK_RECORD
  5
46D
330
1
100
AcDbSymbolTableRecord
100
AcDbBlockTableRecord
  2
AI9-BLK156
340
0
102
{BLKREFS
331
46E
102
}
  0
BLOCK_RECORD
  5
470
330
1
100
AcDbSymbolTableRecord
100
AcDbBlockTableRecord
  2
AI9-BLK157
340
0
102
{BLKREFS
331
471
102
}
  0
BLOCK_RECORD
  5
476
330
1
100
AcDbSymbolTableRecord
100
AcDbBlockTableRecord
  2
AI9-BLK158
340
0
102
{BLKREFS
331
477
102
}
  0
BLOCK_RECORD
  5
479
330
1
100
AcDbSymbolTableRecord
100
AcDbBlockTableRecord
  2
AI9-BLK159
340
0
102
{BLKREFS
331
47A
102
}
  0
BLOCK_RECORD
  5
480
330
1
100
AcDbSymbolTableRecord
100
AcDbBlockTableRecord
  2
AI9-BLK160
340
0
102
{BLKREFS
331
481
102
}
  0
BLOCK_RECORD
  5
483
330
1
100
AcDbSymbolTableRecord
100
AcDbBlockTableRecord
  2
AI9-BLK161
340
0
102
{BLKREFS
331
484
102
}
  0
BLOCK_RECORD
  5
486
330
1
100
AcDbSymbolTableRecord
100
AcDbBlockTableRecord
  2
AI9-BLK162
340
0
102
{BLKREFS
331
487
102
}
  0
BLOCK_RECORD
  5
48C
330
1
100
AcDbSymbolTableRecord
100
AcDbBlockTableRecord
  2
AI9-BLK163
340
0
102
{BLKREFS
331
48D
102
}
  0
BLOCK_RECORD
  5
48F
330
1
100
AcDbSymbolTableRecord
100
AcDbBlockTableRecord
  2
AI9-BLK164
340
0
102
{BLKREFS
331
490
102
}
  0
BLOCK_RECORD
  5
495
330
1
100
AcDbSymbolTableRecord
100
AcDbBlockTableRecord
  2
AI9-BLK165
340
0
102
{BLKREFS
331
496
102
}
  0
BLOCK_RECORD
  5
498
330
1
100
AcDbSymbolTableRecord
100
AcDbBlockTableRecord
  2
AI9-BLK166
340
0
102
{BLKREFS
331
499
102
}
  0
BLOCK_RECORD
  5
49E
330
1
100
AcDbSymbolTableRecord
100
AcDbBlockTableRecord
  2
AI9-BLK167
340
0
102
{BLKREFS
331
49F
102
}
  0
BLOCK_RECORD
  5
4A1
330
1
100
AcDbSymbolTableRecord
100
AcDbBlockTableRecord
  2
AI9-BLK168
340
0
102
{BLKREFS
331
4A2
102
}
  0
BLOCK_RECORD
  5
4A9
330
1
100
AcDbSymbolTableRecord
100
AcDbBlockTableRecord
  2
AI9-BLK169
340
0
102
{BLKREFS
331
4AA
102
}
  0
BLOCK_RECORD
  5
4AC
330
1
100
AcDbSymbolTableRecord
100
AcDbBlockTableRecord
  2
AI9-BLK170
340
0
102
{BLKREFS
331
4AD
102
}
  0
BLOCK_RECORD
  5
4AF
330
1
100
AcDbSymbolTableRecord
100
AcDbBlockTableRecord
  2
AI9-BLK171
340
0
102
{BLKREFS
331
4B0
102
}
  0
BLOCK_RECORD
  5
4B5
330
1
100
AcDbSymbolTableRecord
100
AcDbBlockTableRecord
  2
AI9-BLK172
340
0
102
{BLKREFS
331
4B6
102
}
  0
BLOCK_RECORD
  5
4B8
330
1
100
AcDbSymbolTableRecord
100
AcDbBlockTableRecord
  2
AI9-BLK173
340
0
102
{BLKREFS
331
4B9
102
}
  0
BLOCK_RECORD
  5
4CA
330
1
100
AcDbSymbolTableRecord
100
AcDbBlockTableRecord
  2
AI9-BLK174
340
0
102
{BLKREFS
331
4CB
102
}
  0
BLOCK_RECORD
  5
4CD
330
1
100
AcDbSymbolTableRecord
100
AcDbBlockTableRecord
  2
AI9-BLK175
340
0
102
{BLKREFS
331
4CE
102
}
  0
BLOCK_RECORD
  5
4D0
330
1
100
AcDbSymbolTableRecord
100
AcDbBlockTableRecord
  2
AI9-BLK176
340
0
102
{BLKREFS
331
4D1
102
}
  0
BLOCK_RECORD
  5
4D6
330
1
100
AcDbSymbolTableRecord
100
AcDbBlockTableRecord
  2
AI9-BLK177
340
0
102
{BLKREFS
331
4D7
102
}
  0
BLOCK_RECORD
  5
4D9
330
1
100
AcDbSymbolTableRecord
100
AcDbBlockTableRecord
  2
AI9-BLK178
340
0
102
{BLKREFS
331
4DA
102
}
  0
BLOCK_RECORD
  5
4DF
330
1
100
AcDbSymbolTableRecord
100
AcDbBlockTableRecord
  2
AI9-BLK179
340
0
102
{BLKREFS
331
4E0
102
}
  0
BLOCK_RECORD
  5
4E2
330
1
100
AcDbSymbolTableRecord
100
AcDbBlockTableRecord
  2
AI9-BLK180
340
0
102
{BLKREFS
331
4E3
102
}
  0
BLOCK_RECORD
  5
4E8
330
1
100
AcDbSymbolTableRecord
100
AcDbBlockTableRecord
  2
AI9-BLK181
340
0
102
{BLKREFS
331
4E9
102
}
  0
BLOCK_RECORD
  5
4EB
330
1
100
AcDbSymbolTableRecord
100
AcDbBlockTableRecord
  2
AI9-BLK182
340
0
102
{BLKREFS
331
4EC
102
}
  0
BLOCK_RECORD
  5
4F1
330
1
100
AcDbSymbolTableRecord
100
AcDbBlockTableRecord
  2
AI9-BLK183
340
0
102
{BLKREFS
331
4F2
102
}
  0
BLOCK_RECORD
  5
4F4
330
1
100
AcDbSymbolTableRecord
100
AcDbBlockTableRecord
  2
AI9-BLK184
340
0
102
{BLKREFS
331
4F5
102
}
  0
BLOCK_RECORD
  5
4FA
330
1
100
AcDbSymbolTableRecord
100
AcDbBlockTableRecord
  2
AI9-BLK185
340
0
102
{BLKREFS
331
4FB
102
}
  0
BLOCK_RECORD
  5
4FD
330
1
100
AcDbSymbolTableRecord
100
AcDbBlockTableRecord
  2
AI9-BLK186
340
0
102
{BLKREFS
331
4FE
102
}
  0
BLOCK_RECORD
  5
503
330
1
100
AcDbSymbolTableRecord
100
AcDbBlockTableRecord
  2
AI9-BLK187
340
0
102
{BLKREFS
331
504
102
}
  0
BLOCK_RECORD
  5
506
330
1
100
AcDbSymbolTableRecord
100
AcDbBlockTableRecord
  2
AI9-BLK188
340
0
102
{BLKREFS
331
507
102
}
  0
ENDTAB
  0
ENDSEC
  0
SECTION
  2
BLOCKS
  0
BLOCK
  5
D
330
A
100
AcDbEntity
  8
0
100
AcDbBlockBegin
  2
*MODEL_SPACE
 70
     0
 71
     1
 10
0.0
 20
0.0
 30
0.0
  3
*MODEL_SPACE
  1

  0
ENDBLK
  5
E
330
A
100
AcDbEntity
  8
0
100
AcDbBlockEnd
  0
BLOCK
  5
F
330
B
100
AcDbEntity
 67
     1
  8
0
100
AcDbBlockBegin
  2
*PAPER_SPACE
 70
     0
 71
     1
 10
0.0
 20
0.0
 30
0.0
  3
*PAPER_SPACE
  1

  0
ENDBLK
  5
10
330
B
100
AcDbEntity
 67
     1
  8
0
100
AcDbBlockEnd
  0
BLOCK
  5
8D
330
8B
100
AcDbEntity
  8
0
 62
     7
100
AcDbBlockBegin
  2
AI9-BLK1
 70
     0
 71
     1
 10
0.0
 20
0.0
 30
0.0
  3
AI9-BLK1
  1

  0
INSERT
  5
A1
330
8B
100
AcDbEntity
  8
0
  6
AI9-LType1
 62
     7
100
AcDbBlockReference
  2
AI9-BLK6
 10
-2.381249999999999
 20
0.0
 30
0.0
  0
INSERT
  5
98
330
8B
100
AcDbEntity
  8
0
  6
AI9-LType1
 62
     7
100
AcDbBlockReference
  2
AI9-BLK4
 10
0.79375
 20
0.0
 30
0.0
  0
INSERT
  5
8F
330
8B
100
AcDbEntity
  8
0
  6
AI9-LType1
 62
     7
100
AcDbBlockReference
  2
AI9-BLK2
 10
3.174999999999999
 20
0.0
 30
0.0
  0
ENDBLK
  5
A9
330
8B
100
AcDbEntity
  8
0
100
AcDbBlockEnd
  0
BLOCK
  5
90
330
8E
100
AcDbEntity
  8
0
 62
     7
100
AcDbBlockBegin
  2
AI9-BLK2
 70
     0
 71
     1
 10
0.0
 20
0.0
 30
0.0
  3
AI9-BLK2
  1

  0
INSERT
  5
92
330
8E
100
AcDbEntity
  8
0
  6
AI9-LType1
 62
     7
100
AcDbBlockReference
  2
AI9-BLK3
 10
0.0
 20
0.0
 30
0.0
  0
ENDBLK
  5
96
330
8E
100
AcDbEntity
  8
0
100
AcDbBlockEnd
  0
BLOCK
  5
93
330
91
100
AcDbEntity
  8
0
 62
     7
100
AcDbBlockBegin
  2
AI9-BLK3
 70
     0
 71
     1
 10
0.0
 20
0.0
 30
0.0
  3
AI9-BLK3
  1

  0
MTEXT
  5
94
330
91
100
AcDbEntity
  8
0
  6
AI9-LType1
 62
     7
100
AcDbMText
 10
-0.79375
 20
1.350149045860947
 30
0.0
 40
2.624834375722067
 41
0.0
 71
     1
 72
     2
  1
\W0.90;\fMS Gothic|b0|i0|c128;2
  7
STD
 11
1.000000999999999
 21
0.0
 31
0.0
 73
     1
 44
1.0
  0
ENDBLK
  5
95
330
91
100
AcDbEntity
  8
0
100
AcDbBlockEnd
  0
BLOCK
  5
99
330
97
100
AcDbEntity
  8
0
 62
     7
100
AcDbBlockBegin
  2
AI9-BLK4
 70
     0
 71
     1
 10
0.0
 20
0.0
 30
0.0
  3
AI9-BLK4
  1

  0
INSERT
  5
9B
330
97
100
AcDbEntity
  8
0
  6
AI9-LType1
 62
     7
100
AcDbBlockReference
  2
AI9-BLK5
 10
0.0
 20
0.0
 30
0.0
  0
ENDBLK
  5
9F
330
97
100
AcDbEntity
  8
0
100
AcDbBlockEnd
  0
BLOCK
  5
9C
330
9A
100
AcDbEntity
  8
0
 62
     7
100
AcDbBlockBegin
  2
AI9-BLK5
 70
     0
 71
     1
 10
0.0
 20
0.0
 30
0.0
  3
AI9-BLK5
  1

  0
MTEXT
  5
9D
330
9A
100
AcDbEntity
  8
0
  6
AI9-LType1
 62
     7
100
AcDbMText
 10
-1.587499999999999
 20
1.350149045860947
 30
0.0
 40
2.624834375722067
 41
0.0
 71
     1
 72
     2
  1
\W0.90;\fMS Gothic|b0|i0|c128;±
  7
KANJISTD
 11
1.000000999999999
 21
0.0
 31
0.0
 73
     1
 44
1.0
  0
ENDBLK
  5
9E
330
9A
100
AcDbEntity
  8
0
100
AcDbBlockEnd
  0
BLOCK
  5
A2
330
A0
100
AcDbEntity
  8
0
 62
     7
100
AcDbBlockBegin
  2
AI9-BLK6
 70
     0
 71
     1
 10
0.0
 20
0.0
 30
0.0
  3
AI9-BLK6
  1

  0
INSERT
  5
A4
330
A0
100
AcDbEntity
  8
0
  6
AI9-LType1
 62
     7
100
AcDbBlockReference
  2
AI9-BLK7
 10
0.0
 20
0.0
 30
0.0
  0
ENDBLK
  5
A8
330
A0
100
AcDbEntity
  8
0
100
AcDbBlockEnd
  0
BLOCK
  5
A5
330
A3
100
AcDbEntity
  8
0
 62
     7
100
AcDbBlockBegin
  2
AI9-BLK7
 70
     0
 71
     1
 10
0.0
 20
0.0
 30
0.0
  3
AI9-BLK7
  1

  0
MTEXT
  5
A6
330
A3
100
AcDbEntity
  8
0
  6
AI9-LType1
 62
     7
100
AcDbMText
 10
-1.587499999999999
 20
1.350149045860947
 30
0.0
 40
2.624834375722067
 41
0.0
 71
     1
 72
     2
  1
\W0.90;\fMS Gothic|b0|i0|c128;85
  7
STD
 11
1.000000999999999
 21
0.0
 31
0.0
 73
     1
 44
1.0
  0
ENDBLK
  5
A7
330
A3
100
AcDbEntity
  8
0
100
AcDbBlockEnd
  0
BLOCK
  5
B2
330
B0
100
AcDbEntity
  8
0
 62
     7
100
AcDbBlockBegin
  2
AI9-BLK8
 70
     0
 71
     1
 10
0.0
 20
0.0
 30
0.0
  3
AI9-BLK8
  1

  0
INSERT
  5
C6
330
B0
100
AcDbEntity
  8
0
  6
AI9-LType1
 62
     7
100
AcDbBlockReference
  2
AI9-BLK13
 10
0.0
 20
-2.381249999999999
 30
0.0
  0
INSERT
  5
BD
330
B0
100
AcDbEntity
  8
0
  6
AI9-LType1
 62
     7
100
AcDbBlockReference
  2
AI9-BLK11
 10
0.0
 20
1.587499999999999
 30
0.0
  0
INSERT
  5
B4
330
B0
100
AcDbEntity
  8
0
  6
AI9-LType1
 62
     7
100
AcDbBlockReference
  2
AI9-BLK9
 10
0.0
 20
3.968749999999999
 30
0.0
  0
ENDBLK
  5
CE
330
B0
100
AcDbEntity
  8
0
100
AcDbBlockEnd
  0
BLOCK
  5
B5
330
B3
100
AcDbEntity
  8
0
 62
     7
100
AcDbBlockBegin
  2
AI9-BLK9
 70
     0
 71
     1
 10
0.0
 20
0.0
 30
0.0
  3
AI9-BLK9
  1

  0
INSERT
  5
B7
330
B3
100
AcDbEntity
  8
0
  6
AI9-LType1
 62
     7
100
AcDbBlockReference
  2
AI9-BLK10
 10
0.0
 20
0.0
 30
0.0
  0
ENDBLK
  5
BB
330
B3
100
AcDbEntity
  8
0
100
AcDbBlockEnd
  0
BLOCK
  5
B8
330
B6
100
AcDbEntity
  8
0
 62
     7
100
AcDbBlockBegin
  2
AI9-BLK10
 70
     0
 71
     1
 10
0.0
 20
0.0
 30
0.0
  3
AI9-BLK10
  1

  0
MTEXT
  5
B9
330
B6
100
AcDbEntity
  8
0
  6
AI9-LType1
 62
     7
100
AcDbMText
 10
-1.350149045860947
 20
-0.79375
 30
0.0
 40
2.624834375722067
 41
0.0
 71
     1
 72
     2
  1
\W0.90;\fMS Gothic|b0|i0|c128;2
  7
STD
 11
0.0
 21
1.0
 31
0.0
 73
     1
 44
1.0
  0
ENDBLK
  5
BA
330
B6
100
AcDbEntity
  8
0
100
AcDbBlockEnd
  0
BLOCK
  5
BE
330
BC
100
AcDbEntity
  8
0
 62
     7
100
AcDbBlockBegin
  2
AI9-BLK11
 70
     0
 71
     1
 10
0.0
 20
0.0
 30
0.0
  3
AI9-BLK11
  1

  0
INSERT
  5
C0
330
BC
100
AcDbEntity
  8
0
  6
AI9-LType1
 62
     7
100
AcDbBlockReference
  2
AI9-BLK12
 10
0.0
 20
0.0
 30
0.0
  0
ENDBLK
  5
C4
330
BC
100
AcDbEntity
  8
0
100
AcDbBlockEnd
  0
BLOCK
  5
C1
330
BF
100
AcDbEntity
  8
0
 62
     7
100
AcDbBlockBegin
  2
AI9-BLK12
 70
     0
 71
     1
 10
0.0
 20
0.0
 30
0.0
  3
AI9-BLK12
  1

  0
MTEXT
  5
C2
330
BF
100
AcDbEntity
  8
0
  6
AI9-LType1
 62
     7
100
AcDbMText
 10
-1.350149045860947
 20
-1.587499999999999
 30
0.0
 40
2.624834375722067
 41
0.0
 71
     1
 72
     2
  1
\W0.90;\fMS Gothic|b0|i0|c128;±
  7
KANJISTD
 11
0.0
 21
1.0
 31
0.0
 73
     1
 44
1.0
  0
ENDBLK
  5
C3
330
BF
100
AcDbEntity
  8
0
100
AcDbBlockEnd
  0
BLOCK
  5
C7
330
C5
100
AcDbEntity
  8
0
 62
     7
100
AcDbBlockBegin
  2
AI9-BLK13
 70
     0
 71
     1
 10
0.0
 20
0.0
 30
0.0
  3
AI9-BLK13
  1

  0
INSERT
  5
C9
330
C5
100
AcDbEntity
  8
0
  6
AI9-LType1
 62
     7
100
AcDbBlockReference
  2
AI9-BLK14
 10
0.0
 20
0.0
 30
0.0
  0
ENDBLK
  5
CD
330
C5
100
AcDbEntity
  8
0
100
AcDbBlockEnd
  0
BLOCK
  5
CA
330
C8
100
AcDbEntity
  8
0
 62
     7
100
AcDbBlockBegin
  2
AI9-BLK14
 70
     0
 71
     1
 10
0.0
 20
0.0
 30
0.0
  3
AI9-BLK14
  1

  0
MTEXT
  5
CB
330
C8
100
AcDbEntity
  8
0
  6
AI9-LType1
 62
     7
100
AcDbMText
 10
-1.350149045860947
 20
-2.381249999999999
 30
0.0
 40
2.624834375722067
 41
0.0
 71
     1
 72
     2
  1
\W0.90;\fMS Gothic|b0|i0|c128;110
  7
STD
 11
0.0
 21
1.0
 31
0.0
 73
     1
 44
1.0
  0
ENDBLK
  5
CC
330
C8
100
AcDbEntity
  8
0
100
AcDbBlockEnd
  0
BLOCK
  5
DC
330
DA
100
AcDbEntity
  8
0
 62
     7
100
AcDbBlockBegin
  2
AI9-BLK15
 70
     0
 71
     1
 10
0.0
 20
0.0
 30
0.0
  3
AI9-BLK15
  1

  0
INSERT
  5
DE
330
DA
100
AcDbEntity
  8
0
 62
     7
100
AcDbBlockReference
  2
AI9-BLK16
 10
0.0
 20
0.0
 30
0.0
  0
ENDBLK
  5
E2
330
DA
100
AcDbEntity
  8
0
100
AcDbBlockEnd
  0
BLOCK
  5
DF
330
DD
100
AcDbEntity
  8
0
 62
     7
100
AcDbBlockBegin
  2
AI9-BLK16
 70
     0
 71
     1
 10
0.0
 20
0.0
 30
0.0
  3
AI9-BLK16
  1

  0
MTEXT
  5
E0
330
DD
100
AcDbEntity
  8
0
 62
     7
100
AcDbMText
 10
-0.6614583333333333
 20
1.350148625317085
 30
0.0
 40
2.624833955178184
 41
0.0
 71
     1
 72
     2
  1
\W0.75;\fMS Gothic|b0|i0|c128; 
  7
STD
 11
1.000000999999999
 21
0.0
 31
0.0
 73
     1
 44
1.0
  0
ENDBLK
  5
E1
330
DD
100
AcDbEntity
  8
0
100
AcDbBlockEnd
  0
BLOCK
  5
112
330
110
100
AcDbEntity
  8
0
 62
     7
100
AcDbBlockBegin
  2
AI9-BLK17
 70
     0
 71
     1
 10
0.0
 20
0.0
 30
0.0
  3
AI9-BLK17
  1

  0
INSERT
  5
126
330
110
100
AcDbEntity
  8
0
 62
     7
100
AcDbBlockReference
  2
AI9-BLK22
 10
-2.381249999999999
 20
0.0
 30
0.0
  0
INSERT
  5
11D
330
110
100
AcDbEntity
  8
0
 62
     7
100
AcDbBlockReference
  2
AI9-BLK20
 10
1.587499999999999
 20
0.0
 30
0.0
  0
INSERT
  5
114
330
110
100
AcDbEntity
  8
0
 62
     7
100
AcDbBlockReference
  2
AI9-BLK18
 10
3.968749999999999
 20
0.0
 30
0.0
  0
ENDBLK
  5
12E
330
110
100
AcDbEntity
  8
0
100
AcDbBlockEnd
  0
BLOCK
  5
115
330
113
100
AcDbEntity
  8
0
 62
     7
100
AcDbBlockBegin
  2
AI9-BLK18
 70
     0
 71
     1
 10
0.0
 20
0.0
 30
0.0
  3
AI9-BLK18
  1

  0
INSERT
  5
117
330
113
100
AcDbEntity
  8
0
 62
     7
100
AcDbBlockReference
  2
AI9-BLK19
 10
0.0
 20
0.0
 30
0.0
  0
ENDBLK
  5
11B
330
113
100
AcDbEntity
  8
0
100
AcDbBlockEnd
  0
BLOCK
  5
118
330
116
100
AcDbEntity
  8
0
 62
     7
100
AcDbBlockBegin
  2
AI9-BLK19
 70
     0
 71
     1
 10
0.0
 20
0.0
 30
0.0
  3
AI9-BLK19
  1

  0
MTEXT
  5
119
330
116
100
AcDbEntity
  8
0
 62
     7
100
AcDbMText
 10
-0.79375
 20
1.350149045860947
 30
0.0
 40
2.624834375722067
 41
0.0
 71
     1
 72
     2
  1
\W0.90;\fMS Gothic|b0|i0|c128;2
  7
STD
 11
1.000000999999999
 21
0.0
 31
0.0
 73
     1
 44
1.0
  0
ENDBLK
  5
11A
330
116
100
AcDbEntity
  8
0
100
AcDbBlockEnd
  0
BLOCK
  5
11E
330
11C
100
AcDbEntity
  8
0
 62
     7
100
AcDbBlockBegin
  2
AI9-BLK20
 70
     0
 71
     1
 10
0.0
 20
0.0
 30
0.0
  3
AI9-BLK20
  1

  0
INSERT
  5
120
330
11C
100
AcDbEntity
  8
0
 62
     7
100
AcDbBlockReference
  2
AI9-BLK21
 10
0.0
 20
0.0
 30
0.0
  0
ENDBLK
  5
124
330
11C
100
AcDbEntity
  8
0
100
AcDbBlockEnd
  0
BLOCK
  5
121
330
11F
100
AcDbEntity
  8
0
 62
     7
100
AcDbBlockBegin
  2
AI9-BLK21
 70
     0
 71
     1
 10
0.0
 20
0.0
 30
0.0
  3
AI9-BLK21
  1

  0
MTEXT
  5
122
330
11F
100
AcDbEntity
  8
0
 62
     7
100
AcDbMText
 10
-1.587499999999999
 20
1.350149045860947
 30
0.0
 40
2.624834375722067
 41
0.0
 71
     1
 72
     2
  1
\W0.90;\fMS Gothic|b0|i0|c128;±
  7
KANJISTD
 11
1.000000999999999
 21
0.0
 31
0.0
 73
     1
 44
1.0
  0
ENDBLK
  5
123
330
11F
100
AcDbEntity
  8
0
100
AcDbBlockEnd
  0
BLOCK
  5
127
330
125
100
AcDbEntity
  8
0
 62
     7
100
AcDbBlockBegin
  2
AI9-BLK22
 70
     0
 71
     1
 10
0.0
 20
0.0
 30
0.0
  3
AI9-BLK22
  1

  0
INSERT
  5
129
330
125
100
AcDbEntity
  8
0
 62
     7
100
AcDbBlockReference
  2
AI9-BLK23
 10
0.0
 20
0.0
 30
0.0
  0
ENDBLK
  5
12D
330
125
100
AcDbEntity
  8
0
100
AcDbBlockEnd
  0
BLOCK
  5
12A
330
128
100
AcDbEntity
  8
0
 62
     7
100
AcDbBlockBegin
  2
AI9-BLK23
 70
     0
 71
     1
 10
0.0
 20
0.0
 30
0.0
  3
AI9-BLK23
  1

  0
MTEXT
  5
12B
330
128
100
AcDbEntity
  8
0
 62
     7
100
AcDbMText
 10
-2.381249999999999
 20
1.350149045860947
 30
0.0
 40
2.624834375722067
 41
0.0
 71
     1
 72
     2
  1
\W0.90;\fMS Gothic|b0|i0|c128;140
  7
STD
 11
1.000000999999999
 21
0.0
 31
0.0
 73
     1
 44
1.0
  0
ENDBLK
  5
12C
330
128
100
AcDbEntity
  8
0
100
AcDbBlockEnd
  0
BLOCK
  5
131
330
12F
100
AcDbEntity
  8
0
 62
     7
100
AcDbBlockBegin
  2
AI9-BLK24
 70
     0
 71
     1
 10
0.0
 20
0.0
 30
0.0
  3
AI9-BLK24
  1

  0
INSERT
  5
133
330
12F
100
AcDbEntity
  8
0
 62
     7
100
AcDbBlockReference
  2
AI9-BLK25
 10
0.0
 20
0.0
 30
0.0
  0
ENDBLK
  5
137
330
12F
100
AcDbEntity
  8
0
100
AcDbBlockEnd
  0
BLOCK
  5
134
330
132
100
AcDbEntity
  8
0
 62
     7
100
AcDbBlockBegin
  2
AI9-BLK25
 70
     0
 71
     1
 10
0.0
 20
0.0
 30
0.0
  3
AI9-BLK25
  1

  0
MTEXT
  5
135
330
132
100
AcDbEntity
  8
0
 62
     7
100
AcDbMText
 10
-21.16666666666666
 20
1.350148625317075
 30
0.0
 40
2.624833955178184
 41
0.0
 71
     1
 72
     2
  1
\W0.75;\fMS Gothic|b0|i0|c128;ベース・セットピン：スチレニクス
  7
KANJISTD
 11
1.000000999999999
 21
0.0
 31
0.0
 73
     1
 44
1.0
  0
ENDBLK
  5
136
330
132
100
AcDbEntity
  8
0
100
AcDbBlockEnd
  0
BLOCK
  5
13A
330
138
100
AcDbEntity
  8
0
 62
     7
100
AcDbBlockBegin
  2
AI9-BLK26
 70
     0
 71
     1
 10
0.0
 20
0.0
 30
0.0
  3
AI9-BLK26
  1

  0
INSERT
  5
13C
330
138
100
AcDbEntity
  8
0
 62
     7
100
AcDbBlockReference
  2
AI9-BLK27
 10
0.0
 20
0.0
 30
0.0
  0
ENDBLK
  5
140
330
138
100
AcDbEntity
  8
0
100
AcDbBlockEnd
  0
BLOCK
  5
13D
330
13B
100
AcDbEntity
  8
0
 62
     7
100
AcDbBlockBegin
  2
AI9-BLK27
 70
     0
 71
     1
 10
0.0
 20
0.0
 30
0.0
  3
AI9-BLK27
  1

  0
MTEXT
  5
13E
330
13B
100
AcDbEntity
  8
0
 62
     7
100
AcDbMText
 10
-13.22916666666666
 20
1.350148625317075
 30
0.0
 40
2.624833955178184
 41
0.0
 71
     1
 72
     2
  1
\W0.75;\fMS Gothic|b0|i0|c128;ポスト：ポリウレタン
  7
KANJISTD
 11
1.000000999999999
 21
0.0
 31
0.0
 73
     1
 44
1.0
  0
ENDBLK
  5
13F
330
13B
100
AcDbEntity
  8
0
100
AcDbBlockEnd
  0
BLOCK
  5
143
330
141
100
AcDbEntity
  8
0
 62
     7
100
AcDbBlockBegin
  2
AI9-BLK28
 70
     0
 71
     1
 10
0.0
 20
0.0
 30
0.0
  3
AI9-BLK28
  1

  0
INSERT
  5
14E
330
141
100
AcDbEntity
  8
0
 62
     7
100
AcDbBlockReference
  2
AI9-BLK31
 10
-1.984374999999999
 20
0.0
 30
0.0
  0
INSERT
  5
145
330
141
100
AcDbEntity
  8
0
 62
     7
100
AcDbBlockReference
  2
AI9-BLK29
 10
10.58333333333333
 20
0.0
 30
0.0
  0
ENDBLK
  5
156
330
141
100
AcDbEntity
  8
0
100
AcDbBlockEnd
  0
BLOCK
  5
146
330
144
100
AcDbEntity
  8
0
 62
     7
100
AcDbBlockBegin
  2
AI9-BLK29
 70
     0
 71
     1
 10
0.0
 20
0.0
 30
0.0
  3
AI9-BLK29
  1

  0
INSERT
  5
148
330
144
100
AcDbEntity
  8
0
 62
     7
100
AcDbBlockReference
  2
AI9-BLK30
 10
0.0
 20
0.0
 30
0.0
  0
ENDBLK
  5
14C
330
144
100
AcDbEntity
  8
0
100
AcDbBlockEnd
  0
BLOCK
  5
149
330
147
100
AcDbEntity
  8
0
 62
     7
100
AcDbBlockBegin
  2
AI9-BLK30
 70
     0
 71
     1
 10
0.0
 20
0.0
 30
0.0
  3
AI9-BLK30
  1

  0
MTEXT
  5
14A
330
147
100
AcDbEntity
  8
0
 62
     7
100
AcDbMText
 10
-1.984374999999999
 20
1.350148625317065
 30
0.0
 40
2.624833955178184
 41
0.0
 71
     1
 72
     2
  1
\W0.75;\fMS Gothic|b0|i0|c128;-10
  7
STD
 11
1.000000999999999
 21
0.0
 31
0.0
 73
     1
 44
1.0
  0
ENDBLK
  5
14B
330
147
100
AcDbEntity
  8
0
100
AcDbBlockEnd
  0
BLOCK
  5
14F
330
14D
100
AcDbEntity
  8
0
 62
     7
100
AcDbBlockBegin
  2
AI9-BLK31
 70
     0
 71
     1
 10
0.0
 20
0.0
 30
0.0
  3
AI9-BLK31
  1

  0
INSERT
  5
151
330
14D
100
AcDbEntity
  8
0
 62
     7
100
AcDbBlockReference
  2
AI9-BLK32
 10
0.0
 20
0.0
 30
0.0
  0
ENDBLK
  5
155
330
14D
100
AcDbEntity
  8
0
100
AcDbBlockEnd
  0
BLOCK
  5
152
330
150
100
AcDbEntity
  8
0
 62
     7
100
AcDbBlockBegin
  2
AI9-BLK32
 70
     0
 71
     1
 10
0.0
 20
0.0
 30
0.0
  3
AI9-BLK32
  1

  0
MTEXT
  5
153
330
150
100
AcDbEntity
  8
0
 62
     7
100
AcDbMText
 10
-10.58333333333333
 20
1.350148625317065
 30
0.0
 40
2.624833955178184
 41
0.0
 71
     1
 72
     2
  1
\W0.75;\fMS Gothic|b0|i0|c128;アンカーホールΦ
  7
KANJISTD
 11
1.000000999999999
 21
0.0
 31
0.0
 73
     1
 44
1.0
  0
ENDBLK
  5
154
330
150
100
AcDbEntity
  8
0
100
AcDbBlockEnd
  0
BLOCK
  5
15E
330
15C
100
AcDbEntity
  8
0
 62
     7
100
AcDbBlockBegin
  2
AI9-BLK33
 70
     0
 71
     1
 10
0.0
 20
0.0
 30
0.0
  3
AI9-BLK33
  1

  0
INSERT
  5
160
330
15C
100
AcDbEntity
  8
0
 62
     7
100
AcDbBlockReference
  2
AI9-BLK34
 10
0.0
 20
0.0
 30
0.0
  0
ENDBLK
  5
164
330
15C
100
AcDbEntity
  8
0
100
AcDbBlockEnd
  0
BLOCK
  5
161
330
15F
100
AcDbEntity
  8
0
 62
     7
100
AcDbBlockBegin
  2
AI9-BLK34
 70
     0
 71
     1
 10
0.0
 20
0.0
 30
0.0
  3
AI9-BLK34
  1

  0
MTEXT
  5
162
330
15F
100
AcDbEntity
  8
0
 62
     7
100
AcDbMText
 10
-9.260416666666666
 20
1.350148625317065
 30
0.0
 40
2.624833955178184
 41
0.0
 71
     1
 72
     2
  1
\W0.75;\fMS Gothic|b0|i0|c128;アンカーホール
  7
KANJISTD
 11
1.000000999999999
 21
0.0
 31
0.0
 73
     1
 44
1.0
  0
ENDBLK
  5
163
330
15F
100
AcDbEntity
  8
0
100
AcDbBlockEnd
  0
BLOCK
  5
167
330
165
100
AcDbEntity
  8
0
 62
     7
100
AcDbBlockBegin
  2
AI9-BLK35
 70
     0
 71
     1
 10
0.0
 20
0.0
 30
0.0
  3
AI9-BLK35
  1

  0
INSERT
  5
169
330
165
100
AcDbEntity
  8
0
 62
     7
100
AcDbBlockReference
  2
AI9-BLK36
 10
0.0
 20
0.0
 30
0.0
  0
ENDBLK
  5
16D
330
165
100
AcDbEntity
  8
0
100
AcDbBlockEnd
  0
BLOCK
  5
16A
330
168
100
AcDbEntity
  8
0
 62
     7
100
AcDbBlockBegin
  2
AI9-BLK36
 70
     0
 71
     1
 10
0.0
 20
0.0
 30
0.0
  3
AI9-BLK36
  1

  0
MTEXT
  5
16B
330
168
100
AcDbEntity
  8
0
 62
     7
100
AcDbMText
 10
-10.58333333333333
 20
1.350148625317065
 30
0.0
 40
2.624833955178184
 41
0.0
 71
     1
 72
     2
  1
\W0.75;\fMS Gothic|b0|i0|c128;セットピンホール
  7
KANJISTD
 11
1.000000999999999
 21
0.0
 31
0.0
 73
     1
 44
1.0
  0
ENDBLK
  5
16C
330
168
100
AcDbEntity
  8
0
100
AcDbBlockEnd
  0
BLOCK
  5
175
330
173
100
AcDbEntity
  8
0
 62
     7
100
AcDbBlockBegin
  2
AI9-BLK37
 70
     0
 71
     1
 10
0.0
 20
0.0
 30
0.0
  3
AI9-BLK37
  1

  0
INSERT
  5
189
330
173
100
AcDbEntity
  8
0
 62
     7
100
AcDbBlockReference
  2
AI9-BLK42
 10
-3.307291666666666
 20
0.0
 30
0.0
  0
INSERT
  5
180
330
173
100
AcDbEntity
  8
0
 62
     7
100
AcDbBlockReference
  2
AI9-BLK40
 10
9.260416666666666
 20
0.0
 30
0.0
  0
INSERT
  5
177
330
173
100
AcDbEntity
  8
0
 62
     7
100
AcDbBlockReference
  2
AI9-BLK38
 10
12.56770833333333
 20
0.0
 30
0.0
  0
ENDBLK
  5
191
330
173
100
AcDbEntity
  8
0
100
AcDbBlockEnd
  0
BLOCK
  5
178
330
176
100
AcDbEntity
  8
0
 62
     7
100
AcDbBlockBegin
  2
AI9-BLK38
 70
     0
 71
     1
 10
0.0
 20
0.0
 30
0.0
  3
AI9-BLK38
  1

  0
INSERT
  5
17A
330
176
100
AcDbEntity
  8
0
 62
     7
100
AcDbBlockReference
  2
AI9-BLK39
 10
0.0
 20
0.0
 30
0.0
  0
ENDBLK
  5
17E
330
176
100
AcDbEntity
  8
0
100
AcDbBlockEnd
  0
BLOCK
  5
17B
330
179
100
AcDbEntity
  8
0
 62
     7
100
AcDbBlockBegin
  2
AI9-BLK39
 70
     0
 71
     1
 10
0.0
 20
0.0
 30
0.0
  3
AI9-BLK39
  1

  0
MTEXT
  5
17C
330
179
100
AcDbEntity
  8
0
 62
     7
100
AcDbMText
 10
-2.645833333333333
 20
1.350148625317065
 30
0.0
 40
2.624833955178184
 41
0.0
 71
     1
 72
     2
  1
\W0.75;\fMS Gothic|b0|i0|c128;本）
  7
KANJISTD
 11
1.000000999999999
 21
0.0
 31
0.0
 73
     1
 44
1.0
  0
ENDBLK
  5
17D
330
179
100
AcDbEntity
  8
0
100
AcDbBlockEnd
  0
BLOCK
  5
181
330
17F
100
AcDbEntity
  8
0
 62
     7
100
AcDbBlockBegin
  2
AI9-BLK40
 70
     0
 71
     1
 10
0.0
 20
0.0
 30
0.0
  3
AI9-BLK40
  1

  0
INSERT
  5
183
330
17F
100
AcDbEntity
  8
0
 62
     7
100
AcDbBlockReference
  2
AI9-BLK41
 10
0.0
 20
0.0
 30
0.0
  0
ENDBLK
  5
187
330
17F
100
AcDbEntity
  8
0
100
AcDbBlockEnd
  0
BLOCK
  5
184
330
182
100
AcDbEntity
  8
0
 62
     7
100
AcDbBlockBegin
  2
AI9-BLK41
 70
     0
 71
     1
 10
0.0
 20
0.0
 30
0.0
  3
AI9-BLK41
  1

  0
MTEXT
  5
185
330
182
100
AcDbEntity
  8
0
 62
     7
100
AcDbMText
 10
-0.6614583333333333
 20
1.350148625317065
 30
0.0
 40
2.624833955178184
 41
0.0
 71
     1
 72
     2
  1
\W0.75;\fMS Gothic|b0|i0|c128;2
  7
STD
 11
1.000000999999999
 21
0.0
 31
0.0
 73
     1
 44
1.0
  0
ENDBLK
  5
186
330
182
100
AcDbEntity
  8
0
100
AcDbBlockEnd
  0
BLOCK
  5
18A
330
188
100
AcDbEntity
  8
0
 62
     7
100
AcDbBlockBegin
  2
AI9-BLK42
 70
     0
 71
     1
 10
0.0
 20
0.0
 30
0.0
  3
AI9-BLK42
  1

  0
INSERT
  5
18C
330
188
100
AcDbEntity
  8
0
 62
     7
100
AcDbBlockReference
  2
AI9-BLK43
 10
0.0
 20
0.0
 30
0.0
  0
ENDBLK
  5
190
330
188
100
AcDbEntity
  8
0
100
AcDbBlockEnd
  0
BLOCK
  5
18D
330
18B
100
AcDbEntity
  8
0
 62
     7
100
AcDbBlockBegin
  2
AI9-BLK43
 70
     0
 71
     1
 10
0.0
 20
0.0
 30
0.0
  3
AI9-BLK43
  1

  0
MTEXT
  5
18E
330
18B
100
AcDbEntity
  8
0
 62
     7
100
AcDbMText
 10
-11.90624999999999
 20
1.350148625317065
 30
0.0
 40
2.624833955178184
 41
0.0
 71
     1
 72
     2
  1
\W0.75;\fMS Gothic|b0|i0|c128;セットピンホール（
  7
KANJISTD
 11
1.000000999999999
 21
0.0
 31
0.0
 73
     1
 44
1.0
  0
ENDBLK
  5
18F
330
18B
100
AcDbEntity
  8
0
100
AcDbBlockEnd
  0
BLOCK
  5
194
330
192
100
AcDbEntity
  8
0
 62
     7
100
AcDbBlockBegin
  2
AI9-BLK44
 70
     0
 71
     1
 10
0.0
 20
0.0
 30
0.0
  3
AI9-BLK44
  1

  0
INSERT
  5
19F
330
192
100
AcDbEntity
  8
0
 62
     7
100
AcDbBlockReference
  2
AI9-BLK47
 10
-3.968749999999999
 20
0.0
 30
0.0
  0
INSERT
  5
196
330
192
100
AcDbEntity
  8
0
 62
     7
100
AcDbBlockReference
  2
AI9-BLK45
 10
3.968749999999999
 20
0.0
 30
0.0
  0
ENDBLK
  5
1A7
330
192
100
AcDbEntity
  8
0
100
AcDbBlockEnd
  0
BLOCK
  5
197
330
195
100
AcDbEntity
  8
0
 62
     7
100
AcDbBlockBegin
  2
AI9-BLK45
 70
     0
 71
     1
 10
0.0
 20
0.0
 30
0.0
  3
AI9-BLK45
  1

  0
INSERT
  5
199
330
195
100
AcDbEntity
  8
0
 62
     7
100
AcDbBlockReference
  2
AI9-BLK46
 10
0.0
 20
0.0
 30
0.0
  0
ENDBLK
  5
19D
330
195
100
AcDbEntity
  8
0
100
AcDbBlockEnd
  0
BLOCK
  5
19A
330
198
100
AcDbEntity
  8
0
 62
     7
100
AcDbBlockBegin
  2
AI9-BLK46
 70
     0
 71
     1
 10
0.0
 20
0.0
 30
0.0
  3
AI9-BLK46
  1

  0
MTEXT
  5
19B
330
198
100
AcDbEntity
  8
0
 62
     7
100
AcDbMText
 10
-3.968749999999999
 20
1.350148625317085
 30
0.0
 40
2.624833955178184
 41
0.0
 71
     1
 72
     2
  1
\W0.75;\fMS Gothic|b0|i0|c128;PF-650
  7
STD
 11
1.000000999999999
 21
0.0
 31
0.0
 73
     1
 44
1.0
  0
ENDBLK
  5
19C
330
198
100
AcDbEntity
  8
0
100
AcDbBlockEnd
  0
BLOCK
  5
1A0
330
19E
100
AcDbEntity
  8
0
 62
     7
100
AcDbBlockBegin
  2
AI9-BLK47
 70
     0
 71
     1
 10
0.0
 20
0.0
 30
0.0
  3
AI9-BLK47
  1

  0
INSERT
  5
1A2
330
19E
100
AcDbEntity
  8
0
 62
     7
100
AcDbBlockReference
  2
AI9-BLK48
 10
0.0
 20
0.0
 30
0.0
  0
ENDBLK
  5
1A6
330
19E
100
AcDbEntity
  8
0
100
AcDbBlockEnd
  0
BLOCK
  5
1A3
330
1A1
100
AcDbEntity
  8
0
 62
     7
100
AcDbBlockBegin
  2
AI9-BLK48
 70
     0
 71
     1
 10
0.0
 20
0.0
 30
0.0
  3
AI9-BLK48
  1

  0
MTEXT
  5
1A4
330
1A1
100
AcDbEntity
  8
0
 62
     7
100
AcDbMText
 10
-3.968749999999999
 20
1.350148625317085
 30
0.0
 40
2.624833955178184
 41
0.0
 71
     1
 72
     2
  1
\W0.75;\fMS Gothic|b0|i0|c128;本体　
  7
KANJISTD
 11
1.000000999999999
 21
0.0
 31
0.0
 73
     1
 44
1.0
  0
ENDBLK
  5
1A5
330
1A1
100
AcDbEntity
  8
0
100
AcDbBlockEnd
  0
BLOCK
  5
1BE
330
1BC
100
AcDbEntity
  8
0
 62
     7
100
AcDbBlockBegin
  2
AI9-BLK49
 70
     0
 71
     1
 10
0.0
 20
0.0
 30
0.0
  3
AI9-BLK49
  1

  0
INSERT
  5
1C0
330
1BC
100
AcDbEntity
  8
0
 62
     7
100
AcDbBlockReference
  2
AI9-BLK50
 10
0.0
 20
0.0
 30
0.0
  0
ENDBLK
  5
1C4
330
1BC
100
AcDbEntity
  8
0
100
AcDbBlockEnd
  0
BLOCK
  5
1C1
330
1BF
100
AcDbEntity
  8
0
 62
     7
100
AcDbBlockBegin
  2
AI9-BLK50
 70
     0
 71
     1
 10
0.0
 20
0.0
 30
0.0
  3
AI9-BLK50
  1

  0
MTEXT
  5
1C2
330
1BF
100
AcDbEntity
  8
0
 62
     7
100
AcDbMText
 10
-14.55216946072048
 20
1.350148625317085
 30
0.0
 40
2.624833955178184
 41
0.0
 71
     1
 72
     2
  1
\W0.75;\fMS Gothic|b0|i0|c128;高輝度反射シート（白）
  7
KANJISTD
 11
1.000000999999999
 21
0.0
 31
0.0
 73
     1
 44
1.0
  0
ENDBLK
  5
1C3
330
1BF
100
AcDbEntity
  8
0
100
AcDbBlockEnd
  0
BLOCK
  5
1C7
330
1C5
100
AcDbEntity
  8
0
 62
     7
100
AcDbBlockBegin
  2
AI9-BLK51
 70
     0
 71
     1
 10
0.0
 20
0.0
 30
0.0
  3
AI9-BLK51
  1

  0
INSERT
  5
1C9
330
1C5
100
AcDbEntity
  8
0
 62
     7
100
AcDbBlockReference
  2
AI9-BLK52
 10
0.0
 20
0.0
 30
0.0
  0
ENDBLK
  5
1CD
330
1C5
100
AcDbEntity
  8
0
100
AcDbBlockEnd
  0
BLOCK
  5
1CA
330
1C8
100
AcDbEntity
  8
0
 62
     7
100
AcDbBlockBegin
  2
AI9-BLK52
 70
     0
 71
     1
 10
0.0
 20
0.0
 30
0.0
  3
AI9-BLK52
  1

  0
MTEXT
  5
1CB
330
1C8
100
AcDbEntity
  8
0
 62
     7
100
AcDbMText
 10
-1.350149045860947
 20
-0.79375
 30
0.0
 40
2.624834375722067
 41
0.0
 71
     1
 72
     2
  1
\W0.90;\fMS Gothic|b0|i0|c128;6
  7
STD
 11
0.0
 21
1.0
 31
0.0
 73
     1
 44
1.0
  0
ENDBLK
  5
1CC
330
1C8
100
AcDbEntity
  8
0
100
AcDbBlockEnd
  0
BLOCK
  5
1D0
330
1CE
100
AcDbEntity
  8
0
 62
     7
100
AcDbBlockBegin
  2
AI9-BLK53
 70
     0
 71
     1
 10
0.0
 20
0.0
 30
0.0
  3
AI9-BLK53
  1

  0
INSERT
  5
1D2
330
1CE
100
AcDbEntity
  8
0
 62
     7
100
AcDbBlockReference
  2
AI9-BLK54
 10
0.0
 20
0.0
 30
0.0
  0
ENDBLK
  5
1D6
330
1CE
100
AcDbEntity
  8
0
100
AcDbBlockEnd
  0
BLOCK
  5
1D3
330
1D1
100
AcDbEntity
  8
0
 62
     7
100
AcDbBlockBegin
  2
AI9-BLK54
 70
     0
 71
     1
 10
0.0
 20
0.0
 30
0.0
  3
AI9-BLK54
  1

  0
MTEXT
  5
1D4
330
1D1
100
AcDbEntity
  8
0
 62
     7
100
AcDbMText
 10
-1.587499999999999
 20
1.350149045860947
 30
0.0
 40
2.624834375722067
 41
0.0
 71
     1
 72
     2
  1
\W0.90;\fMS Gothic|b0|i0|c128;85
  7
STD
 11
1.000000999999999
 21
0.0
 31
0.0
 73
     1
 44
1.0
  0
ENDBLK
  5
1D5
330
1D1
100
AcDbEntity
  8
0
100
AcDbBlockEnd
  0
BLOCK
  5
1D9
330
1D7
100
AcDbEntity
  8
0
 62
     7
100
AcDbBlockBegin
  2
AI9-BLK55
 70
     0
 71
     1
 10
0.0
 20
0.0
 30
0.0
  3
AI9-BLK55
  1

  0
INSERT
  5
1E4
330
1D7
100
AcDbEntity
  8
0
 62
     7
100
AcDbBlockReference
  2
AI9-BLK58
 10
-0.3491604275173611
 20
0.0
 30
0.0
  0
INSERT
  5
1DB
330
1D7
100
AcDbEntity
  8
0
 62
     7
100
AcDbBlockReference
  2
AI9-BLK56
 10
1.14291042751736
 20
0.0
 30
0.0
  0
ENDBLK
  5
1EC
330
1D7
100
AcDbEntity
  8
0
100
AcDbBlockEnd
  0
BLOCK
  5
1DC
330
1DA
100
AcDbEntity
  8
0
 62
     7
100
AcDbBlockBegin
  2
AI9-BLK56
 70
     0
 71
     1
 10
0.0
 20
0.0
 30
0.0
  3
AI9-BLK56
  1

  0
INSERT
  5
1DE
330
1DA
100
AcDbEntity
  8
0
 62
     7
100
AcDbBlockReference
  2
AI9-BLK57
 10
0.0
 20
0.0
 30
0.0
  0
ENDBLK
  5
1E2
330
1DA
100
AcDbEntity
  8
0
100
AcDbBlockEnd
  0
BLOCK
  5
1DF
330
1DD
100
AcDbEntity
  8
0
 62
     7
100
AcDbBlockBegin
  2
AI9-BLK57
 70
     0
 71
     1
 10
0.0
 20
0.0
 30
0.0
  3
AI9-BLK57
  1

  0
MTEXT
  5
1E0
330
1DD
100
AcDbEntity
  8
0
 62
     7
100
AcDbMText
 10
-0.79375
 20
1.350149045860947
 30
0.0
 40
2.624834375722067
 41
0.0
 71
     1
 72
     2
  1
\W0.90;\fMS Gothic|b0|i0|c128;5
  7
STD
 11
1.000000999999999
 21
0.0
 31
0.0
 73
     1
 44
1.0
  0
ENDBLK
  5
1E1
330
1DD
100
AcDbEntity
  8
0
100
AcDbBlockEnd
  0
BLOCK
  5
1E5
330
1E3
100
AcDbEntity
  8
0
 62
     7
100
AcDbBlockBegin
  2
AI9-BLK58
 70
     0
 71
     1
 10
0.0
 20
0.0
 30
0.0
  3
AI9-BLK58
  1

  0
INSERT
  5
1E7
330
1E3
100
AcDbEntity
  8
0
 62
     7
100
AcDbBlockReference
  2
AI9-BLK59
 10
0.0
 20
0.0
 30
0.0
  0
ENDBLK
  5
1EB
330
1E3
100
AcDbEntity
  8
0
100
AcDbBlockEnd
  0
BLOCK
  5
1E8
330
1E6
100
AcDbEntity
  8
0
 62
     7
100
AcDbBlockBegin
  2
AI9-BLK59
 70
     0
 71
     1
 10
0.0
 20
0.0
 30
0.0
  3
AI9-BLK59
  1

  0
MTEXT
  5
1E9
330
1E6
100
AcDbEntity
  8
0
 62
     7
100
AcDbMText
 10
-1.587499999999999
 20
1.350149045860947
 30
0.0
 40
2.624834375722067
 41
0.0
 71
     1
 72
     2
  1
\W0.90;\fMS Gothic|b0|i0|c128;3.
  7
STD
 11
1.000000999999999
 21
0.0
 31
0.0
 73
     1
 44
1.0
  0
ENDBLK
  5
1EA
330
1E6
100
AcDbEntity
  8
0
100
AcDbBlockEnd
  0
BLOCK
  5
1F4
330
1F2
100
AcDbEntity
  8
0
 62
     7
100
AcDbBlockBegin
  2
AI9-BLK60
 70
     0
 71
     1
 10
0.0
 20
0.0
 30
0.0
  3
AI9-BLK60
  1

  0
INSERT
  5
1F6
330
1F2
100
AcDbEntity
  8
0
 62
     7
100
AcDbBlockReference
  2
AI9-BLK61
 10
0.0
 20
0.0
 30
0.0
  0
ENDBLK
  5
1FA
330
1F2
100
AcDbEntity
  8
0
100
AcDbBlockEnd
  0
BLOCK
  5
1F7
330
1F5
100
AcDbEntity
  8
0
 62
     7
100
AcDbBlockBegin
  2
AI9-BLK61
 70
     0
 71
     1
 10
0.0
 20
0.0
 30
0.0
  3
AI9-BLK61
  1

  0
MTEXT
  5
1F8
330
1F5
100
AcDbEntity
  8
0
 62
     7
100
AcDbMText
 10
-1.350149045860957
 20
-1.587499999999999
 30
0.0
 40
2.624834375722067
 41
0.0
 71
     1
 72
     2
  1
\W0.90;\fMS Gothic|b0|i0|c128;50
  7
STD
 11
0.0
 21
1.0
 31
0.0
 73
     1
 44
1.0
  0
ENDBLK
  5
1F9
330
1F5
100
AcDbEntity
  8
0
100
AcDbBlockEnd
  0
BLOCK
  5
1FD
330
1FB
100
AcDbEntity
  8
0
 62
     7
100
AcDbBlockBegin
  2
AI9-BLK62
 70
     0
 71
     1
 10
0.0
 20
0.0
 30
0.0
  3
AI9-BLK62
  1

  0
INSERT
  5
1FF
330
1FB
100
AcDbEntity
  8
0
 62
     7
100
AcDbBlockReference
  2
AI9-BLK63
 10
0.0
 20
0.0
 30
0.0
  0
ENDBLK
  5
203
330
1FB
100
AcDbEntity
  8
0
100
AcDbBlockEnd
  0
BLOCK
  5
200
330
1FE
100
AcDbEntity
  8
0
 62
     7
100
AcDbBlockBegin
  2
AI9-BLK63
 70
     0
 71
     1
 10
0.0
 20
0.0
 30
0.0
  3
AI9-BLK63
  1

  0
MTEXT
  5
201
330
1FE
100
AcDbEntity
  8
0
 62
     7
100
AcDbMText
 10
-1.350149045860957
 20
-1.587499999999999
 30
0.0
 40
2.624834375722067
 41
0.0
 71
     1
 72
     2
  1
\W0.90;\fMS Gothic|b0|i0|c128;50
  7
STD
 11
0.0
 21
1.0
 31
0.0
 73
     1
 44
1.0
  0
ENDBLK
  5
202
330
1FE
100
AcDbEntity
  8
0
100
AcDbBlockEnd
  0
BLOCK
  5
206
330
204
100
AcDbEntity
  8
0
 62
     7
100
AcDbBlockBegin
  2
AI9-BLK64
 70
     0
 71
     1
 10
0.0
 20
0.0
 30
0.0
  3
AI9-BLK64
  1

  0
INSERT
  5
208
330
204
100
AcDbEntity
  8
0
 62
     7
100
AcDbBlockReference
  2
AI9-BLK65
 10
0.0
 20
0.0
 30
0.0
  0
ENDBLK
  5
20C
330
204
100
AcDbEntity
  8
0
100
AcDbBlockEnd
  0
BLOCK
  5
209
330
207
100
AcDbEntity
  8
0
 62
     7
100
AcDbBlockBegin
  2
AI9-BLK65
 70
     0
 71
     1
 10
0.0
 20
0.0
 30
0.0
  3
AI9-BLK65
  1

  0
MTEXT
  5
20A
330
207
100
AcDbEntity
  8
0
 62
     7
100
AcDbMText
 10
-1.350149045860957
 20
-1.587499999999999
 30
0.0
 40
2.624834375722067
 41
0.0
 71
     1
 72
     2
  1
\W0.90;\fMS Gothic|b0|i0|c128;50
  7
STD
 11
0.0
 21
1.0
 31
0.0
 73
     1
 44
1.0
  0
ENDBLK
  5
20B
330
207
100
AcDbEntity
  8
0
100
AcDbBlockEnd
  0
BLOCK
  5
20F
330
20D
100
AcDbEntity
  8
0
 62
     7
100
AcDbBlockBegin
  2
AI9-BLK66
 70
     0
 71
     1
 10
0.0
 20
0.0
 30
0.0
  3
AI9-BLK66
  1

  0
INSERT
  5
211
330
20D
100
AcDbEntity
  8
0
 62
     7
100
AcDbBlockReference
  2
AI9-BLK67
 10
0.0
 20
0.0
 30
0.0
  0
ENDBLK
  5
215
330
20D
100
AcDbEntity
  8
0
100
AcDbBlockEnd
  0
BLOCK
  5
212
330
210
100
AcDbEntity
  8
0
 62
     7
100
AcDbBlockBegin
  2
AI9-BLK67
 70
     0
 71
     1
 10
0.0
 20
0.0
 30
0.0
  3
AI9-BLK67
  1

  0
MTEXT
  5
213
330
210
100
AcDbEntity
  8
0
 62
     7
100
AcDbMText
 10
-1.350149045860957
 20
-1.587499999999999
 30
0.0
 40
2.624834375722067
 41
0.0
 71
     1
 72
     2
  1
\W0.90;\fMS Gothic|b0|i0|c128;50
  7
STD
 11
0.0
 21
1.0
 31
0.0
 73
     1
 44
1.0
  0
ENDBLK
  5
214
330
210
100
AcDbEntity
  8
0
100
AcDbBlockEnd
  0
BLOCK
  5
218
330
216
100
AcDbEntity
  8
0
 62
     7
100
AcDbBlockBegin
  2
AI9-BLK68
 70
     0
 71
     1
 10
0.0
 20
0.0
 30
0.0
  3
AI9-BLK68
  1

  0
INSERT
  5
21A
330
216
100
AcDbEntity
  8
0
 62
     7
100
AcDbBlockReference
  2
AI9-BLK69
 10
0.0
 20
0.0
 30
0.0
  0
ENDBLK
  5
21E
330
216
100
AcDbEntity
  8
0
100
AcDbBlockEnd
  0
BLOCK
  5
21B
330
219
100
AcDbEntity
  8
0
 62
     7
100
AcDbBlockBegin
  2
AI9-BLK69
 70
     0
 71
     1
 10
0.0
 20
0.0
 30
0.0
  3
AI9-BLK69
  1

  0
MTEXT
  5
21C
330
219
100
AcDbEntity
  8
0
 62
     7
100
AcDbMText
 10
-1.350149045860957
 20
-1.587499999999999
 30
0.0
 40
2.624834375722067
 41
0.0
 71
     1
 72
     2
  1
\W0.90;\fMS Gothic|b0|i0|c128;50
  7
STD
 11
0.0
 21
1.0
 31
0.0
 73
     1
 44
1.0
  0
ENDBLK
  5
21D
330
219
100
AcDbEntity
  8
0
100
AcDbBlockEnd
  0
BLOCK
  5
221
330
21F
100
AcDbEntity
  8
0
 62
     7
100
AcDbBlockBegin
  2
AI9-BLK70
 70
     0
 71
     1
 10
0.0
 20
0.0
 30
0.0
  3
AI9-BLK70
  1

  0
INSERT
  5
223
330
21F
100
AcDbEntity
  8
0
 62
     7
100
AcDbBlockReference
  2
AI9-BLK71
 10
0.0
 20
0.0
 30
0.0
  0
ENDBLK
  5
227
330
21F
100
AcDbEntity
  8
0
100
AcDbBlockEnd
  0
BLOCK
  5
224
330
222
100
AcDbEntity
  8
0
 62
     7
100
AcDbBlockBegin
  2
AI9-BLK71
 70
     0
 71
     1
 10
0.0
 20
0.0
 30
0.0
  3
AI9-BLK71
  1

  0
MTEXT
  5
225
330
222
100
AcDbEntity
  8
0
 62
     7
100
AcDbMText
 10
-1.350149045860957
 20
-1.587499999999999
 30
0.0
 40
2.624834375722067
 41
0.0
 71
     1
 72
     2
  1
\W0.90;\fMS Gothic|b0|i0|c128;50
  7
STD
 11
0.0
 21
1.0
 31
0.0
 73
     1
 44
1.0
  0
ENDBLK
  5
226
330
222
100
AcDbEntity
  8
0
100
AcDbBlockEnd
  0
BLOCK
  5
22A
330
228
100
AcDbEntity
  8
0
 62
     7
100
AcDbBlockBegin
  2
AI9-BLK72
 70
     0
 71
     1
 10
0.0
 20
0.0
 30
0.0
  3
AI9-BLK72
  1

  0
INSERT
  5
23E
330
228
100
AcDbEntity
  8
0
 62
     7
100
AcDbBlockReference
  2
AI9-BLK77
 10
0.0
 20
-2.381249999999999
 30
0.0
  0
INSERT
  5
235
330
228
100
AcDbEntity
  8
0
 62
     7
100
AcDbBlockReference
  2
AI9-BLK75
 10
0.0
 20
0.79375
 30
0.0
  0
INSERT
  5
22C
330
228
100
AcDbEntity
  8
0
 62
     7
100
AcDbBlockReference
  2
AI9-BLK73
 10
0.0
 20
3.174999999999999
 30
0.0
  0
ENDBLK
  5
246
330
228
100
AcDbEntity
  8
0
100
AcDbBlockEnd
  0
BLOCK
  5
22D
330
22B
100
AcDbEntity
  8
0
 62
     7
100
AcDbBlockBegin
  2
AI9-BLK73
 70
     0
 71
     1
 10
0.0
 20
0.0
 30
0.0
  3
AI9-BLK73
  1

  0
INSERT
  5
22F
330
22B
100
AcDbEntity
  8
0
 62
     7
100
AcDbBlockReference
  2
AI9-BLK74
 10
0.0
 20
0.0
 30
0.0
  0
ENDBLK
  5
233
330
22B
100
AcDbEntity
  8
0
100
AcDbBlockEnd
  0
BLOCK
  5
230
330
22E
100
AcDbEntity
  8
0
 62
     7
100
AcDbBlockBegin
  2
AI9-BLK74
 70
     0
 71
     1
 10
0.0
 20
0.0
 30
0.0
  3
AI9-BLK74
  1

  0
MTEXT
  5
231
330
22E
100
AcDbEntity
  8
0
 62
     7
100
AcDbMText
 10
-1.350149045860957
 20
-0.79375
 30
0.0
 40
2.624834375722067
 41
0.0
 71
     1
 72
     2
  1
\W0.90;\fMS Gothic|b0|i0|c128;2
  7
STD
 11
0.0
 21
1.0
 31
0.0
 73
     1
 44
1.0
  0
ENDBLK
  5
232
330
22E
100
AcDbEntity
  8
0
100
AcDbBlockEnd
  0
BLOCK
  5
236
330
234
100
AcDbEntity
  8
0
 62
     7
100
AcDbBlockBegin
  2
AI9-BLK75
 70
     0
 71
     1
 10
0.0
 20
0.0
 30
0.0
  3
AI9-BLK75
  1

  0
INSERT
  5
238
330
234
100
AcDbEntity
  8
0
 62
     7
100
AcDbBlockReference
  2
AI9-BLK76
 10
0.0
 20
0.0
 30
0.0
  0
ENDBLK
  5
23C
330
234
100
AcDbEntity
  8
0
100
AcDbBlockEnd
  0
BLOCK
  5
239
330
237
100
AcDbEntity
  8
0
 62
     7
100
AcDbBlockBegin
  2
AI9-BLK76
 70
     0
 71
     1
 10
0.0
 20
0.0
 30
0.0
  3
AI9-BLK76
  1

  0
MTEXT
  5
23A
330
237
100
AcDbEntity
  8
0
 62
     7
100
AcDbMText
 10
-1.350149045860957
 20
-1.587499999999999
 30
0.0
 40
2.624834375722067
 41
0.0
 71
     1
 72
     2
  1
\W0.90;\fMS Gothic|b0|i0|c128;±
  7
KANJISTD
 11
0.0
 21
1.0
 31
0.0
 73
     1
 44
1.0
  0
ENDBLK
  5
23B
330
237
100
AcDbEntity
  8
0
100
AcDbBlockEnd
  0
BLOCK
  5
23F
330
23D
100
AcDbEntity
  8
0
 62
     7
100
AcDbBlockBegin
  2
AI9-BLK77
 70
     0
 71
     1
 10
0.0
 20
0.0
 30
0.0
  3
AI9-BLK77
  1

  0
INSERT
  5
241
330
23D
100
AcDbEntity
  8
0
 62
     7
100
AcDbBlockReference
  2
AI9-BLK78
 10
0.0
 20
0.0
 30
0.0
  0
ENDBLK
  5
245
330
23D
100
AcDbEntity
  8
0
100
AcDbBlockEnd
  0
BLOCK
  5
242
330
240
100
AcDbEntity
  8
0
 62
     7
100
AcDbBlockBegin
  2
AI9-BLK78
 70
     0
 71
     1
 10
0.0
 20
0.0
 30
0.0
  3
AI9-BLK78
  1

  0
MTEXT
  5
243
330
240
100
AcDbEntity
  8
0
 62
     7
100
AcDbMText
 10
-1.350149045860957
 20
-1.587499999999999
 30
0.0
 40
2.624834375722067
 41
0.0
 71
     1
 72
     2
  1
\W0.90;\fMS Gothic|b0|i0|c128;50
  7
STD
 11
0.0
 21
1.0
 31
0.0
 73
     1
 44
1.0
  0
ENDBLK
  5
244
330
240
100
AcDbEntity
  8
0
100
AcDbBlockEnd
  0
BLOCK
  5
249
330
247
100
AcDbEntity
  8
0
 62
     7
100
AcDbBlockBegin
  2
AI9-BLK79
 70
     0
 71
     1
 10
0.0
 20
0.0
 30
0.0
  3
AI9-BLK79
  1

  0
LINE
  5
24E
330
247
100
AcDbEntity
  8
0
 62
     7
100
AcDbLine
 10
10.25432671440972
 20
0.989431423611111
 30
0.0
 11
-9.523277452256943
 21
0.989431423611111
 31
0.0
  0
LINE
  5
24D
330
247
100
AcDbEntity
  8
0
 62
     7
100
AcDbLine
 10
10.25432671440972
 20
-0.989431423611111
 30
0.0
 11
-9.640927463107637
 21
-0.989431423611111
 31
0.0
  0
LINE
  5
24C
330
247
100
AcDbEntity
  8
0
 62
     7
100
AcDbLine
 10
-10.25415445963541
 20
0.4919596354166666
 30
0.0
 11
-10.25415445963541
 21
-0.5057400173611111
 31
0.0
  0
SPLINE
  5
24B
330
247
100
AcDbEntity
  8
0
 62
     7
100
AcDbSpline
210
0.0
220
0.0
230
1.0
 70
     8
 71
     3
 72
     8
 73
     4
 74
     0
 42
0.0000000001
 43
0.0000000001
 40
0.0
 40
0.0
 40
0.0
 40
0.0
 40
1.0
 40
1.0
 40
1.0
 40
1.0
 10
-10.25415445963541
 20
-0.5057400173611111
 30
0.0
 10
-10.17732883029513
 20
-0.7641221788194443
 30
0.0
 10
-9.935655381944442
 20
-0.9549804687499998
 30
0.0
 10
-9.640927463107637
 20
-0.989431423611111
 30
0.0
  0
SPLINE
  5
24A
330
247
100
AcDbEntity
  8
0
 62
     7
100
AcDbSpline
210
0.0
220
0.0
230
1.0
 70
     8
 71
     3
 72
     8
 73
     4
 74
     0
 42
0.0000000001
 43
0.0000000001
 40
0.0
 40
0.0
 40
0.0
 40
0.0
 40
1.0
 40
1.0
 40
1.0
 40
1.0
 10
-9.523277452256943
 20
0.989431423611111
 30
0.0
 10
-9.865375434027777
 20
0.9928765190972221
 30
0.0
 10
-10.16630452473958
 20
0.7861707899305555
 30
0.0
 10
-10.25415445963541
 20
0.4874810112847222
 30
0.0
  0
ENDBLK
  5
24F
330
247
100
AcDbEntity
  8
0
100
AcDbBlockEnd
  0
BLOCK
  5
25D
330
25B
100
AcDbEntity
  8
0
 62
     7
100
AcDbBlockBegin
  2
AI9-BLK80
 70
     0
 71
     1
 10
0.0
 20
0.0
 30
0.0
  3
AI9-BLK80
  1

  0
INSERT
  5
271
330
25B
100
AcDbEntity
  8
0
  6
AI9-LType1
 62
     7
100
AcDbBlockReference
  2
AI9-BLK85
 10
-2.381249999999999
 20
0.0
 30
0.0
  0
INSERT
  5
268
330
25B
100
AcDbEntity
  8
0
  6
AI9-LType1
 62
     7
100
AcDbBlockReference
  2
AI9-BLK83
 10
0.79375
 20
0.0
 30
0.0
  0
INSERT
  5
25F
330
25B
100
AcDbEntity
  8
0
  6
AI9-LType1
 62
     7
100
AcDbBlockReference
  2
AI9-BLK81
 10
3.174999999999999
 20
0.0
 30
0.0
  0
ENDBLK
  5
279
330
25B
100
AcDbEntity
  8
0
100
AcDbBlockEnd
  0
BLOCK
  5
260
330
25E
100
AcDbEntity
  8
0
 62
     7
100
AcDbBlockBegin
  2
AI9-BLK81
 70
     0
 71
     1
 10
0.0
 20
0.0
 30
0.0
  3
AI9-BLK81
  1

  0
INSERT
  5
262
330
25E
100
AcDbEntity
  8
0
  6
AI9-LType1
 62
     7
100
AcDbBlockReference
  2
AI9-BLK82
 10
0.0
 20
0.0
 30
0.0
  0
ENDBLK
  5
266
330
25E
100
AcDbEntity
  8
0
100
AcDbBlockEnd
  0
BLOCK
  5
263
330
261
100
AcDbEntity
  8
0
 62
     7
100
AcDbBlockBegin
  2
AI9-BLK82
 70
     0
 71
     1
 10
0.0
 20
0.0
 30
0.0
  3
AI9-BLK82
  1

  0
MTEXT
  5
264
330
261
100
AcDbEntity
  8
0
  6
AI9-LType1
 62
     7
100
AcDbMText
 10
-0.79375
 20
1.350149045860967
 30
0.0
 40
2.624834375722067
 41
0.0
 71
     1
 72
     2
  1
\W0.90;\fMS Gothic|b0|i0|c128;2
  7
STD
 11
1.000000999999999
 21
0.0
 31
0.0
 73
     1
 44
1.0
  0
ENDBLK
  5
265
330
261
100
AcDbEntity
  8
0
100
AcDbBlockEnd
  0
BLOCK
  5
269
330
267
100
AcDbEntity
  8
0
 62
     7
100
AcDbBlockBegin
  2
AI9-BLK83
 70
     0
 71
     1
 10
0.0
 20
0.0
 30
0.0
  3
AI9-BLK83
  1

  0
INSERT
  5
26B
330
267
100
AcDbEntity
  8
0
  6
AI9-LType1
 62
     7
100
AcDbBlockReference
  2
AI9-BLK84
 10
0.0
 20
0.0
 30
0.0
  0
ENDBLK
  5
26F
330
267
100
AcDbEntity
  8
0
100
AcDbBlockEnd
  0
BLOCK
  5
26C
330
26A
100
AcDbEntity
  8
0
 62
     7
100
AcDbBlockBegin
  2
AI9-BLK84
 70
     0
 71
     1
 10
0.0
 20
0.0
 30
0.0
  3
AI9-BLK84
  1

  0
MTEXT
  5
26D
330
26A
100
AcDbEntity
  8
0
  6
AI9-LType1
 62
     7
100
AcDbMText
 10
-1.587499999999999
 20
1.350149045860967
 30
0.0
 40
2.624834375722067
 41
0.0
 71
     1
 72
     2
  1
\W0.90;\fMS Gothic|b0|i0|c128;±
  7
KANJISTD
 11
1.000000999999999
 21
0.0
 31
0.0
 73
     1
 44
1.0
  0
ENDBLK
  5
26E
330
26A
100
AcDbEntity
  8
0
100
AcDbBlockEnd
  0
BLOCK
  5
272
330
270
100
AcDbEntity
  8
0
 62
     7
100
AcDbBlockBegin
  2
AI9-BLK85
 70
     0
 71
     1
 10
0.0
 20
0.0
 30
0.0
  3
AI9-BLK85
  1

  0
INSERT
  5
274
330
270
100
AcDbEntity
  8
0
  6
AI9-LType1
 62
     7
100
AcDbBlockReference
  2
AI9-BLK86
 10
0.0
 20
0.0
 30
0.0
  0
ENDBLK
  5
278
330
270
100
AcDbEntity
  8
0
100
AcDbBlockEnd
  0
BLOCK
  5
275
330
273
100
AcDbEntity
  8
0
 62
     7
100
AcDbBlockBegin
  2
AI9-BLK86
 70
     0
 71
     1
 10
0.0
 20
0.0
 30
0.0
  3
AI9-BLK86
  1

  0
MTEXT
  5
276
330
273
100
AcDbEntity
  8
0
  6
AI9-LType1
 62
     7
100
AcDbMText
 10
-1.587499999999999
 20
1.350149045860967
 30
0.0
 40
2.624834375722067
 41
0.0
 71
     1
 72
     2
  1
\W0.90;\fMS Gothic|b0|i0|c128;76
  7
STD
 11
1.000000999999999
 21
0.0
 31
0.0
 73
     1
 44
1.0
  0
ENDBLK
  5
277
330
273
100
AcDbEntity
  8
0
100
AcDbBlockEnd
  0
BLOCK
  5
281
330
27F
100
AcDbEntity
  8
0
 62
     7
100
AcDbBlockBegin
  2
AI9-BLK87
 70
     0
 71
     1
 10
0.0
 20
0.0
 30
0.0
  3
AI9-BLK87
  1

  0
LINE
  5
286
330
27F
100
AcDbEntity
  8
0
  6
AI9-LType1
 62
   222
100
AcDbLine
 10
0.02015380859375
 20
11.31610514322916
 30
0.0
 11
0.02015380859375
 21
-11.31610514322916
 31
0.0
  0
SPLINE
  5
285
330
27F
100
AcDbEntity
  8
0
 62
     7
100
AcDbSpline
210
0.0
220
0.0
230
1.0
 70
     9
 71
     3
 72
    35
 73
    31
 74
     0
 42
0.0000000001
 43
0.0000000001
 40
0.0
 40
0.0
 40
0.0
 40
0.0
 40
1.0
 40
1.0
 40
1.0
 40
2.0
 40
2.0
 40
2.0
 40
3.0
 40
3.0
 40
3.0
 40
4.0
 40
4.0
 40
4.0
 40
5.0
 40
5.0
 40
5.0
 40
6.0
 40
6.0
 40
6.0
 40
7.0
 40
7.0
 40
7.0
 40
8.0
 40
8.0
 40
8.0
 40
9.0
 40
9.0
 40
9.0
 40
10.0
 40
10.0
 40
10.0
 40
10.0
 10
-5.377621799045138
 20
-0.0093017578125
 30
0.0
 10
-2.455147298177083
 20
-0.2952446831597222
 30
0.0
 10
-2.771062554253472
 20
-3.030650499131944
 30
0.0
 10
-2.771062554253472
 20
-3.030650499131944
 30
0.0
 10
-2.771062554253472
 20
-4.56440700954861
 30
0.0
 10
-1.528072102864583
 20
-5.80774197048611
 30
0.0
 10
0.0056844075520833
 20
-5.80774197048611
 30
0.0
 10
1.539440917968749
 20
-5.80774197048611
 30
0.0
 10
2.782431369357638
 20
-4.56440700954861
 30
0.0
 10
2.782431369357638
 20
-3.030650499131944
 30
0.0
 10
2.782431369357638
 20
-3.030650499131944
 30
0.0
 10
2.498555501302083
 20
-0.2397786458333333
 30
0.0
 10
5.377277289496527
 20
-0.0093017578125
 30
0.0
 10
6.906210666232638
 20
0.1126546223958333
 30
0.0
 10
8.154368760850694
 20
1.233688693576388
 30
0.0
 10
8.154368760850694
 20
2.767445203993055
 30
0.0
 10
8.154368760850694
 20
4.301201714409721
 30
0.0
 10
6.911033799913194
 20
5.54419216579861
 30
0.0
 10
5.377277289496527
 20
5.54419216579861
 30
0.0
 10
5.377277289496527
 20
5.54419216579861
 30
0.0
 10
-0.1603691948784722
 20
5.661669921874999
 30
0.0
 10
-0.1603691948784722
 20
5.661669921874999
 30
0.0
 10
-0.1603691948784722
 20
5.661669921874999
 30
0.0
 10
-5.377621799045138
 20
5.54419216579861
 30
0.0
 10
-5.377621799045138
 20
5.54419216579861
 30
0.0
 10
-6.911378309461804
 20
5.54419216579861
 30
0.0
 10
-8.154368760850694
 20
4.301201714409721
 30
0.0
 10
-8.154368760850694
 20
2.767445203993055
 30
0.0
 10
-8.154368760850694
 20
1.233688693576388
 30
0.0
 10
-6.90379909939236
 20
0.1395263671875
 30
0.0
 10
-5.377621799045138
 20
-0.0093017578125
 30
0.0
  0
SPLINE
  5
284
330
27F
100
AcDbEntity
  8
0
  6
AI9-LType3
 62
     7
100
AcDbSpline
210
0.0
220
0.0
230
1.0
 70
     9
 71
     3
 72
    50
 73
    46
 74
     0
 42
0.0000000001
 43
0.0000000001
 40
0.0
 40
0.0
 40
0.0
 40
0.0
 40
1.0
 40
1.0
 40
1.0
 40
2.0
 40
2.0
 40
2.0
 40
3.0
 40
3.0
 40
3.0
 40
4.0
 40
4.0
 40
4.0
 40
5.0
 40
5.0
 40
5.0
 40
6.0
 40
6.0
 40
6.0
 40
7.0
 40
7.0
 40
7.0
 40
8.0
 40
8.0
 40
8.0
 40
9.0
 40
9.0
 40
9.0
 40
10.0
 40
10.0
 40
10.0
 40
11.0
 40
11.0
 40
11.0
 40
12.0
 40
12.0
 40
12.0
 40
13.0
 40
13.0
 40
13.0
 40
14.0
 40
14.0
 40
14.0
 40
15.0
 40
15.0
 40
15.0
 40
15.0
 10
2.18160671657986
 20
-3.038574218749999
 30
0.0
 10
2.178850640190971
 20
-2.995166015624999
 30
0.0
 10
2.17540554470486
 20
-2.933154296874999
 30
0.0
 10
2.17540554470486
 20
-2.834969075520833
 30
0.0
 10
2.17540554470486
 20
-2.367125108506944
 30
0.0
 10
2.262566460503471
 20
-1.351855468749999
 30
0.0
 10
2.942283799913194
 20
-0.5367458767361111
 30
0.0
 10
3.49625515407986
 20
0.1274685329861111
 30
0.0
 10
4.299651421440971
 20
0.5064290364583333
 30
0.0
 10
5.329734971788194
 20
0.5887668185763888
 30
0.0
 10
6.618889702690971
 20
0.6917751736111111
 30
0.0
 10
7.554577636718748
 20
1.607826063368055
 30
0.0
 10
7.554577636718748
 20
2.767445203993055
 30
0.0
 10
7.554577636718748
 20
3.967716471354166
 30
0.0
 10
6.577548556857638
 20
4.944401041666666
 30
0.0
 10
5.377277289496527
 20
4.944401041666666
 30
0.0
 10
5.377277289496527
 20
4.944401041666666
 30
0.0
 10
-0.1603691948784722
 20
5.061534288194444
 30
0.0
 10
-0.1603691948784722
 20
5.061534288194444
 30
0.0
 10
-0.1603691948784722
 20
5.061534288194444
 30
0.0
 10
-5.377621799045138
 20
4.944401041666666
 30
0.0
 10
-5.377621799045138
 20
4.944401041666666
 30
0.0
 10
-6.577893066406249
 20
4.944401041666666
 30
0.0
 10
-7.554233127170138
 20
3.967716471354166
 30
0.0
 10
-7.554233127170138
 20
2.767445203993055
 30
0.0
 10
-7.554233127170138
 20
1.479668511284722
 30
0.0
 10
-6.430098470052082
 20
0.6962537977430556
 30
0.0
 10
-5.31939968532986
 20
0.5877332899305556
 30
0.0
 10
-3.047359212239582
 20
0.3655246310763888
 30
0.0
 10
-2.413117133246527
 20
-1.148594835069444
 30
0.0
 10
-2.237072753906249
 20
-2.03122829861111
 30
0.0
 10
-2.175750054253472
 20
-2.339908854166666
 30
0.0
 10
-2.150945366753472
 20
-2.584510633680555
 30
0.0
 10
-2.150945366753472
 20
-2.779503038194444
 30
0.0
 10
-2.150945366753472
 20
-2.88699001736111
 30
0.0
 10
-2.165414767795138
 20
-2.963471137152777
 30
0.0
 10
-2.17850613064236
 20
-3.042708333333333
 30
0.0
 10
-2.177817111545138
 20
-3.04201931423611
 30
0.0
 10
-2.170926920572916
 20
-3.030650499131944
 30
0.0
 10
-2.170926920572916
 20
-3.030650499131944
 30
0.0
 10
-2.170926920572916
 20
-4.231266276041666
 30
0.0
 10
-1.194586859809027
 20
-5.207606336805555
 30
0.0
 10
0.0056844075520833
 20
-5.207606336805555
 30
0.0
 10
1.203199598524305
 20
-5.207606336805555
 30
0.0
 10
2.177472601996527
 20
-4.235400390624999
 30
0.0
 10
2.18160671657986
 20
-3.038574218749999
 30
0.0
  0
CIRCLE
  5
282
330
27F
100
AcDbEntity
  8
0
 62
     7
100
AcDbCircle
 10
-0.0253214518229167
 20
3.471278211805555
 30
0.0
 40
0.2762966579861111
  0
ENDBLK
  5
287
330
27F
100
AcDbEntity
  8
0
100
AcDbBlockEnd
  0
BLOCK
  5
2D0
330
2CE
100
AcDbEntity
  8
0
 62
     7
100
AcDbBlockBegin
  2
AI9-BLK88
 70
     0
 71
     1
 10
0.0
 20
0.0
 30
0.0
  3
AI9-BLK88
  1

  0
CIRCLE
  5
2D2
330
2CE
100
AcDbEntity
  8
0
 62
     7
100
AcDbCircle
 10
0.0
 20
0.0
 30
0.0
 40
1.999964057074652
  0
CIRCLE
  5
2D1
330
2CE
100
AcDbEntity
  8
0
 62
   189
100
AcDbCircle
 10
-0.0000861273871528
 20
0.0
 30
0.0
 40
1.349960666232638
  0
ENDBLK
  5
2D3
330
2CE
100
AcDbEntity
  8
0
100
AcDbBlockEnd
  0
BLOCK
  5
2D6
330
2D4
100
AcDbEntity
  8
0
 62
     7
100
AcDbBlockBegin
  2
AI9-BLK89
 70
     0
 71
     1
 10
0.0
 20
0.0
 30
0.0
  3
AI9-BLK89
  1

  0
CIRCLE
  5
2D8
330
2D4
100
AcDbEntity
  8
0
 62
     7
100
AcDbCircle
 10
0.0
 20
0.0
 30
0.0
 40
1.999964057074652
  0
CIRCLE
  5
2D7
330
2D4
100
AcDbEntity
  8
0
 62
   189
100
AcDbCircle
 10
-0.0000861273871528
 20
0.0
 30
0.0
 40
1.349960666232638
  0
ENDBLK
  5
2D9
330
2D4
100
AcDbEntity
  8
0
100
AcDbBlockEnd
  0
BLOCK
  5
2DE
330
2DC
100
AcDbEntity
  8
0
 62
     7
100
AcDbBlockBegin
  2
AI9-BLK90
 70
     0
 71
     1
 10
0.0
 20
0.0
 30
0.0
  3
AI9-BLK90
  1

  0
INSERT
  5
2E0
330
2DC
100
AcDbEntity
  8
0
  6
AI9-LType1
 62
     7
100
AcDbBlockReference
  2
AI9-BLK91
 10
0.0
 20
0.0
 30
0.0
  0
ENDBLK
  5
2E4
330
2DC
100
AcDbEntity
  8
0
100
AcDbBlockEnd
  0
BLOCK
  5
2E1
330
2DF
100
AcDbEntity
  8
0
 62
     7
100
AcDbBlockBegin
  2
AI9-BLK91
 70
     0
 71
     1
 10
0.0
 20
0.0
 30
0.0
  3
AI9-BLK91
  1

  0
MTEXT
  5
2E2
330
2DF
100
AcDbEntity
  8
0
  6
AI9-LType1
 62
     7
100
AcDbMText
 10
-3.444837103949652
 20
1.464861789049838
 30
0.0
 40
2.847895371949155
 41
0.0
 71
     1
 72
     2
  1
\W0.90;\fMS Gothic|b0|i0|c128;R-13
  7
STD
 11
1.000000999999999
 21
0.0
 31
0.0
 73
     1
 44
1.0
  0
ENDBLK
  5
2E3
330
2DF
100
AcDbEntity
  8
0
100
AcDbBlockEnd
  0
BLOCK
  5
2EE
330
2EC
100
AcDbEntity
  8
0
 62
     7
100
AcDbBlockBegin
  2
AI9-BLK92
 70
     0
 71
     1
 10
0.0
 20
0.0
 30
0.0
  3
AI9-BLK92
  1

  0
INSERT
  5
2F0
330
2EC
100
AcDbEntity
  8
0
 62
     7
100
AcDbBlockReference
  2
AI9-BLK93
 10
0.0
 20
0.0
 30
0.0
  0
ENDBLK
  5
2F4
330
2EC
100
AcDbEntity
  8
0
100
AcDbBlockEnd
  0
BLOCK
  5
2F1
330
2EF
100
AcDbEntity
  8
0
 62
     7
100
AcDbBlockBegin
  2
AI9-BLK93
 70
     0
 71
     1
 10
0.0
 20
0.0
 30
0.0
  3
AI9-BLK93
  1

  0
MTEXT
  5
2F2
330
2EF
100
AcDbEntity
  8
0
 62
     7
100
AcDbMText
 10
-3.734902901209099
 20
-0.2503768710683678
 30
0.0
 40
2.847895371949155
 41
0.0
 71
     1
 72
     2
  1
\W0.90;\fMS Gothic|b0|i0|c128;R-13
  7
STD
 11
0.8920000195503234
 21
0.4519999921321869
 31
0.0
 73
     1
 44
1.0
  0
ENDBLK
  5
2F3
330
2EF
100
AcDbEntity
  8
0
100
AcDbBlockEnd
  0
BLOCK
  5
2F7
330
2F5
100
AcDbEntity
  8
0
 62
     7
100
AcDbBlockBegin
  2
AI9-BLK94
 70
     0
 71
     1
 10
0.0
 20
0.0
 30
0.0
  3
AI9-BLK94
  1

  0
INSERT
  5
2F9
330
2F5
100
AcDbEntity
  8
0
 62
     7
100
AcDbBlockReference
  2
AI9-BLK95
 10
0.0
 20
0.0
 30
0.0
  0
ENDBLK
  5
2FD
330
2F5
100
AcDbEntity
  8
0
100
AcDbBlockEnd
  0
BLOCK
  5
2FA
330
2F8
100
AcDbEntity
  8
0
 62
     7
100
AcDbBlockBegin
  2
AI9-BLK95
 70
     0
 71
     1
 10
0.0
 20
0.0
 30
0.0
  3
AI9-BLK95
  1

  0
MTEXT
  5
2FB
330
2F8
100
AcDbEntity
  8
0
 62
     7
100
AcDbMText
 10
-2.575826055269375
 20
2.716303855900373
 30
0.0
 40
2.847895371949155
 41
0.0
 71
     1
 72
     2
  1
\W0.90;\fMS Gothic|b0|i0|c128;R-13
  7
STD
 11
0.9172000288963317
 21
-0.398499995470047
 31
0.0
 73
     1
 44
1.0
  0
ENDBLK
  5
2FC
330
2F8
100
AcDbEntity
  8
0
100
AcDbBlockEnd
  0
BLOCK
  5
322
330
320
100
AcDbEntity
  8
0
 62
     7
100
AcDbBlockBegin
  2
AI9-BLK96
 70
     0
 71
     1
 10
0.0
 20
0.0
 30
0.0
  3
AI9-BLK96
  1

  0
INSERT
  5
324
330
320
100
AcDbEntity
  8
0
 62
     7
100
AcDbBlockReference
  2
AI9-BLK97
 10
0.0
 20
0.0
 30
0.0
  0
ENDBLK
  5
328
330
320
100
AcDbEntity
  8
0
100
AcDbBlockEnd
  0
BLOCK
  5
325
330
323
100
AcDbEntity
  8
0
 62
     7
100
AcDbBlockBegin
  2
AI9-BLK97
 70
     0
 71
     1
 10
0.0
 20
0.0
 30
0.0
  3
AI9-BLK97
  1

  0
MTEXT
  5
326
330
323
100
AcDbEntity
  8
0
 62
     7
100
AcDbMText
 10
-0.79375
 20
1.350149045860957
 30
0.0
 40
2.624834375722067
 41
0.0
 71
     1
 72
     2
  1
\W0.90;\fMS Gothic|b0|i0|c128; 
  7
STD
 11
1.000000999999999
 21
0.0
 31
0.0
 73
     1
 44
1.0
  0
ENDBLK
  5
327
330
323
100
AcDbEntity
  8
0
100
AcDbBlockEnd
  0
BLOCK
  5
32B
330
329
100
AcDbEntity
  8
0
 62
     7
100
AcDbBlockBegin
  2
AI9-BLK98
 70
     0
 71
     1
 10
0.0
 20
0.0
 30
0.0
  3
AI9-BLK98
  1

  0
INSERT
  5
33F
330
329
100
AcDbEntity
  8
0
 62
     7
100
AcDbBlockReference
  2
AI9-BLK103
 10
-9.921874999999998
 20
0.0
 30
0.0
  0
INSERT
  5
336
330
329
100
AcDbEntity
  8
0
 62
     7
100
AcDbBlockReference
  2
AI9-BLK101
 10
-0.6614583333333333
 20
0.0
 30
0.0
  0
INSERT
  5
32D
330
329
100
AcDbEntity
  8
0
 62
     7
100
AcDbBlockReference
  2
AI9-BLK99
 10
9.260416666666666
 20
0.0
 30
0.0
  0
ENDBLK
  5
347
330
329
100
AcDbEntity
  8
0
100
AcDbBlockEnd
  0
BLOCK
  5
32E
330
32C
100
AcDbEntity
  8
0
 62
     7
100
AcDbBlockBegin
  2
AI9-BLK99
 70
     0
 71
     1
 10
0.0
 20
0.0
 30
0.0
  3
AI9-BLK99
  1

  0
INSERT
  5
330
330
32C
100
AcDbEntity
  8
0
 62
     7
100
AcDbBlockReference
  2
AI9-BLK100
 10
0.0
 20
0.0
 30
0.0
  0
ENDBLK
  5
334
330
32C
100
AcDbEntity
  8
0
100
AcDbBlockEnd
  0
BLOCK
  5
331
330
32F
100
AcDbEntity
  8
0
 62
     7
100
AcDbBlockBegin
  2
AI9-BLK100
 70
     0
 71
     1
 10
0.0
 20
0.0
 30
0.0
  3
AI9-BLK100
  1

  0
MTEXT
  5
332
330
32F
100
AcDbEntity
  8
0
 62
     7
100
AcDbMText
 10
-1.984374999999999
 20
1.350148625317075
 30
0.0
 40
2.624833955178184
 41
0.0
 71
     1
 72
     2
  1
\W0.75;\fMS Gothic|b0|i0|c128;1:5
  7
STD
 11
1.000000999999999
 21
0.0
 31
0.0
 73
     1
 44
1.0
  0
ENDBLK
  5
333
330
32F
100
AcDbEntity
  8
0
100
AcDbBlockEnd
  0
BLOCK
  5
337
330
335
100
AcDbEntity
  8
0
 62
     7
100
AcDbBlockBegin
  2
AI9-BLK101
 70
     0
 71
     1
 10
0.0
 20
0.0
 30
0.0
  3
AI9-BLK101
  1

  0
INSERT
  5
339
330
335
100
AcDbEntity
  8
0
 62
     7
100
AcDbBlockReference
  2
AI9-BLK102
 10
0.0
 20
0.0
 30
0.0
  0
ENDBLK
  5
33D
330
335
100
AcDbEntity
  8
0
100
AcDbBlockEnd
  0
BLOCK
  5
33A
330
338
100
AcDbEntity
  8
0
 62
     7
100
AcDbBlockBegin
  2
AI9-BLK102
 70
     0
 71
     1
 10
0.0
 20
0.0
 30
0.0
  3
AI9-BLK102
  1

  0
MTEXT
  5
33B
330
338
100
AcDbEntity
  8
0
 62
     7
100
AcDbMText
 10
-7.937499999999999
 20
1.350148625317075
 30
0.0
 40
2.624833955178184
 41
0.0
 71
     1
 72
     2
  1
\W0.75;\fMS Gothic|b0|i0|c128;ベース底面　
  7
KANJISTD
 11
1.000000999999999
 21
0.0
 31
0.0
 73
     1
 44
1.0
  0
ENDBLK
  5
33C
330
338
100
AcDbEntity
  8
0
100
AcDbBlockEnd
  0
BLOCK
  5
340
330
33E
100
AcDbEntity
  8
0
 62
     7
100
AcDbBlockBegin
  2
AI9-BLK103
 70
     0
 71
     1
 10
0.0
 20
0.0
 30
0.0
  3
AI9-BLK103
  1

  0
INSERT
  5
342
330
33E
100
AcDbEntity
  8
0
 62
     7
100
AcDbBlockReference
  2
AI9-BLK104
 10
0.0
 20
0.0
 30
0.0
  0
ENDBLK
  5
346
330
33E
100
AcDbEntity
  8
0
100
AcDbBlockEnd
  0
BLOCK
  5
343
330
341
100
AcDbEntity
  8
0
 62
     7
100
AcDbBlockBegin
  2
AI9-BLK104
 70
     0
 71
     1
 10
0.0
 20
0.0
 30
0.0
  3
AI9-BLK104
  1

  0
MTEXT
  5
344
330
341
100
AcDbEntity
  8
0
 62
     7
100
AcDbMText
 10
-1.322916666666666
 20
1.350148625317075
 30
0.0
 40
2.624833955178184
 41
0.0
 71
     1
 72
     2
  1
\W0.75;\fMS Gothic|b0|i0|c128;  
  7
STD
 11
1.000000999999999
 21
0.0
 31
0.0
 73
     1
 44
1.0
  0
ENDBLK
  5
345
330
341
100
AcDbEntity
  8
0
100
AcDbBlockEnd
  0
BLOCK
  5
34A
330
348
100
AcDbEntity
  8
0
 62
     7
100
AcDbBlockBegin
  2
AI9-BLK105
 70
     0
 71
     1
 10
0.0
 20
0.0
 30
0.0
  3
AI9-BLK105
  1

  0
INSERT
  5
35E
330
348
100
AcDbEntity
  8
0
 62
     7
100
AcDbBlockReference
  2
AI9-BLK110
 10
-9.921874999999998
 20
0.0
 30
0.0
  0
INSERT
  5
355
330
348
100
AcDbEntity
  8
0
 62
     7
100
AcDbBlockReference
  2
AI9-BLK108
 10
-1.322916666666666
 20
0.0
 30
0.0
  0
INSERT
  5
34C
330
348
100
AcDbEntity
  8
0
 62
     7
100
AcDbBlockReference
  2
AI9-BLK106
 10
8.598958333333332
 20
0.0
 30
0.0
  0
ENDBLK
  5
366
330
348
100
AcDbEntity
  8
0
100
AcDbBlockEnd
  0
BLOCK
  5
34D
330
34B
100
AcDbEntity
  8
0
 62
     7
100
AcDbBlockBegin
  2
AI9-BLK106
 70
     0
 71
     1
 10
0.0
 20
0.0
 30
0.0
  3
AI9-BLK106
  1

  0
INSERT
  5
34F
330
34B
100
AcDbEntity
  8
0
 62
     7
100
AcDbBlockReference
  2
AI9-BLK107
 10
0.0
 20
0.0
 30
0.0
  0
ENDBLK
  5
353
330
34B
100
AcDbEntity
  8
0
100
AcDbBlockEnd
  0
BLOCK
  5
350
330
34E
100
AcDbEntity
  8
0
 62
     7
100
AcDbBlockBegin
  2
AI9-BLK107
 70
     0
 71
     1
 10
0.0
 20
0.0
 30
0.0
  3
AI9-BLK107
  1

  0
MTEXT
  5
351
330
34E
100
AcDbEntity
  8
0
 62
     7
100
AcDbMText
 10
-1.984374999999999
 20
1.350148625317075
 30
0.0
 40
2.624833955178184
 41
0.0
 71
     1
 72
     2
  1
\W0.75;\fMS Gothic|b0|i0|c128;1:5
  7
STD
 11
1.000000999999999
 21
0.0
 31
0.0
 73
     1
 44
1.0
  0
ENDBLK
  5
352
330
34E
100
AcDbEntity
  8
0
100
AcDbBlockEnd
  0
BLOCK
  5
356
330
354
100
AcDbEntity
  8
0
 62
     7
100
AcDbBlockBegin
  2
AI9-BLK108
 70
     0
 71
     1
 10
0.0
 20
0.0
 30
0.0
  3
AI9-BLK108
  1

  0
INSERT
  5
358
330
354
100
AcDbEntity
  8
0
 62
     7
100
AcDbBlockReference
  2
AI9-BLK109
 10
0.0
 20
0.0
 30
0.0
  0
ENDBLK
  5
35C
330
354
100
AcDbEntity
  8
0
100
AcDbBlockEnd
  0
BLOCK
  5
359
330
357
100
AcDbEntity
  8
0
 62
     7
100
AcDbBlockBegin
  2
AI9-BLK109
 70
     0
 71
     1
 10
0.0
 20
0.0
 30
0.0
  3
AI9-BLK109
  1

  0
MTEXT
  5
35A
330
357
100
AcDbEntity
  8
0
 62
     7
100
AcDbMText
 10
-7.937499999999999
 20
1.350148625317075
 30
0.0
 40
2.624833955178184
 41
0.0
 71
     1
 72
     2
  1
\W0.75;\fMS Gothic|b0|i0|c128;ベース平面　
  7
KANJISTD
 11
1.000000999999999
 21
0.0
 31
0.0
 73
     1
 44
1.0
  0
ENDBLK
  5
35B
330
357
100
AcDbEntity
  8
0
100
AcDbBlockEnd
  0
BLOCK
  5
35F
330
35D
100
AcDbEntity
  8
0
 62
     7
100
AcDbBlockBegin
  2
AI9-BLK110
 70
     0
 71
     1
 10
0.0
 20
0.0
 30
0.0
  3
AI9-BLK110
  1

  0
INSERT
  5
361
330
35D
100
AcDbEntity
  8
0
 62
     7
100
AcDbBlockReference
  2
AI9-BLK111
 10
0.0
 20
0.0
 30
0.0
  0
ENDBLK
  5
365
330
35D
100
AcDbEntity
  8
0
100
AcDbBlockEnd
  0
BLOCK
  5
362
330
360
100
AcDbEntity
  8
0
 62
     7
100
AcDbBlockBegin
  2
AI9-BLK111
 70
     0
 71
     1
 10
0.0
 20
0.0
 30
0.0
  3
AI9-BLK111
  1

  0
MTEXT
  5
363
330
360
100
AcDbEntity
  8
0
 62
     7
100
AcDbMText
 10
-0.6614583333333333
 20
1.350148625317075
 30
0.0
 40
2.624833955178184
 41
0.0
 71
     1
 72
     2
  1
\W0.75;\fMS Gothic|b0|i0|c128; 
  7
STD
 11
1.000000999999999
 21
0.0
 31
0.0
 73
     1
 44
1.0
  0
ENDBLK
  5
364
330
360
100
AcDbEntity
  8
0
100
AcDbBlockEnd
  0
BLOCK
  5
369
330
367
100
AcDbEntity
  8
0
 62
     7
100
AcDbBlockBegin
  2
AI9-BLK112
 70
     0
 71
     1
 10
0.0
 20
0.0
 30
0.0
  3
AI9-BLK112
  1

  0
INSERT
  5
37D
330
367
100
AcDbEntity
  8
0
 62
     7
100
AcDbBlockReference
  2
AI9-BLK117
 10
0.0
 20
-2.381249999999999
 30
0.0
  0
INSERT
  5
374
330
367
100
AcDbEntity
  8
0
 62
     7
100
AcDbBlockReference
  2
AI9-BLK115
 10
0.0
 20
1.587499999999999
 30
0.0
  0
INSERT
  5
36B
330
367
100
AcDbEntity
  8
0
 62
     7
100
AcDbBlockReference
  2
AI9-BLK113
 10
0.0
 20
3.968749999999999
 30
0.0
  0
ENDBLK
  5
385
330
367
100
AcDbEntity
  8
0
100
AcDbBlockEnd
  0
BLOCK
  5
36C
330
36A
100
AcDbEntity
  8
0
 62
     7
100
AcDbBlockBegin
  2
AI9-BLK113
 70
     0
 71
     1
 10
0.0
 20
0.0
 30
0.0
  3
AI9-BLK113
  1

  0
INSERT
  5
36E
330
36A
100
AcDbEntity
  8
0
 62
     7
100
AcDbBlockReference
  2
AI9-BLK114
 10
0.0
 20
0.0
 30
0.0
  0
ENDBLK
  5
372
330
36A
100
AcDbEntity
  8
0
100
AcDbBlockEnd
  0
BLOCK
  5
36F
330
36D
100
AcDbEntity
  8
0
 62
     7
100
AcDbBlockBegin
  2
AI9-BLK114
 70
     0
 71
     1
 10
0.0
 20
0.0
 30
0.0
  3
AI9-BLK114
  1

  0
MTEXT
  5
370
330
36D
100
AcDbEntity
  8
0
 62
     7
100
AcDbMText
 10
-1.350149045860957
 20
-0.79375
 30
0.0
 40
2.624834375722067
 41
0.0
 71
     1
 72
     2
  1
\W0.90;\fMS Gothic|b0|i0|c128;5
  7
STD
 11
0.0
 21
1.0
 31
0.0
 73
     1
 44
1.0
  0
ENDBLK
  5
371
330
36D
100
AcDbEntity
  8
0
100
AcDbBlockEnd
  0
BLOCK
  5
375
330
373
100
AcDbEntity
  8
0
 62
     7
100
AcDbBlockBegin
  2
AI9-BLK115
 70
     0
 71
     1
 10
0.0
 20
0.0
 30
0.0
  3
AI9-BLK115
  1

  0
INSERT
  5
377
330
373
100
AcDbEntity
  8
0
 62
     7
100
AcDbBlockReference
  2
AI9-BLK116
 10
0.0
 20
0.0
 30
0.0
  0
ENDBLK
  5
37B
330
373
100
AcDbEntity
  8
0
100
AcDbBlockEnd
  0
BLOCK
  5
378
330
376
100
AcDbEntity
  8
0
 62
     7
100
AcDbBlockBegin
  2
AI9-BLK116
 70
     0
 71
     1
 10
0.0
 20
0.0
 30
0.0
  3
AI9-BLK116
  1

  0
MTEXT
  5
379
330
376
100
AcDbEntity
  8
0
 62
     7
100
AcDbMText
 10
-1.350149045860957
 20
-1.587499999999999
 30
0.0
 40
2.624834375722067
 41
0.0
 71
     1
 72
     2
  1
\W0.90;\fMS Gothic|b0|i0|c128;±
  7
KANJISTD
 11
0.0
 21
1.0
 31
0.0
 73
     1
 44
1.0
  0
ENDBLK
  5
37A
330
376
100
AcDbEntity
  8
0
100
AcDbBlockEnd
  0
BLOCK
  5
37E
330
37C
100
AcDbEntity
  8
0
 62
     7
100
AcDbBlockBegin
  2
AI9-BLK117
 70
     0
 71
     1
 10
0.0
 20
0.0
 30
0.0
  3
AI9-BLK117
  1

  0
INSERT
  5
380
330
37C
100
AcDbEntity
  8
0
 62
     7
100
AcDbBlockReference
  2
AI9-BLK118
 10
0.0
 20
0.0
 30
0.0
  0
ENDBLK
  5
384
330
37C
100
AcDbEntity
  8
0
100
AcDbBlockEnd
  0
BLOCK
  5
381
330
37F
100
AcDbEntity
  8
0
 62
     7
100
AcDbBlockBegin
  2
AI9-BLK118
 70
     0
 71
     1
 10
0.0
 20
0.0
 30
0.0
  3
AI9-BLK118
  1

  0
MTEXT
  5
382
330
37F
100
AcDbEntity
  8
0
 62
     7
100
AcDbMText
 10
-1.350149045860957
 20
-2.381249999999999
 30
0.0
 40
2.624834375722067
 41
0.0
 71
     1
 72
     2
  1
\W0.90;\fMS Gothic|b0|i0|c128;200
  7
STD
 11
0.0
 21
1.0
 31
0.0
 73
     1
 44
1.0
  0
ENDBLK
  5
383
330
37F
100
AcDbEntity
  8
0
100
AcDbBlockEnd
  0
BLOCK
  5
392
330
390
100
AcDbEntity
  8
0
 62
     7
100
AcDbBlockBegin
  2
AI9-BLK119
 70
     0
 71
     1
 10
0.0
 20
0.0
 30
0.0
  3
AI9-BLK119
  1

  0
INSERT
  5
3A6
330
390
100
AcDbEntity
  8
0
 62
     7
100
AcDbBlockReference
  2
AI9-BLK124
 10
-2.381249999999999
 20
0.0
 30
0.0
  0
INSERT
  5
39D
330
390
100
AcDbEntity
  8
0
 62
     7
100
AcDbBlockReference
  2
AI9-BLK122
 10
0.79375
 20
0.0
 30
0.0
  0
INSERT
  5
394
330
390
100
AcDbEntity
  8
0
 62
     7
100
AcDbBlockReference
  2
AI9-BLK120
 10
3.174999999999999
 20
0.0
 30
0.0
  0
ENDBLK
  5
3AE
330
390
100
AcDbEntity
  8
0
100
AcDbBlockEnd
  0
BLOCK
  5
395
330
393
100
AcDbEntity
  8
0
 62
     7
100
AcDbBlockBegin
  2
AI9-BLK120
 70
     0
 71
     1
 10
0.0
 20
0.0
 30
0.0
  3
AI9-BLK120
  1

  0
INSERT
  5
397
330
393
100
AcDbEntity
  8
0
 62
     7
100
AcDbBlockReference
  2
AI9-BLK121
 10
0.0
 20
0.0
 30
0.0
  0
ENDBLK
  5
39B
330
393
100
AcDbEntity
  8
0
100
AcDbBlockEnd
  0
BLOCK
  5
398
330
396
100
AcDbEntity
  8
0
 62
     7
100
AcDbBlockBegin
  2
AI9-BLK121
 70
     0
 71
     1
 10
0.0
 20
0.0
 30
0.0
  3
AI9-BLK121
  1

  0
MTEXT
  5
399
330
396
100
AcDbEntity
  8
0
 62
     7
100
AcDbMText
 10
-0.79375
 20
1.350149045860967
 30
0.0
 40
2.624834375722067
 41
0.0
 71
     1
 72
     2
  1
\W0.90;\fMS Gothic|b0|i0|c128;2
  7
STD
 11
1.000000999999999
 21
0.0
 31
0.0
 73
     1
 44
1.0
  0
ENDBLK
  5
39A
330
396
100
AcDbEntity
  8
0
100
AcDbBlockEnd
  0
BLOCK
  5
39E
330
39C
100
AcDbEntity
  8
0
 62
     7
100
AcDbBlockBegin
  2
AI9-BLK122
 70
     0
 71
     1
 10
0.0
 20
0.0
 30
0.0
  3
AI9-BLK122
  1

  0
INSERT
  5
3A0
330
39C
100
AcDbEntity
  8
0
 62
     7
100
AcDbBlockReference
  2
AI9-BLK123
 10
0.0
 20
0.0
 30
0.0
  0
ENDBLK
  5
3A4
330
39C
100
AcDbEntity
  8
0
100
AcDbBlockEnd
  0
BLOCK
  5
3A1
330
39F
100
AcDbEntity
  8
0
 62
     7
100
AcDbBlockBegin
  2
AI9-BLK123
 70
     0
 71
     1
 10
0.0
 20
0.0
 30
0.0
  3
AI9-BLK123
  1

  0
MTEXT
  5
3A2
330
39F
100
AcDbEntity
  8
0
 62
     7
100
AcDbMText
 10
-1.587499999999999
 20
1.350149045860967
 30
0.0
 40
2.624834375722067
 41
0.0
 71
     1
 72
     2
  1
\W0.90;\fMS Gothic|b0|i0|c128;±
  7
KANJISTD
 11
1.000000999999999
 21
0.0
 31
0.0
 73
     1
 44
1.0
  0
ENDBLK
  5
3A3
330
39F
100
AcDbEntity
  8
0
100
AcDbBlockEnd
  0
BLOCK
  5
3A7
330
3A5
100
AcDbEntity
  8
0
 62
     7
100
AcDbBlockBegin
  2
AI9-BLK124
 70
     0
 71
     1
 10
0.0
 20
0.0
 30
0.0
  3
AI9-BLK124
  1

  0
INSERT
  5
3A9
330
3A5
100
AcDbEntity
  8
0
 62
     7
100
AcDbBlockReference
  2
AI9-BLK125
 10
0.0
 20
0.0
 30
0.0
  0
ENDBLK
  5
3AD
330
3A5
100
AcDbEntity
  8
0
100
AcDbBlockEnd
  0
BLOCK
  5
3AA
330
3A8
100
AcDbEntity
  8
0
 62
     7
100
AcDbBlockBegin
  2
AI9-BLK125
 70
     0
 71
     1
 10
0.0
 20
0.0
 30
0.0
  3
AI9-BLK125
  1

  0
MTEXT
  5
3AB
330
3A8
100
AcDbEntity
  8
0
 62
     7
100
AcDbMText
 10
-1.587499999999999
 20
1.350149045860967
 30
0.0
 40
2.624834375722067
 41
0.0
 71
     1
 72
     2
  1
\W0.90;\fMS Gothic|b0|i0|c128;76
  7
STD
 11
1.000000999999999
 21
0.0
 31
0.0
 73
     1
 44
1.0
  0
ENDBLK
  5
3AC
330
3A8
100
AcDbEntity
  8
0
100
AcDbBlockEnd
  0
BLOCK
  5
3B1
330
3AF
100
AcDbEntity
  8
0
 62
     7
100
AcDbBlockBegin
  2
AI9-BLK126
 70
     0
 71
     1
 10
0.0
 20
0.0
 30
0.0
  3
AI9-BLK126
  1

  0
INSERT
  5
3C5
330
3AF
100
AcDbEntity
  8
0
 62
     7
100
AcDbBlockReference
  2
AI9-BLK131
 10
0.0
 20
-3.174999999999999
 30
0.0
  0
INSERT
  5
3BC
330
3AF
100
AcDbEntity
  8
0
 62
     7
100
AcDbBlockReference
  2
AI9-BLK129
 10
0.0
 20
0.79375
 30
0.0
  0
INSERT
  5
3B3
330
3AF
100
AcDbEntity
  8
0
 62
     7
100
AcDbBlockReference
  2
AI9-BLK127
 10
0.0
 20
3.968749999999999
 30
0.0
  0
ENDBLK
  5
3CD
330
3AF
100
AcDbEntity
  8
0
100
AcDbBlockEnd
  0
BLOCK
  5
3B4
330
3B2
100
AcDbEntity
  8
0
 62
     7
100
AcDbBlockBegin
  2
AI9-BLK127
 70
     0
 71
     1
 10
0.0
 20
0.0
 30
0.0
  3
AI9-BLK127
  1

  0
INSERT
  5
3B6
330
3B2
100
AcDbEntity
  8
0
 62
     7
100
AcDbBlockReference
  2
AI9-BLK128
 10
0.0
 20
0.0
 30
0.0
  0
ENDBLK
  5
3BA
330
3B2
100
AcDbEntity
  8
0
100
AcDbBlockEnd
  0
BLOCK
  5
3B7
330
3B5
100
AcDbEntity
  8
0
 62
     7
100
AcDbBlockBegin
  2
AI9-BLK128
 70
     0
 71
     1
 10
0.0
 20
0.0
 30
0.0
  3
AI9-BLK128
  1

  0
MTEXT
  5
3B8
330
3B5
100
AcDbEntity
  8
0
 62
     7
100
AcDbMText
 10
-1.350149045860957
 20
-1.587499999999999
 30
0.0
 40
2.624834375722067
 41
0.0
 71
     1
 72
     2
  1
\W0.90;\fMS Gothic|b0|i0|c128;10
  7
STD
 11
0.0
 21
1.0
 31
0.0
 73
     1
 44
1.0
  0
ENDBLK
  5
3B9
330
3B5
100
AcDbEntity
  8
0
100
AcDbBlockEnd
  0
BLOCK
  5
3BD
330
3BB
100
AcDbEntity
  8
0
 62
     7
100
AcDbBlockBegin
  2
AI9-BLK129
 70
     0
 71
     1
 10
0.0
 20
0.0
 30
0.0
  3
AI9-BLK129
  1

  0
INSERT
  5
3BF
330
3BB
100
AcDbEntity
  8
0
 62
     7
100
AcDbBlockReference
  2
AI9-BLK130
 10
0.0
 20
0.0
 30
0.0
  0
ENDBLK
  5
3C3
330
3BB
100
AcDbEntity
  8
0
100
AcDbBlockEnd
  0
BLOCK
  5
3C0
330
3BE
100
AcDbEntity
  8
0
 62
     7
100
AcDbBlockBegin
  2
AI9-BLK130
 70
     0
 71
     1
 10
0.0
 20
0.0
 30
0.0
  3
AI9-BLK130
  1

  0
MTEXT
  5
3C1
330
3BE
100
AcDbEntity
  8
0
 62
     7
100
AcDbMText
 10
-1.350149045860957
 20
-1.587499999999999
 30
0.0
 40
2.624834375722067
 41
0.0
 71
     1
 72
     2
  1
\W0.90;\fMS Gothic|b0|i0|c128;±
  7
KANJISTD
 11
0.0
 21
1.0
 31
0.0
 73
     1
 44
1.0
  0
ENDBLK
  5
3C2
330
3BE
100
AcDbEntity
  8
0
100
AcDbBlockEnd
  0
BLOCK
  5
3C6
330
3C4
100
AcDbEntity
  8
0
 62
     7
100
AcDbBlockBegin
  2
AI9-BLK131
 70
     0
 71
     1
 10
0.0
 20
0.0
 30
0.0
  3
AI9-BLK131
  1

  0
INSERT
  5
3C8
330
3C4
100
AcDbEntity
  8
0
 62
     7
100
AcDbBlockReference
  2
AI9-BLK132
 10
0.0
 20
0.0
 30
0.0
  0
ENDBLK
  5
3CC
330
3C4
100
AcDbEntity
  8
0
100
AcDbBlockEnd
  0
BLOCK
  5
3C9
330
3C7
100
AcDbEntity
  8
0
 62
     7
100
AcDbBlockBegin
  2
AI9-BLK132
 70
     0
 71
     1
 10
0.0
 20
0.0
 30
0.0
  3
AI9-BLK132
  1

  0
MTEXT
  5
3CA
330
3C7
100
AcDbEntity
  8
0
 62
     7
100
AcDbMText
 10
-1.350149045860957
 20
-2.381249999999999
 30
0.0
 40
2.624834375722067
 41
0.0
 71
     1
 72
     2
  1
\W0.90;\fMS Gothic|b0|i0|c128;650
  7
STD
 11
0.0
 21
1.0
 31
0.0
 73
     1
 44
1.0
  0
ENDBLK
  5
3CB
330
3C7
100
AcDbEntity
  8
0
100
AcDbBlockEnd
  0
BLOCK
  5
3F6
330
3F4
100
AcDbEntity
  8
0
 62
     7
100
AcDbBlockBegin
  2
AI9-BLK133
 70
     0
 71
     1
 10
0.0
 20
0.0
 30
0.0
  3
AI9-BLK133
  1

  0
LINE
  5
3FB
330
3F4
100
AcDbEntity
  8
0
  6
AI9-LType1
 62
   222
100
AcDbLine
 10
-0.02015380859375
 20
-11.31610514322916
 30
0.0
 11
-0.02015380859375
 21
11.31610514322916
 31
0.0
  0
SPLINE
  5
3FA
330
3F4
100
AcDbEntity
  8
0
 62
     7
100
AcDbSpline
210
0.0
220
0.0
230
1.0
 70
     9
 71
     3
 72
    35
 73
    31
 74
     0
 42
0.0000000001
 43
0.0000000001
 40
0.0
 40
0.0
 40
0.0
 40
0.0
 40
1.0
 40
1.0
 40
1.0
 40
2.0
 40
2.0
 40
2.0
 40
3.0
 40
3.0
 40
3.0
 40
4.0
 40
4.0
 40
4.0
 40
5.0
 40
5.0
 40
5.0
 40
6.0
 40
6.0
 40
6.0
 40
7.0
 40
7.0
 40
7.0
 40
8.0
 40
8.0
 40
8.0
 40
9.0
 40
9.0
 40
9.0
 40
10.0
 40
10.0
 40
10.0
 40
10.0
 10
5.377621799045138
 20
0.0093017578125
 30
0.0
 10
2.455147298177083
 20
0.2952446831597222
 30
0.0
 10
2.771062554253472
 20
3.030650499131944
 30
0.0
 10
2.771062554253472
 20
3.030650499131944
 30
0.0
 10
2.771062554253472
 20
4.56440700954861
 30
0.0
 10
1.528072102864583
 20
5.80774197048611
 30
0.0
 10
-0.0056844075520833
 20
5.80774197048611
 30
0.0
 10
-1.539268663194444
 20
5.80774197048611
 30
0.0
 10
-2.782431369357638
 20
4.56440700954861
 30
0.0
 10
-2.782431369357638
 20
3.030650499131944
 30
0.0
 10
-2.782431369357638
 20
3.030650499131944
 30
0.0
 10
-2.498383246527777
 20
0.2397786458333333
 30
0.0
 10
-5.377449544270833
 20
0.0093017578125
 30
0.0
 10
-6.906210666232638
 20
-0.1126546223958333
 30
0.0
 10
-8.154368760850694
 20
-1.233688693576388
 30
0.0
 10
-8.154368760850694
 20
-2.767445203993055
 30
0.0
 10
-8.154368760850694
 20
-4.301201714409721
 30
0.0
 10
-6.911206054687498
 20
-5.54419216579861
 30
0.0
 10
-5.377449544270833
 20
-5.54419216579861
 30
0.0
 10
-5.377449544270833
 20
-5.54419216579861
 30
0.0
 10
0.1601969401041666
 20
-5.661497667100693
 30
0.0
 10
0.1601969401041666
 20
-5.661497667100693
 30
0.0
 10
0.1601969401041666
 20
-5.661497667100693
 30
0.0
 10
5.377621799045138
 20
-5.54419216579861
 30
0.0
 10
5.377621799045138
 20
-5.54419216579861
 30
0.0
 10
6.911378309461804
 20
-5.54419216579861
 30
0.0
 10
8.154368760850694
 20
-4.301201714409721
 30
0.0
 10
8.154368760850694
 20
-2.767445203993055
 30
0.0
 10
8.154368760850694
 20
-1.233688693576388
 30
0.0
 10
6.90379909939236
 20
-0.1395263671875
 30
0.0
 10
5.377621799045138
 20
0.0093017578125
 30
0.0
  0
SPLINE
  5
3F9
330
3F4
100
AcDbEntity
  8
0
  6
AI9-LType6
 62
     7
100
AcDbSpline
210
0.0
220
0.0
230
1.0
 70
     9
 71
     3
 72
    50
 73
    46
 74
     0
 42
0.0000000001
 43
0.0000000001
 40
0.0
 40
0.0
 40
0.0
 40
0.0
 40
1.0
 40
1.0
 40
1.0
 40
2.0
 40
2.0
 40
2.0
 40
3.0
 40
3.0
 40
3.0
 40
4.0
 40
4.0
 40
4.0
 40
5.0
 40
5.0
 40
5.0
 40
6.0
 40
6.0
 40
6.0
 40
7.0
 40
7.0
 40
7.0
 40
8.0
 40
8.0
 40
8.0
 40
9.0
 40
9.0
 40
9.0
 40
10.0
 40
10.0
 40
10.0
 40
11.0
 40
11.0
 40
11.0
 40
12.0
 40
12.0
 40
12.0
 40
13.0
 40
13.0
 40
13.0
 40
14.0
 40
14.0
 40
14.0
 40
15.0
 40
15.0
 40
15.0
 40
15.0
 10
-2.18160671657986
 20
3.038401963975694
 30
0.0
 10
-2.178678385416666
 20
2.995338270399305
 30
0.0
 10
-2.175233289930555
 20
2.933154296874999
 30
0.0
 10
-2.175233289930555
 20
2.834969075520833
 30
0.0
 10
-2.175233289930555
 20
2.367125108506944
 30
0.0
 10
-2.262566460503471
 20
1.352027723524305
 30
0.0
 10
-2.942283799913194
 20
0.5367458767361111
 30
0.0
 10
-3.49625515407986
 20
-0.1276407877604166
 30
0.0
 10
-4.299479166666666
 20
-0.5062567816840278
 30
0.0
 10
-5.329562717013888
 20
-0.5887668185763888
 30
0.0
 10
-6.618717447916665
 20
-0.6916029188368055
 30
0.0
 10
-7.554405381944444
 20
-1.607826063368055
 30
0.0
 10
-7.554405381944444
 20
-2.767445203993055
 30
0.0
 10
-7.554405381944444
 20
-3.967716471354166
 30
0.0
 10
-6.577720811631944
 20
-4.94422878689236
 30
0.0
 10
-5.377449544270833
 20
-4.94422878689236
 30
0.0
 10
-5.377449544270833
 20
-4.94422878689236
 30
0.0
 10
0.1601969401041666
 20
-5.061534288194444
 30
0.0
 10
0.1601969401041666
 20
-5.061534288194444
 30
0.0
 10
0.1601969401041666
 20
-5.061534288194444
 30
0.0
 10
5.377621799045138
 20
-4.94422878689236
 30
0.0
 10
5.377621799045138
 20
-4.94422878689236
 30
0.0
 10
6.577893066406249
 20
-4.94422878689236
 30
0.0
 10
7.554405381944444
 20
-3.967716471354166
 30
0.0
 10
7.554405381944444
 20
-2.767445203993055
 30
0.0
 10
7.554405381944444
 20
-1.479668511284722
 30
0.0
 10
6.430098470052082
 20
-0.6962537977430556
 30
0.0
 10
5.31939968532986
 20
-0.587905544704861
 30
0.0
 10
3.047531467013888
 20
-0.3655246310763888
 30
0.0
 10
2.413117133246527
 20
1.148422580295138
 30
0.0
 10
2.237072753906249
 20
2.031056043836805
 30
0.0
 10
2.175577799479166
 20
2.33973659939236
 30
0.0
 10
2.150945366753472
 20
2.584510633680555
 30
0.0
 10
2.150945366753472
 20
2.779330783420138
 30
0.0
 10
2.150945366753472
 20
2.88699001736111
 30
0.0
 10
2.165414767795138
 20
2.963471137152777
 30
0.0
 10
2.178333875868055
 20
3.042880588107638
 30
0.0
 10
2.177989366319444
 20
3.042191569010416
 30
0.0
 10
2.171099175347221
 20
3.030650499131944
 30
0.0
 10
2.171099175347221
 20
3.030650499131944
 30
0.0
 10
2.171099175347221
 20
4.23109402126736
 30
0.0
 10
1.194586859809027
 20
5.20777859157986
 30
0.0
 10
-0.0056844075520833
 20
5.20777859157986
 30
0.0
 10
-1.203199598524305
 20
5.20777859157986
 30
0.0
 10
-2.177300347222221
 20
4.235228135850694
 30
0.0
 10
-2.18160671657986
 20
3.038401963975694
 30
0.0
  0
CIRCLE
  5
3F7
330
3F4
100
AcDbEntity
  8
0
 62
     7
100
AcDbCircle
 10
0.0253214518229167
 20
-3.47145046657986
 30
0.0
 40
0.2764689127604166
  0
ENDBLK
  5
3FC
330
3F4
100
AcDbEntity
  8
0
100
AcDbBlockEnd
  0
BLOCK
  5
40E
330
40C
100
AcDbEntity
  8
0
 62
     7
100
AcDbBlockBegin
  2
AI9-BLK134
 70
     0
 71
     1
 10
0.0
 20
0.0
 30
0.0
  3
AI9-BLK134
  1

  0
INSERT
  5
410
330
40C
100
AcDbEntity
  8
0
 62
     7
100
AcDbBlockReference
  2
AI9-BLK135
 10
0.0
 20
0.0
 30
0.0
  0
ENDBLK
  5
414
330
40C
100
AcDbEntity
  8
0
100
AcDbBlockEnd
  0
BLOCK
  5
411
330
40F
100
AcDbEntity
  8
0
 62
     7
100
AcDbBlockBegin
  2
AI9-BLK135
 70
     0
 71
     1
 10
0.0
 20
0.0
 30
0.0
  3
AI9-BLK135
  1

  0
MTEXT
  5
412
330
40F
100
AcDbEntity
  8
0
 62
     7
100
AcDbMText
 10
-26.86967773437499
 20
2.285245307878252
 30
0.0
 40
4.442736356055335
 41
0.0
 71
     1
 72
     2
  1
\W0.90;\fMS Gothic|b0|i0|c128;保安道路企画株式会社
  7
KANJISTD
 11
1.000000999999999
 21
0.0
 31
0.0
 73
     1
 44
1.0
  0
ENDBLK
  5
413
330
40F
100
AcDbEntity
  8
0
100
AcDbBlockEnd
  0
BLOCK
  5
417
330
415
100
AcDbEntity
  8
0
 62
     7
100
AcDbBlockBegin
  2
AI9-BLK136
 70
     0
 71
     1
 10
0.0
 20
0.0
 30
0.0
  3
AI9-BLK136
  1

  0
INSERT
  5
44F
330
415
100
AcDbEntity
  8
0
 62
     7
100
AcDbBlockReference
  2
AI9-BLK149
 10
-32.72565104166666
 20
0.0
 30
0.0
  0
INSERT
  5
446
330
415
100
AcDbEntity
  8
0
 62
     7
100
AcDbBlockReference
  2
AI9-BLK147
 10
-16.36265326605902
 20
0.0
 30
0.0
  0
INSERT
  5
43D
330
415
100
AcDbEntity
  8
0
 62
     7
100
AcDbBlockReference
  2
AI9-BLK145
 10
0.8611016167534721
 20
0.0
 30
0.0
  0
INSERT
  5
434
330
415
100
AcDbEntity
  8
0
 62
     7
100
AcDbBlockReference
  2
AI9-BLK143
 10
7.751120334201388
 20
0.0
 30
0.0
  0
INSERT
  5
42B
330
415
100
AcDbEntity
  8
0
 62
     7
100
AcDbBlockReference
  2
AI9-BLK141
 10
14.64045003255208
 20
0.0
 30
0.0
  0
INSERT
  5
422
330
415
100
AcDbEntity
  8
0
 62
     7
100
AcDbBlockReference
  2
AI9-BLK139
 10
19.80757649739583
 20
0.0
 30
0.0
  0
INSERT
  5
419
330
415
100
AcDbEntity
  8
0
 62
     7
100
AcDbBlockReference
  2
AI9-BLK137
 10
28.41962619357639
 20
0.0
 30
0.0
  0
ENDBLK
  5
457
330
415
100
AcDbEntity
  8
0
100
AcDbBlockEnd
  0
BLOCK
  5
41A
330
418
100
AcDbEntity
  8
0
 62
     7
100
AcDbBlockBegin
  2
AI9-BLK137
 70
     0
 71
     1
 10
0.0
 20
0.0
 30
0.0
  3
AI9-BLK137
  1

  0
INSERT
  5
41C
330
418
100
AcDbEntity
  8
0
 62
     7
100
AcDbBlockReference
  2
AI9-BLK138
 10
0.0
 20
0.0
 30
0.0
  0
ENDBLK
  5
420
330
418
100
AcDbEntity
  8
0
100
AcDbBlockEnd
  0
BLOCK
  5
41D
330
41B
100
AcDbEntity
  8
0
 62
     7
100
AcDbBlockBegin
  2
AI9-BLK138
 70
     0
 71
     1
 10
0.0
 20
0.0
 30
0.0
  3
AI9-BLK138
  1

  0
MTEXT
  5
41E
330
41B
100
AcDbEntity
  8
0
 62
     7
100
AcDbMText
 10
-5.167298719618054
 20
1.464861789049848
 30
0.0
 40
2.847895371949155
 41
0.0
 71
     1
 72
     2
  1
\W0.90;\fMS Gothic|b0|i0|c128;-Ｓ650
  7
KANJISTD
 11
1.000000999999999
 21
0.0
 31
0.0
 73
     1
 44
1.0
  0
ENDBLK
  5
41F
330
41B
100
AcDbEntity
  8
0
100
AcDbBlockEnd
  0
BLOCK
  5
423
330
421
100
AcDbEntity
  8
0
 62
     7
100
AcDbBlockBegin
  2
AI9-BLK139
 70
     0
 71
     1
 10
0.0
 20
0.0
 30
0.0
  3
AI9-BLK139
  1

  0
INSERT
  5
425
330
421
100
AcDbEntity
  8
0
 62
     7
100
AcDbBlockReference
  2
AI9-BLK140
 10
0.0
 20
0.0
 30
0.0
  0
ENDBLK
  5
429
330
421
100
AcDbEntity
  8
0
100
AcDbBlockEnd
  0
BLOCK
  5
426
330
424
100
AcDbEntity
  8
0
 62
     7
100
AcDbBlockBegin
  2
AI9-BLK140
 70
     0
 71
     1
 10
0.0
 20
0.0
 30
0.0
  3
AI9-BLK140
  1

  0
MTEXT
  5
427
330
424
100
AcDbEntity
  8
0
 62
     7
100
AcDbMText
 10
-3.444750976562499
 20
1.464861789049848
 30
0.0
 40
2.847895371949155
 41
0.0
 71
     1
 72
     2
  1
\W0.90;\fMS Gothic|b0|i0|c128;ＰＦ
  7
KANJISTD
 11
1.000000999999999
 21
0.0
 31
0.0
 73
     1
 44
1.0
  0
ENDBLK
  5
428
330
424
100
AcDbEntity
  8
0
100
AcDbBlockEnd
  0
BLOCK
  5
42C
330
42A
100
AcDbEntity
  8
0
 62
     7
100
AcDbBlockBegin
  2
AI9-BLK141
 70
     0
 71
     1
 10
0.0
 20
0.0
 30
0.0
  3
AI9-BLK141
  1

  0
INSERT
  5
42E
330
42A
100
AcDbEntity
  8
0
 62
     7
100
AcDbBlockReference
  2
AI9-BLK142
 10
0.0
 20
0.0
 30
0.0
  0
ENDBLK
  5
432
330
42A
100
AcDbEntity
  8
0
100
AcDbBlockEnd
  0
BLOCK
  5
42F
330
42D
100
AcDbEntity
  8
0
 62
     7
100
AcDbBlockBegin
  2
AI9-BLK142
 70
     0
 71
     1
 10
0.0
 20
0.0
 30
0.0
  3
AI9-BLK142
  1

  0
MTEXT
  5
430
330
42D
100
AcDbEntity
  8
0
 62
     7
100
AcDbMText
 10
-1.722375488281249
 20
1.464861789049848
 30
0.0
 40
2.847895371949155
 41
0.0
 71
     1
 72
     2
  1
\W0.90;\fMS Gothic|b0|i0|c128;  
  7
STD
 11
1.000000999999999
 21
0.0
 31
0.0
 73
     1
 44
1.0
  0
ENDBLK
  5
431
330
42D
100
AcDbEntity
  8
0
100
AcDbBlockEnd
  0
BLOCK
  5
435
330
433
100
AcDbEntity
  8
0
 62
     7
100
AcDbBlockBegin
  2
AI9-BLK143
 70
     0
 71
     1
 10
0.0
 20
0.0
 30
0.0
  3
AI9-BLK143
  1

  0
INSERT
  5
437
330
433
100
AcDbEntity
  8
0
 62
     7
100
AcDbBlockReference
  2
AI9-BLK144
 10
0.0
 20
0.0
 30
0.0
  0
ENDBLK
  5
43B
330
433
100
AcDbEntity
  8
0
100
AcDbBlockEnd
  0
BLOCK
  5
438
330
436
100
AcDbEntity
  8
0
 62
     7
100
AcDbBlockBegin
  2
AI9-BLK144
 70
     0
 71
     1
 10
0.0
 20
0.0
 30
0.0
  3
AI9-BLK144
  1

  0
MTEXT
  5
439
330
436
100
AcDbEntity
  8
0
 62
     7
100
AcDbMText
 10
-5.167298719618054
 20
1.464861789049848
 30
0.0
 40
2.847895371949155
 41
0.0
 71
     1
 72
     2
  1
\W0.90;\fMS Gothic|b0|i0|c128;品　番
  7
KANJISTD
 11
1.000000999999999
 21
0.0
 31
0.0
 73
     1
 44
1.0
  0
ENDBLK
  5
43A
330
436
100
AcDbEntity
  8
0
100
AcDbBlockEnd
  0
BLOCK
  5
43E
330
43C
100
AcDbEntity
  8
0
 62
     7
100
AcDbBlockBegin
  2
AI9-BLK145
 70
     0
 71
     1
 10
0.0
 20
0.0
 30
0.0
  3
AI9-BLK145
  1

  0
INSERT
  5
440
330
43C
100
AcDbEntity
  8
0
 62
     7
100
AcDbBlockReference
  2
AI9-BLK146
 10
0.0
 20
0.0
 30
0.0
  0
ENDBLK
  5
444
330
43C
100
AcDbEntity
  8
0
100
AcDbBlockEnd
  0
BLOCK
  5
441
330
43F
100
AcDbEntity
  8
0
 62
     7
100
AcDbBlockBegin
  2
AI9-BLK146
 70
     0
 71
     1
 10
0.0
 20
0.0
 30
0.0
  3
AI9-BLK146
  1

  0
MTEXT
  5
442
330
43F
100
AcDbEntity
  8
0
 62
     7
100
AcDbMText
 10
-1.722375488281249
 20
1.464861789049848
 30
0.0
 40
2.847895371949155
 41
0.0
 71
     1
 72
     2
  1
\W0.90;\fMS Gothic|b0|i0|c128;  
  7
STD
 11
1.000000999999999
 21
0.0
 31
0.0
 73
     1
 44
1.0
  0
ENDBLK
  5
443
330
43F
100
AcDbEntity
  8
0
100
AcDbBlockEnd
  0
BLOCK
  5
447
330
445
100
AcDbEntity
  8
0
 62
     7
100
AcDbBlockBegin
  2
AI9-BLK147
 70
     0
 71
     1
 10
0.0
 20
0.0
 30
0.0
  3
AI9-BLK147
  1

  0
INSERT
  5
449
330
445
100
AcDbEntity
  8
0
 62
     7
100
AcDbBlockReference
  2
AI9-BLK148
 10
0.0
 20
0.0
 30
0.0
  0
ENDBLK
  5
44D
330
445
100
AcDbEntity
  8
0
100
AcDbBlockEnd
  0
BLOCK
  5
44A
330
448
100
AcDbEntity
  8
0
 62
     7
100
AcDbBlockBegin
  2
AI9-BLK148
 70
     0
 71
     1
 10
0.0
 20
0.0
 30
0.0
  3
AI9-BLK148
  1

  0
MTEXT
  5
44B
330
448
100
AcDbEntity
  8
0
 62
     7
100
AcDbMText
 10
-15.50172390407986
 20
1.464861789049848
 30
0.0
 40
2.847895371949155
 41
0.0
 71
     1
 72
     2
  1
\W0.90;\fMS Gothic|b0|i0|c128;ポストフレックス　
  7
KANJISTD
 11
1.000000999999999
 21
0.0
 31
0.0
 73
     1
 44
1.0
  0
ENDBLK
  5
44C
330
448
100
AcDbEntity
  8
0
100
AcDbBlockEnd
  0
BLOCK
  5
450
330
44E
100
AcDbEntity
  8
0
 62
     7
100
AcDbBlockBegin
  2
AI9-BLK149
 70
     0
 71
     1
 10
0.0
 20
0.0
 30
0.0
  3
AI9-BLK149
  1

  0
INSERT
  5
452
330
44E
100
AcDbEntity
  8
0
 62
     7
100
AcDbBlockReference
  2
AI9-BLK150
 10
0.0
 20
0.0
 30
0.0
  0
ENDBLK
  5
456
330
44E
100
AcDbEntity
  8
0
100
AcDbBlockEnd
  0
BLOCK
  5
453
330
451
100
AcDbEntity
  8
0
 62
     7
100
AcDbBlockBegin
  2
AI9-BLK150
 70
     0
 71
     1
 10
0.0
 20
0.0
 30
0.0
  3
AI9-BLK150
  1

  0
MTEXT
  5
454
330
451
100
AcDbEntity
  8
0
 62
     7
100
AcDbMText
 10
-0.8612738715277776
 20
1.464861789049848
 30
0.0
 40
2.847895371949155
 41
0.0
 71
     1
 72
     2
  1
\W0.90;\fMS Gothic|b0|i0|c128; 
  7
STD
 11
1.000000999999999
 21
0.0
 31
0.0
 73
     1
 44
1.0
  0
ENDBLK
  5
455
330
451
100
AcDbEntity
  8
0
100
AcDbBlockEnd
  0
BLOCK
  5
45A
330
458
100
AcDbEntity
  8
0
 62
     7
100
AcDbBlockBegin
  2
AI9-BLK151
 70
     0
 71
     1
 10
0.0
 20
0.0
 30
0.0
  3
AI9-BLK151
  1

  0
INSERT
  5
477
330
458
100
AcDbEntity
  8
0
 62
     7
100
AcDbBlockReference
  2
AI9-BLK158
 10
-5.167298719618054
 20
0.0
 30
0.0
  0
INSERT
  5
46E
330
458
100
AcDbEntity
  8
0
 62
     7
100
AcDbBlockReference
  2
AI9-BLK156
 10
-2.58373548719618
 20
0.0
 30
0.0
  0
INSERT
  5
465
330
458
100
AcDbEntity
  8
0
 62
     7
100
AcDbBlockReference
  2
AI9-BLK154
 10
0.8610154893663192
 20
0.0
 30
0.0
  0
INSERT
  5
45C
330
458
100
AcDbEntity
  8
0
 62
     7
100
AcDbBlockReference
  2
AI9-BLK152
 10
4.306024848090276
 20
0.0
 30
0.0
  0
ENDBLK
  5
47F
330
458
100
AcDbEntity
  8
0
100
AcDbBlockEnd
  0
BLOCK
  5
45D
330
45B
100
AcDbEntity
  8
0
 62
     7
100
AcDbBlockBegin
  2
AI9-BLK152
 70
     0
 71
     1
 10
0.0
 20
0.0
 30
0.0
  3
AI9-BLK152
  1

  0
INSERT
  5
45F
330
45B
100
AcDbEntity
  8
0
 62
     7
100
AcDbBlockReference
  2
AI9-BLK153
 10
0.0
 20
0.0
 30
0.0
  0
ENDBLK
  5
463
330
45B
100
AcDbEntity
  8
0
100
AcDbBlockEnd
  0
BLOCK
  5
460
330
45E
100
AcDbEntity
  8
0
 62
     7
100
AcDbBlockBegin
  2
AI9-BLK153
 70
     0
 71
     1
 10
0.0
 20
0.0
 30
0.0
  3
AI9-BLK153
  1

  0
MTEXT
  5
461
330
45E
100
AcDbEntity
  8
0
 62
     7
100
AcDbMText
 10
-1.722461615668402
 20
1.464861789049848
 30
0.0
 40
2.847895371949155
 41
0.0
 71
     1
 72
     2
  1
\W0.90;\fMS Gothic|b0|i0|c128;質
  7
KANJISTD
 11
1.000000999999999
 21
0.0
 31
0.0
 73
     1
 44
1.0
  0
ENDBLK
  5
462
330
45E
100
AcDbEntity
  8
0
100
AcDbBlockEnd
  0
BLOCK
  5
466
330
464
100
AcDbEntity
  8
0
 62
     7
100
AcDbBlockBegin
  2
AI9-BLK154
 70
     0
 71
     1
 10
0.0
 20
0.0
 30
0.0
  3
AI9-BLK154
  1

  0
INSERT
  5
468
330
464
100
AcDbEntity
  8
0
 62
     7
100
AcDbBlockReference
  2
AI9-BLK155
 10
0.0
 20
0.0
 30
0.0
  0
ENDBLK
  5
46C
330
464
100
AcDbEntity
  8
0
100
AcDbBlockEnd
  0
BLOCK
  5
469
330
467
100
AcDbEntity
  8
0
 62
     7
100
AcDbBlockBegin
  2
AI9-BLK155
 70
     0
 71
     1
 10
0.0
 20
0.0
 30
0.0
  3
AI9-BLK155
  1

  0
MTEXT
  5
46A
330
467
100
AcDbEntity
  8
0
 62
     7
100
AcDbMText
 10
-1.722375488281249
 20
1.464861789049848
 30
0.0
 40
2.847895371949155
 41
0.0
 71
     1
 72
     2
  1
\W0.90;\fMS Gothic|b0|i0|c128;  
  7
STD
 11
1.000000999999999
 21
0.0
 31
0.0
 73
     1
 44
1.0
  0
ENDBLK
  5
46B
330
467
100
AcDbEntity
  8
0
100
AcDbBlockEnd
  0
BLOCK
  5
46F
330
46D
100
AcDbEntity
  8
0
 62
     7
100
AcDbBlockBegin
  2
AI9-BLK156
 70
     0
 71
     1
 10
0.0
 20
0.0
 30
0.0
  3
AI9-BLK156
  1

  0
INSERT
  5
471
330
46D
100
AcDbEntity
  8
0
 62
     7
100
AcDbBlockReference
  2
AI9-BLK157
 10
0.0
 20
0.0
 30
0.0
  0
ENDBLK
  5
475
330
46D
100
AcDbEntity
  8
0
100
AcDbBlockEnd
  0
BLOCK
  5
472
330
470
100
AcDbEntity
  8
0
 62
     7
100
AcDbBlockBegin
  2
AI9-BLK157
 70
     0
 71
     1
 10
0.0
 20
0.0
 30
0.0
  3
AI9-BLK157
  1

  0
MTEXT
  5
473
330
470
100
AcDbEntity
  8
0
 62
     7
100
AcDbMText
 10
-1.722375488281249
 20
1.464861789049848
 30
0.0
 40
2.847895371949155
 41
0.0
 71
     1
 72
     2
  1
\W0.90;\fMS Gothic|b0|i0|c128;材
  7
KANJISTD
 11
1.000000999999999
 21
0.0
 31
0.0
 73
     1
 44
1.0
  0
ENDBLK
  5
474
330
470
100
AcDbEntity
  8
0
100
AcDbBlockEnd
  0
BLOCK
  5
478
330
476
100
AcDbEntity
  8
0
 62
     7
100
AcDbBlockBegin
  2
AI9-BLK158
 70
     0
 71
     1
 10
0.0
 20
0.0
 30
0.0
  3
AI9-BLK158
  1

  0
INSERT
  5
47A
330
476
100
AcDbEntity
  8
0
 62
     7
100
AcDbBlockReference
  2
AI9-BLK159
 10
0.0
 20
0.0
 30
0.0
  0
ENDBLK
  5
47E
330
476
100
AcDbEntity
  8
0
100
AcDbBlockEnd
  0
BLOCK
  5
47B
330
479
100
AcDbEntity
  8
0
 62
     7
100
AcDbBlockBegin
  2
AI9-BLK159
 70
     0
 71
     1
 10
0.0
 20
0.0
 30
0.0
  3
AI9-BLK159
  1

  0
MTEXT
  5
47C
330
479
100
AcDbEntity
  8
0
 62
     7
100
AcDbMText
 10
-0.861187744140625
 20
1.464861789049848
 30
0.0
 40
2.847895371949155
 41
0.0
 71
     1
 72
     2
  1
\W0.90;\fMS Gothic|b0|i0|c128; 
  7
STD
 11
1.000000999999999
 21
0.0
 31
0.0
 73
     1
 44
1.0
  0
ENDBLK
  5
47D
330
479
100
AcDbEntity
  8
0
100
AcDbBlockEnd
  0
BLOCK
  5
482
330
480
100
AcDbEntity
  8
0
 62
     7
100
AcDbBlockBegin
  2
AI9-BLK160
 70
     0
 71
     1
 10
0.0
 20
0.0
 30
0.0
  3
AI9-BLK160
  1

  0
INSERT
  5
49F
330
480
100
AcDbEntity
  8
0
 62
     7
100
AcDbBlockReference
  2
AI9-BLK167
 10
-5.167298719618054
 20
0.0
 30
0.0
  0
INSERT
  5
496
330
480
100
AcDbEntity
  8
0
 62
     7
100
AcDbBlockReference
  2
AI9-BLK165
 10
-2.58373548719618
 20
0.0
 30
0.0
  0
INSERT
  5
48D
330
480
100
AcDbEntity
  8
0
 62
     7
100
AcDbBlockReference
  2
AI9-BLK163
 10
0.8610154893663192
 20
0.0
 30
0.0
  0
INSERT
  5
484
330
480
100
AcDbEntity
  8
0
 62
     7
100
AcDbBlockReference
  2
AI9-BLK161
 10
4.306024848090276
 20
0.0
 30
0.0
  0
ENDBLK
  5
4A7
330
480
100
AcDbEntity
  8
0
100
AcDbBlockEnd
  0
BLOCK
  5
485
330
483
100
AcDbEntity
  8
0
 62
     7
100
AcDbBlockBegin
  2
AI9-BLK161
 70
     0
 71
     1
 10
0.0
 20
0.0
 30
0.0
  3
AI9-BLK161
  1

  0
INSERT
  5
487
330
483
100
AcDbEntity
  8
0
 62
     7
100
AcDbBlockReference
  2
AI9-BLK162
 10
0.0
 20
0.0
 30
0.0
  0
ENDBLK
  5
48B
330
483
100
AcDbEntity
  8
0
100
AcDbBlockEnd
  0
BLOCK
  5
488
330
486
100
AcDbEntity
  8
0
 62
     7
100
AcDbBlockBegin
  2
AI9-BLK162
 70
     0
 71
     1
 10
0.0
 20
0.0
 30
0.0
  3
AI9-BLK162
  1

  0
MTEXT
  5
489
330
486
100
AcDbEntity
  8
0
 62
     7
100
AcDbMText
 10
-1.722461615668402
 20
1.464861789049848
 30
0.0
 40
2.847895371949155
 41
0.0
 71
     1
 72
     2
  1
\W0.90;\fMS Gothic|b0|i0|c128;名
  7
KANJISTD
 11
1.000000999999999
 21
0.0
 31
0.0
 73
     1
 44
1.0
  0
ENDBLK
  5
48A
330
486
100
AcDbEntity
  8
0
100
AcDbBlockEnd
  0
BLOCK
  5
48E
330
48C
100
AcDbEntity
  8
0
 62
     7
100
AcDbBlockBegin
  2
AI9-BLK163
 70
     0
 71
     1
 10
0.0
 20
0.0
 30
0.0
  3
AI9-BLK163
  1

  0
INSERT
  5
490
330
48C
100
AcDbEntity
  8
0
 62
     7
100
AcDbBlockReference
  2
AI9-BLK164
 10
0.0
 20
0.0
 30
0.0
  0
ENDBLK
  5
494
330
48C
100
AcDbEntity
  8
0
100
AcDbBlockEnd
  0
BLOCK
  5
491
330
48F
100
AcDbEntity
  8
0
 62
     7
100
AcDbBlockBegin
  2
AI9-BLK164
 70
     0
 71
     1
 10
0.0
 20
0.0
 30
0.0
  3
AI9-BLK164
  1

  0
MTEXT
  5
492
330
48F
100
AcDbEntity
  8
0
 62
     7
100
AcDbMText
 10
-1.722375488281249
 20
1.464861789049848
 30
0.0
 40
2.847895371949155
 41
0.0
 71
     1
 72
     2
  1
\W0.90;\fMS Gothic|b0|i0|c128;  
  7
STD
 11
1.000000999999999
 21
0.0
 31
0.0
 73
     1
 44
1.0
  0
ENDBLK
  5
493
330
48F
100
AcDbEntity
  8
0
100
AcDbBlockEnd
  0
BLOCK
  5
497
330
495
100
AcDbEntity
  8
0
 62
     7
100
AcDbBlockBegin
  2
AI9-BLK165
 70
     0
 71
     1
 10
0.0
 20
0.0
 30
0.0
  3
AI9-BLK165
  1

  0
INSERT
  5
499
330
495
100
AcDbEntity
  8
0
 62
     7
100
AcDbBlockReference
  2
AI9-BLK166
 10
0.0
 20
0.0
 30
0.0
  0
ENDBLK
  5
49D
330
495
100
AcDbEntity
  8
0
100
AcDbBlockEnd
  0
BLOCK
  5
49A
330
498
100
AcDbEntity
  8
0
 62
     7
100
AcDbBlockBegin
  2
AI9-BLK166
 70
     0
 71
     1
 10
0.0
 20
0.0
 30
0.0
  3
AI9-BLK166
  1

  0
MTEXT
  5
49B
330
498
100
AcDbEntity
  8
0
 62
     7
100
AcDbMText
 10
-1.722375488281249
 20
1.464861789049848
 30
0.0
 40
2.847895371949155
 41
0.0
 71
     1
 72
     2
  1
\W0.90;\fMS Gothic|b0|i0|c128;品
  7
KANJISTD
 11
1.000000999999999
 21
0.0
 31
0.0
 73
     1
 44
1.0
  0
ENDBLK
  5
49C
330
498
100
AcDbEntity
  8
0
100
AcDbBlockEnd
  0
BLOCK
  5
4A0
330
49E
100
AcDbEntity
  8
0
 62
     7
100
AcDbBlockBegin
  2
AI9-BLK167
 70
     0
 71
     1
 10
0.0
 20
0.0
 30
0.0
  3
AI9-BLK167
  1

  0
INSERT
  5
4A2
330
49E
100
AcDbEntity
  8
0
 62
     7
100
AcDbBlockReference
  2
AI9-BLK168
 10
0.0
 20
0.0
 30
0.0
  0
ENDBLK
  5
4A6
330
49E
100
AcDbEntity
  8
0
100
AcDbBlockEnd
  0
BLOCK
  5
4A3
330
4A1
100
AcDbEntity
  8
0
 62
     7
100
AcDbBlockBegin
  2
AI9-BLK168
 70
     0
 71
     1
 10
0.0
 20
0.0
 30
0.0
  3
AI9-BLK168
  1

  0
MTEXT
  5
4A4
330
4A1
100
AcDbEntity
  8
0
 62
     7
100
AcDbMText
 10
-0.861187744140625
 20
1.464861789049848
 30
0.0
 40
2.847895371949155
 41
0.0
 71
     1
 72
     2
  1
\W0.90;\fMS Gothic|b0|i0|c128; 
  7
STD
 11
1.000000999999999
 21
0.0
 31
0.0
 73
     1
 44
1.0
  0
ENDBLK
  5
4A5
330
4A1
100
AcDbEntity
  8
0
100
AcDbBlockEnd
  0
BLOCK
  5
4AB
330
4A9
100
AcDbEntity
  8
0
 62
     7
100
AcDbBlockBegin
  2
AI9-BLK169
 70
     0
 71
     1
 10
0.0
 20
0.0
 30
0.0
  3
AI9-BLK169
  1

  0
INSERT
  5
4B6
330
4A9
100
AcDbEntity
  8
0
 62
     7
100
AcDbBlockReference
  2
AI9-BLK172
 10
0.0
 20
-2.381249999999999
 30
0.0
  0
INSERT
  5
4AD
330
4A9
100
AcDbEntity
  8
0
 62
     7
100
AcDbBlockReference
  2
AI9-BLK170
 10
0.0
 20
1.587499999999999
 30
0.0
  0
ENDBLK
  5
4BE
330
4A9
100
AcDbEntity
  8
0
100
AcDbBlockEnd
  0
BLOCK
  5
4AE
330
4AC
100
AcDbEntity
  8
0
 62
     7
100
AcDbBlockBegin
  2
AI9-BLK170
 70
     0
 71
     1
 10
0.0
 20
0.0
 30
0.0
  3
AI9-BLK170
  1

  0
INSERT
  5
4B0
330
4AC
100
AcDbEntity
  8
0
 62
     7
100
AcDbBlockReference
  2
AI9-BLK171
 10
0.0
 20
0.0
 30
0.0
  0
ENDBLK
  5
4B4
330
4AC
100
AcDbEntity
  8
0
100
AcDbBlockEnd
  0
BLOCK
  5
4B1
330
4AF
100
AcDbEntity
  8
0
 62
     7
100
AcDbBlockBegin
  2
AI9-BLK171
 70
     0
 71
     1
 10
0.0
 20
0.0
 30
0.0
  3
AI9-BLK171
  1

  0
MTEXT
  5
4B2
330
4AF
100
AcDbEntity
  8
0
 62
     7
100
AcDbMText
 10
-1.350149045860947
 20
-2.381249999999999
 30
0.0
 40
2.624834375722067
 41
0.0
 71
     1
 72
     2
  1
\W0.90;\fMS Gothic|b0|i0|c128;-11
  7
STD
 11
0.0
 21
1.0
 31
0.0
 73
     1
 44
1.0
  0
ENDBLK
  5
4B3
330
4AF
100
AcDbEntity
  8
0
100
AcDbBlockEnd
  0
BLOCK
  5
4B7
330
4B5
100
AcDbEntity
  8
0
 62
     7
100
AcDbBlockBegin
  2
AI9-BLK172
 70
     0
 71
     1
 10
0.0
 20
0.0
 30
0.0
  3
AI9-BLK172
  1

  0
INSERT
  5
4B9
330
4B5
100
AcDbEntity
  8
0
 62
     7
100
AcDbBlockReference
  2
AI9-BLK173
 10
0.0
 20
0.0
 30
0.0
  0
ENDBLK
  5
4BD
330
4B5
100
AcDbEntity
  8
0
100
AcDbBlockEnd
  0
BLOCK
  5
4BA
330
4B8
100
AcDbEntity
  8
0
 62
     7
100
AcDbBlockBegin
  2
AI9-BLK173
 70
     0
 71
     1
 10
0.0
 20
0.0
 30
0.0
  3
AI9-BLK173
  1

  0
MTEXT
  5
4BB
330
4B8
100
AcDbEntity
  8
0
 62
     7
100
AcDbMText
 10
-1.350149045860947
 20
-1.587499999999999
 30
0.0
 40
2.624834375722067
 41
0.0
 71
     1
 72
     2
  1
\W0.90;\fMS Gothic|b0|i0|c128;Φ
  7
KANJISTD
 11
0.0
 21
1.0
 31
0.0
 73
     1
 44
1.0
  0
ENDBLK
  5
4BC
330
4B8
100
AcDbEntity
  8
0
100
AcDbBlockEnd
  0
BLOCK
  5
4CC
330
4CA
100
AcDbEntity
  8
0
 62
     7
100
AcDbBlockBegin
  2
AI9-BLK174
 70
     0
 71
     1
 10
0.0
 20
0.0
 30
0.0
  3
AI9-BLK174
  1

  0
INSERT
  5
504
330
4CA
100
AcDbEntity
  8
0
 62
     7
100
AcDbBlockReference
  2
AI9-BLK187
 10
-13.49133843315972
 20
0.0
 30
0.0
  0
INSERT
  5
4FB
330
4CA
100
AcDbEntity
  8
0
 62
     7
100
AcDbBlockReference
  2
AI9-BLK185
 10
-5.68061794704861
 20
0.0
 30
0.0
  0
INSERT
  5
4F2
330
4CA
100
AcDbEntity
  8
0
 62
     7
100
AcDbBlockReference
  2
AI9-BLK183
 10
2.840136718749999
 20
0.0
 30
0.0
  0
INSERT
  5
4E9
330
4CA
100
AcDbEntity
  8
0
 62
     7
100
AcDbBlockReference
  2
AI9-BLK181
 10
5.68061794704861
 20
0.0
 30
0.0
  0
INSERT
  5
4E0
330
4CA
100
AcDbEntity
  8
0
 62
     7
100
AcDbBlockReference
  2
AI9-BLK179
 10
8.520754665798611
 20
0.0
 30
0.0
  0
INSERT
  5
4D7
330
4CA
100
AcDbEntity
  8
0
 62
     7
100
AcDbBlockReference
  2
AI9-BLK177
 10
11.36089138454861
 20
0.0
 30
0.0
  0
INSERT
  5
4CE
330
4CA
100
AcDbEntity
  8
0
 62
     7
100
AcDbBlockReference
  2
AI9-BLK175
 10
13.49133843315972
 20
0.0
 30
0.0
  0
ENDBLK
  5
50C
330
4CA
100
AcDbEntity
  8
0
100
AcDbBlockEnd
  0
BLOCK
  5
4CF
330
4CD
100
AcDbEntity
  8
0
 62
     7
100
AcDbBlockBegin
  2
AI9-BLK175
 70
     0
 71
     1
 10
0.0
 20
0.0
 30
0.0
  3
AI9-BLK175
  1

  0
INSERT
  5
4D1
330
4CD
100
AcDbEntity
  8
0
 62
     7
100
AcDbBlockReference
  2
AI9-BLK176
 10
0.0
 20
0.0
 30
0.0
  0
ENDBLK
  5
4D5
330
4CD
100
AcDbEntity
  8
0
100
AcDbBlockEnd
  0
BLOCK
  5
4D2
330
4D0
100
AcDbEntity
  8
0
 62
     7
100
AcDbBlockBegin
  2
AI9-BLK176
 70
     0
 71
     1
 10
0.0
 20
0.0
 30
0.0
  3
AI9-BLK176
  1

  0
MTEXT
  5
4D3
330
4D0
100
AcDbEntity
  8
0
 62
     7
100
AcDbMText
 10
-0.7100341796875
 20
1.449340850619825
 30
0.0
 40
2.817732777703151
 41
0.0
 71
     1
 72
     2
  1
\W0.75;\fMS Gothic|b0|i0|c128;3
  7
STD
 11
1.000000999999999
 21
0.0
 31
0.0
 73
     1
 44
1.0
  0
ENDBLK
  5
4D4
330
4D0
100
AcDbEntity
  8
0
100
AcDbBlockEnd
  0
BLOCK
  5
4D8
330
4D6
100
AcDbEntity
  8
0
 62
     7
100
AcDbBlockBegin
  2
AI9-BLK177
 70
     0
 71
     1
 10
0.0
 20
0.0
 30
0.0
  3
AI9-BLK177
  1

  0
INSERT
  5
4DA
330
4D6
100
AcDbEntity
  8
0
 62
     7
100
AcDbBlockReference
  2
AI9-BLK178
 10
0.0
 20
0.0
 30
0.0
  0
ENDBLK
  5
4DE
330
4D6
100
AcDbEntity
  8
0
100
AcDbBlockEnd
  0
BLOCK
  5
4DB
330
4D9
100
AcDbEntity
  8
0
 62
     7
100
AcDbBlockBegin
  2
AI9-BLK178
 70
     0
 71
     1
 10
0.0
 20
0.0
 30
0.0
  3
AI9-BLK178
  1

  0
MTEXT
  5
4DC
330
4D9
100
AcDbEntity
  8
0
 62
     7
100
AcDbMText
 10
-1.420068359374999
 20
1.449340850619825
 30
0.0
 40
2.817732777703151
 41
0.0
 71
     1
 72
     2
  1
\W0.75;\fMS Gothic|b0|i0|c128;：
  7
KANJISTD
 11
1.000000999999999
 21
0.0
 31
0.0
 73
     1
 44
1.0
  0
ENDBLK
  5
4DD
330
4D9
100
AcDbEntity
  8
0
100
AcDbBlockEnd
  0
BLOCK
  5
4E1
330
4DF
100
AcDbEntity
  8
0
 62
     7
100
AcDbBlockBegin
  2
AI9-BLK179
 70
     0
 71
     1
 10
0.0
 20
0.0
 30
0.0
  3
AI9-BLK179
  1

  0
INSERT
  5
4E3
330
4DF
100
AcDbEntity
  8
0
 62
     7
100
AcDbBlockReference
  2
AI9-BLK180
 10
0.0
 20
0.0
 30
0.0
  0
ENDBLK
  5
4E7
330
4DF
100
AcDbEntity
  8
0
100
AcDbBlockEnd
  0
BLOCK
  5
4E4
330
4E2
100
AcDbEntity
  8
0
 62
     7
100
AcDbBlockBegin
  2
AI9-BLK180
 70
     0
 71
     1
 10
0.0
 20
0.0
 30
0.0
  3
AI9-BLK180
  1

  0
MTEXT
  5
4E5
330
4E2
100
AcDbEntity
  8
0
 62
     7
100
AcDbMText
 10
-1.420068359374999
 20
1.449340850619825
 30
0.0
 40
2.817732777703151
 41
0.0
 71
     1
 72
     2
  1
\W0.75;\fMS Gothic|b0|i0|c128;)1
  7
STD
 11
1.000000999999999
 21
0.0
 31
0.0
 73
     1
 44
1.0
  0
ENDBLK
  5
4E6
330
4E2
100
AcDbEntity
  8
0
100
AcDbBlockEnd
  0
BLOCK
  5
4EA
330
4E8
100
AcDbEntity
  8
0
 62
     7
100
AcDbBlockBegin
  2
AI9-BLK181
 70
     0
 71
     1
 10
0.0
 20
0.0
 30
0.0
  3
AI9-BLK181
  1

  0
INSERT
  5
4EC
330
4E8
100
AcDbEntity
  8
0
 62
     7
100
AcDbBlockReference
  2
AI9-BLK182
 10
0.0
 20
0.0
 30
0.0
  0
ENDBLK
  5
4F0
330
4E8
100
AcDbEntity
  8
0
100
AcDbBlockEnd
  0
BLOCK
  5
4ED
330
4EB
100
AcDbEntity
  8
0
 62
     7
100
AcDbBlockBegin
  2
AI9-BLK182
 70
     0
 71
     1
 10
0.0
 20
0.0
 30
0.0
  3
AI9-BLK182
  1

  0
MTEXT
  5
4EE
330
4EB
100
AcDbEntity
  8
0
 62
     7
100
AcDbMText
 10
-1.420068359374999
 20
1.449340850619825
 30
0.0
 40
2.817732777703151
 41
0.0
 71
     1
 72
     2
  1
\W0.75;\fMS Gothic|b0|i0|c128;本
  7
KANJISTD
 11
1.000000999999999
 21
0.0
 31
0.0
 73
     1
 44
1.0
  0
ENDBLK
  5
4EF
330
4EB
100
AcDbEntity
  8
0
100
AcDbBlockEnd
  0
BLOCK
  5
4F3
330
4F1
100
AcDbEntity
  8
0
 62
     7
100
AcDbBlockBegin
  2
AI9-BLK183
 70
     0
 71
     1
 10
0.0
 20
0.0
 30
0.0
  3
AI9-BLK183
  1

  0
INSERT
  5
4F5
330
4F1
100
AcDbEntity
  8
0
 62
     7
100
AcDbBlockReference
  2
AI9-BLK184
 10
0.0
 20
0.0
 30
0.0
  0
ENDBLK
  5
4F9
330
4F1
100
AcDbEntity
  8
0
100
AcDbBlockEnd
  0
BLOCK
  5
4F6
330
4F4
100
AcDbEntity
  8
0
 62
     7
100
AcDbBlockBegin
  2
AI9-BLK184
 70
     0
 71
     1
 10
0.0
 20
0.0
 30
0.0
  3
AI9-BLK184
  1

  0
MTEXT
  5
4F7
330
4F4
100
AcDbEntity
  8
0
 62
     7
100
AcDbMText
 10
-1.420068359374999
 20
1.449340850619825
 30
0.0
 40
2.817732777703151
 41
0.0
 71
     1
 72
     2
  1
\W0.75;\fMS Gothic|b0|i0|c128;(2
  7
STD
 11
1.000000999999999
 21
0.0
 31
0.0
 73
     1
 44
1.0
  0
ENDBLK
  5
4F8
330
4F4
100
AcDbEntity
  8
0
100
AcDbBlockEnd
  0
BLOCK
  5
4FC
330
4FA
100
AcDbEntity
  8
0
 62
     7
100
AcDbBlockBegin
  2
AI9-BLK185
 70
     0
 71
     1
 10
0.0
 20
0.0
 30
0.0
  3
AI9-BLK185
  1

  0
INSERT
  5
4FE
330
4FA
100
AcDbEntity
  8
0
 62
     7
100
AcDbBlockReference
  2
AI9-BLK186
 10
0.0
 20
0.0
 30
0.0
  0
ENDBLK
  5
502
330
4FA
100
AcDbEntity
  8
0
100
AcDbBlockEnd
  0
BLOCK
  5
4FF
330
4FD
100
AcDbEntity
  8
0
 62
     7
100
AcDbBlockBegin
  2
AI9-BLK186
 70
     0
 71
     1
 10
0.0
 20
0.0
 30
0.0
  3
AI9-BLK186
  1

  0
MTEXT
  5
500
330
4FD
100
AcDbEntity
  8
0
 62
     7
100
AcDbMText
 10
-7.10068630642361
 20
1.449340850619825
 30
0.0
 40
2.817732777703151
 41
0.0
 71
     1
 72
     2
  1
\W0.75;\fMS Gothic|b0|i0|c128;セットピン
  7
KANJISTD
 11
1.000000999999999
 21
0.0
 31
0.0
 73
     1
 44
1.0
  0
ENDBLK
  5
501
330
4FD
100
AcDbEntity
  8
0
100
AcDbBlockEnd
  0
BLOCK
  5
505
330
503
100
AcDbEntity
  8
0
 62
     7
100
AcDbBlockBegin
  2
AI9-BLK187
 70
     0
 71
     1
 10
0.0
 20
0.0
 30
0.0
  3
AI9-BLK187
  1

  0
INSERT
  5
507
330
503
100
AcDbEntity
  8
0
 62
     7
100
AcDbBlockReference
  2
AI9-BLK188
 10
0.0
 20
0.0
 30
0.0
  0
ENDBLK
  5
50B
330
503
100
AcDbEntity
  8
0
100
AcDbBlockEnd
  0
BLOCK
  5
508
330
506
100
AcDbEntity
  8
0
 62
     7
100
AcDbBlockBegin
  2
AI9-BLK188
 70
     0
 71
     1
 10
0.0
 20
0.0
 30
0.0
  3
AI9-BLK188
  1

  0
MTEXT
  5
509
330
506
100
AcDbEntity
  8
0
 62
     7
100
AcDbMText
 10
-0.7100341796875
 20
1.449340850619825
 30
0.0
 40
2.817732777703151
 41
0.0
 71
     1
 72
     2
  1
\W0.75;\fMS Gothic|b0|i0|c128; 
  7
STD
 11
1.000000999999999
 21
0.0
 31
0.0
 73
     1
 44
1.0
  0
ENDBLK
  5
50A
330
506
100
AcDbEntity
  8
0
100
AcDbBlockEnd
  0
ENDSEC
  0
SECTION
  2
ENTITIES
  0
POLYLINE
  5
51F
330
A
100
AcDbEntity
  8
0
 62
   222
100
AcDb2dPolyline
 66
     1
 10
0.0
 20
0.0
 30
0.0
 70
     1
  0
VERTEX
  5
520
330
51F
100
AcDbEntity
  8
0
 62
   222
100
AcDbVertex
100
AcDb2dVertex
 10
79.99373914930555
 20
221.2283569335937
 30
0.0
  0
VERTEX
  5
521
330
51F
100
AcDbEntity
  8
0
 62
   222
100
AcDbVertex
100
AcDb2dVertex
 10
64.44809027777776
 20
221.2283569335937
 30
0.0
  0
VERTEX
  5
522
330
51F
100
AcDbEntity
  8
0
 62
   222
100
AcDbVertex
100
AcDb2dVertex
 10
64.44809027777776
 20
231.2277465820312
 30
0.0
  0
VERTEX
  5
523
330
51F
100
AcDbEntity
  8
0
 62
   222
100
AcDbVertex
100
AcDb2dVertex
 10
79.99373914930555
 20
231.2277465820312
 30
0.0
  0
SEQEND
  5
524
330
51F
100
AcDbEntity
  8
0
 62
   222
  0
HATCH
  5
51E
330
A
100
AcDbEntity
  8
0
 62
   254
100
AcDbHatch
 10
0.0
 20
0.0
 30
0.0
210
0.0
220
0.0
230
1.0
  2
SOLID
 70
     1
 71
     0
 91
        1
 92
        3
 72
     0
 73
     1
 93
        4
 10
79.99373914930555
 20
221.2283569335937
 10
64.44809027777776
 20
221.2283569335937
 10
64.44809027777776
 20
231.2277465820312
 10
79.99373914930555
 20
231.2277465820312
 97
        0
 75
     0
 76
     1
 98
        1
 10
0.0
 20
0.0
  0
POLYLINE
  5
518
330
A
100
AcDbEntity
  8
0
 62
   222
100
AcDb2dPolyline
 66
     1
 10
0.0
 20
0.0
 30
0.0
 70
     1
  0
VERTEX
  5
519
330
518
100
AcDbEntity
  8
0
 62
   222
100
AcDbVertex
100
AcDb2dVertex
 10
79.99373914930555
 20
201.2318169487847
 30
0.0
  0
VERTEX
  5
51A
330
518
100
AcDbEntity
  8
0
 62
   222
100
AcDbVertex
100
AcDb2dVertex
 10
64.44809027777776
 20
201.2318169487847
 30
0.0
  0
VERTEX
  5
51B
330
518
100
AcDbEntity
  8
0
 62
   222
100
AcDbVertex
100
AcDb2dVertex
 10
64.44809027777776
 20
211.2303453233506
 30
0.0
  0
VERTEX
  5
51C
330
518
100
AcDbEntity
  8
0
 62
   222
100
AcDbVertex
100
AcDb2dVertex
 10
79.99373914930555
 20
211.2303453233506
 30
0.0
  0
SEQEND
  5
51D
330
518
100
AcDbEntity
  8
0
 62
   222
  0
HATCH
  5
517
330
A
100
AcDbEntity
  8
0
 62
   254
100
AcDbHatch
 10
0.0
 20
0.0
 30
0.0
210
0.0
220
0.0
230
1.0
  2
SOLID
 70
     1
 71
     0
 91
        1
 92
        3
 72
     0
 73
     1
 93
        4
 10
79.99373914930555
 20
201.2318169487847
 10
64.44809027777776
 20
201.2318169487847
 10
64.44809027777776
 20
211.2303453233506
 10
79.99373914930555
 20
211.2303453233506
 97
        0
 75
     0
 76
     1
 98
        1
 10
0.0
 20
0.0
  0
POLYLINE
  5
511
330
A
100
AcDbEntity
  8
0
 62
   222
100
AcDb2dPolyline
 66
     1
 10
0.0
 20
0.0
 30
0.0
 70
     1
  0
VERTEX
  5
512
330
511
100
AcDbEntity
  8
0
 62
   222
100
AcDbVertex
100
AcDb2dVertex
 10
79.99373914930555
 20
181.2357937282986
 30
0.0
  0
VERTEX
  5
513
330
511
100
AcDbEntity
  8
0
 62
   222
100
AcDbVertex
100
AcDb2dVertex
 10
64.44809027777776
 20
181.2357937282986
 30
0.0
  0
VERTEX
  5
514
330
511
100
AcDbEntity
  8
0
 62
   222
100
AcDbVertex
100
AcDb2dVertex
 10
64.44809027777776
 20
191.2338053385416
 30
0.0
  0
VERTEX
  5
515
330
511
100
AcDbEntity
  8
0
 62
   222
100
AcDbVertex
100
AcDb2dVertex
 10
79.99373914930555
 20
191.2338053385416
 30
0.0
  0
SEQEND
  5
516
330
511
100
AcDbEntity
  8
0
 62
   222
  0
HATCH
  5
510
330
A
100
AcDbEntity
  8
0
 62
   254
100
AcDbHatch
 10
0.0
 20
0.0
 30
0.0
210
0.0
220
0.0
230
1.0
  2
SOLID
 70
     1
 71
     0
 91
        1
 92
        3
 72
     0
 73
     1
 93
        4
 10
79.99373914930555
 20
181.2357937282986
 10
64.44809027777776
 20
181.2357937282986
 10
64.44809027777776
 20
191.2338053385416
 10
79.99373914930555
 20
191.2338053385416
 97
        0
 75
     0
 76
     1
 98
        1
 10
0.0
 20
0.0
  0
LINE
  5
50F
330
A
100
AcDbEntity
  8
0
 62
     7
100
AcDbLine
 10
64.73592800564235
 20
241.4508951822916
 30
0.0
 11
80.07969428168403
 21
241.4508951822916
 31
0.0
  0
CIRCLE
  5
50E
330
A
100
AcDbEntity
  8
0
 62
     7
100
AcDbCircle
 10
138.5975694444444
 20
153.6643500434027
 30
0.0
 40
1.800062391493055
  0
HATCH
  5
50D
330
A
100
AcDbEntity
  8
0
 62
   255
100
AcDbHatch
 10
0.0
 20
0.0
 30
0.0
210
0.0
220
0.0
230
1.0
  2
SOLID
 70
     1
 71
     0
 91
        1
 92
        1
 93
        1
 72
     4
 94
        3
 73
     0
 74
     0
 95
       17
 96
       13
 40
0.0
 40
0.0
 40
0.0
 40
0.0
 40
1.0
 40
1.0
 40
1.0
 40
2.0
 40
2.0
 40
2.0
 40
3.0
 40
3.0
 40
3.0
 40
4.0
 40
4.0
 40
4.0
 40
4.0
 10
140.3976318359374
 20
153.6643500434027
 10
140.3976318359374
 20
154.6586046006944
 10
139.591824001736
 20
155.4642401801215
 10
138.597913953993
 20
155.4642401801215
 10
137.6036593967013
 20
155.4642401801215
 10
136.7975070529513
 20
154.6586046006944
 10
136.7975070529513
 20
153.6643500434027
 10
136.7975070529513
 20
152.6707845052083
 10
137.6036593967013
 20
151.8642876519097
 10
138.597913953993
 20
151.8642876519097
 10
139.591824001736
 20
151.8642876519097
 10
140.3976318359374
 20
152.6707845052083
 10
140.3976318359374
 20
153.6643500434027
 97
        0
 75
     0
 76
     1
 98
        1
 10
0.0
 20
0.0
  0
INSERT
  5
4CB
330
A
100
AcDbEntity
  8
0
 62
     7
100
AcDbBlockReference
  2
AI9-BLK174
 10
119.3081353081597
 20
144.9437798394096
 30
0.0
  0
POLYLINE
  5
4C4
330
A
100
AcDbEntity
  8
0
 62
     7
100
AcDb2dPolyline
 66
     1
 10
0.0
 20
0.0
 30
0.0
 70
     1
  0
VERTEX
  5
4C5
330
4C4
100
AcDbEntity
  8
0
 62
     7
100
AcDbVertex
100
AcDb2dVertex
 10
104.801527235243
 20
148.0774386935763
 30
0.0
  0
VERTEX
  5
4C6
330
4C4
100
AcDbEntity
  8
0
 62
     7
100
AcDbVertex
100
AcDb2dVertex
 10
135.4366943359375
 20
148.0774386935763
 30
0.0
  0
VERTEX
  5
4C7
330
4C4
100
AcDbEntity
  8
0
 62
     7
100
AcDbVertex
100
AcDb2dVertex
 10
135.4366943359375
 20
141.7866943359374
 30
0.0
  0
VERTEX
  5
4C8
330
4C4
100
AcDbEntity
  8
0
 62
     7
100
AcDbVertex
100
AcDb2dVertex
 10
104.801527235243
 20
141.704701063368
 30
0.0
  0
SEQEND
  5
4C9
330
4C4
100
AcDbEntity
  8
0
 62
     7
  0
LINE
  5
4C3
330
A
100
AcDbEntity
  8
0
  6
AI9-LType2
 62
     7
100
AcDbLine
 10
138.6010145399305
 20
159.1811537000867
 30
0.0
 11
138.6010145399305
 21
149.5076700846354
 31
0.0
  0
LINE
  5
4C2
330
A
100
AcDbEntity
  8
0
 62
     7
100
AcDbLine
 10
134.6625813802083
 20
151.8642876519097
 30
0.0
 11
143.3383653428819
 21
151.8642876519097
 31
0.0
  0
LINE
  5
4C1
330
A
100
AcDbEntity
  8
0
 62
     7
100
AcDbLine
 10
134.4420952690972
 20
155.4642401801215
 30
0.0
 11
143.1178792317708
 21
155.4642401801215
 31
0.0
  0
LINE
  5
4C0
330
A
100
AcDbEntity
  8
0
 62
     7
100
AcDbLine
 10
104.3564208984374
 20
163.0052096896701
 30
0.0
 11
132.1714328342013
 21
163.0052096896701
 31
0.0
  0
LINE
  5
4BF
330
A
100
AcDbEntity
  8
0
 62
     7
100
AcDbLine
 10
143.285999891493
 20
151.8298366970485
 30
0.0
 11
143.285999891493
 21
155.4621731228298
 31
0.0
  0
INSERT
  5
4AA
330
A
100
AcDbEntity
  8
0
 62
     7
100
AcDbBlockReference
  2
AI9-BLK169
 10
146.1089111328124
 20
153.7914740668402
 30
0.0
  0
LINE
  5
4A8
330
A
100
AcDbEntity
  8
0
 62
     7
100
AcDbLine
 10
44.3137464735243
 20
242.4968261718749
 30
0.0
 11
44.3137464735243
 21
181.2714504665798
 31
0.0
  0
INSERT
  5
481
330
A
100
AcDbEntity
  8
0
 62
     7
100
AcDbBlockReference
  2
AI9-BLK160
 10
102.3642083062065
 20
32.55701361762152
 30
0.0
  0
INSERT
  5
459
330
A
100
AcDbEntity
  8
0
 62
     7
100
AcDbBlockReference
  2
AI9-BLK151
 10
102.3642083062065
 20
24.95816650390624
 30
0.0
  0
INSERT
  5
416
330
A
100
AcDbEntity
  8
0
 62
     7
100
AcDbBlockReference
  2
AI9-BLK136
 10
146.55849609375
 20
32.10157199435763
 30
0.0
  0
INSERT
  5
40D
330
A
100
AcDbEntity
  8
0
 62
     7
100
AcDbBlockReference
  2
AI9-BLK134
 10
53.13973659939236
 20
24.30187581380208
 30
0.0
  0
LINE
  5
40B
330
A
100
AcDbEntity
  8
0
 62
     7
100
AcDbLine
 10
110.8934895833333
 20
36.00193684895833
 30
0.0
 11
110.8934895833333
 21
28.31110568576388
 31
0.0
  0
LINE
  5
40A
330
A
100
AcDbEntity
  8
0
 62
     7
100
AcDbLine
 10
110.8934895833333
 20
28.56121961805555
 30
0.0
 11
110.8934895833333
 21
20.87038845486111
 31
0.0
  0
LINE
  5
409
330
A
100
AcDbEntity
  8
0
 62
     7
100
AcDbLine
 10
146.3951985677083
 20
36.00193684895833
 30
0.0
 11
146.3951985677083
 21
28.31110568576388
 31
0.0
  0
LINE
  5
408
330
A
100
AcDbEntity
  8
0
 62
     7
100
AcDbLine
 10
161.2731879340277
 20
36.00193684895833
 30
0.0
 11
161.2731879340277
 21
28.31110568576388
 31
0.0
  0
POLYLINE
  5
401
330
A
100
AcDbEntity
  8
0
 62
     7
100
AcDb2dPolyline
 66
     1
 10
0.0
 20
0.0
 30
0.0
  0
VERTEX
  5
402
330
401
100
AcDbEntity
  8
0
 62
     7
100
AcDbVertex
100
AcDb2dVertex
 10
200.4074055989583
 20
14.11111111111111
 30
0.0
  0
VERTEX
  5
403
330
401
100
AcDbEntity
  8
0
 62
     7
100
AcDbVertex
100
AcDb2dVertex
 10
11.93656684027777
 20
14.11111111111111
 30
0.0
  0
VERTEX
  5
404
330
401
100
AcDbEntity
  8
0
 62
     7
100
AcDbVertex
100
AcDb2dVertex
 10
11.93656684027777
 20
286.7888685438367
 30
0.0
  0
VERTEX
  5
405
330
401
100
AcDbEntity
  8
0
 62
     7
100
AcDbVertex
100
AcDb2dVertex
 10
200.4074055989583
 20
286.7888685438367
 30
0.0
  0
VERTEX
  5
406
330
401
100
AcDbEntity
  8
0
 62
     7
100
AcDbVertex
100
AcDb2dVertex
 10
200.4074055989583
 20
12.66107042100694
 30
0.0
  0
SEQEND
  5
407
330
401
100
AcDbEntity
  8
0
 62
     7
  0
LINE
  5
400
330
A
100
AcDbEntity
  8
0
 62
     7
100
AcDbLine
 10
92.99897460937499
 20
20.93171115451388
 30
0.0
 11
200.2554768880208
 21
20.93171115451388
 31
0.0
  0
LINE
  5
3FF
330
A
100
AcDbEntity
  8
0
 62
     7
100
AcDbLine
 10
92.99897460937499
 20
28.31110568576388
 30
0.0
 11
200.2554768880208
 21
28.31110568576388
 31
0.0
  0
LINE
  5
3FE
330
A
100
AcDbEntity
  8
0
 62
     7
100
AcDbLine
 10
92.99897460937499
 20
36.00193684895833
 30
0.0
 11
92.99897460937499
 21
14.11111111111111
 31
0.0
  0
LINE
  5
3FD
330
A
100
AcDbEntity
  8
0
 62
     7
100
AcDbLine
 10
11.93656684027777
 20
36.00193684895833
 30
0.0
 11
200.3998263888888
 21
36.00193684895833
 31
0.0
  0
INSERT
  5
3F5
330
A
100
AcDbEntity
  8
0
  6
AI9-LType1
 62
     7
100
AcDbBlockReference
  2
AI9-BLK133
 10
72.3056640625
 20
258.4591593424478
 30
0.0
  0
LINE
  5
3F3
330
A
100
AcDbEntity
  8
0
  6
AI9-LType1
 62
     7
100
AcDbLine
 10
72.3399427625868
 20
49.62728949652777
 30
0.0
 11
72.3399427625868
 21
95.89388834635416
 31
0.0
  0
SPLINE
  5
3F2
330
A
100
AcDbEntity
  8
0
 62
     7
100
AcDbSpline
210
0.0
220
0.0
230
1.0
 70
     9
 71
     3
 72
    35
 73
    31
 74
     0
 42
0.0000000001
 43
0.0000000001
 40
0.0
 40
0.0
 40
0.0
 40
0.0
 40
1.0
 40
1.0
 40
1.0
 40
2.0
 40
2.0
 40
2.0
 40
3.0
 40
3.0
 40
3.0
 40
4.0
 40
4.0
 40
4.0
 40
5.0
 40
5.0
 40
5.0
 40
6.0
 40
6.0
 40
6.0
 40
7.0
 40
7.0
 40
7.0
 40
8.0
 40
8.0
 40
8.0
 40
9.0
 40
9.0
 40
9.0
 40
10.0
 40
10.0
 40
10.0
 40
10.0
 10
77.61472846137152
 20
74.84022081163193
 30
0.0
 10
74.89103597005208
 20
75.10652669270832
 30
0.0
 10
75.18541937934028
 20
77.65589735243054
 30
0.0
 10
75.18541937934028
 20
77.65589735243054
 30
0.0
 10
75.18541937934028
 20
79.08526746961804
 30
0.0
 10
74.02700602213541
 20
80.24419759114582
 30
0.0
 10
72.59746365017361
 20
80.24419759114582
 30
0.0
 10
71.1682657877604
 20
80.24419759114582
 30
0.0
 10
70.00950792100694
 20
79.08526746961804
 30
0.0
 10
70.00950792100694
 20
77.65589735243054
 30
0.0
 10
70.00950792100694
 20
77.65589735243054
 30
0.0
 10
70.27426350911458
 20
75.05485026041665
 30
0.0
 10
67.59105088975694
 20
74.84022081163193
 30
0.0
 10
66.16615939670139
 20
74.72653266059026
 30
0.0
 10
65.00292290581596
 20
73.68163519965277
 30
0.0
 10
65.00292290581596
 20
72.25226508246527
 30
0.0
 10
65.00292290581596
 20
70.82255045572916
 30
0.0
 10
66.16150851779512
 20
69.6643093532986
 30
0.0
 10
67.59105088975694
 20
69.6643093532986
 30
0.0
 10
67.59105088975694
 20
69.6643093532986
 30
0.0
 10
72.75214843749999
 20
69.55475531684027
 30
0.0
 10
72.75214843749999
 20
69.55475531684027
 30
0.0
 10
72.75214843749999
 20
69.55475531684027
 30
0.0
 10
77.61472846137152
 20
69.6643093532986
 30
0.0
 10
77.61472846137152
 20
69.6643093532986
 30
0.0
 10
79.04409857855902
 20
69.6643093532986
 30
0.0
 10
80.20251193576388
 20
70.82255045572916
 30
0.0
 10
80.20251193576388
 20
72.25226508246527
 30
0.0
 10
80.20251193576388
 20
73.68163519965277
 30
0.0
 10
79.03703613281249
 20
74.70138346354166
 30
0.0
 10
77.61472846137152
 20
74.84022081163193
 30
0.0
  0
SPLINE
  5
3F1
330
A
100
AcDbEntity
  8
0
 62
     7
100
AcDbSpline
210
0.0
220
0.0
230
1.0
 70
     9
 71
     3
 72
    47
 73
    43
 74
     0
 42
0.0000000001
 43
0.0000000001
 40
0.0
 40
0.0
 40
0.0
 40
0.0
 40
1.0
 40
1.0
 40
1.0
 40
2.0
 40
2.0
 40
2.0
 40
3.0
 40
3.0
 40
3.0
 40
4.0
 40
4.0
 40
4.0
 40
5.0
 40
5.0
 40
5.0
 40
6.0
 40
6.0
 40
6.0
 40
7.0
 40
7.0
 40
7.0
 40
8.0
 40
8.0
 40
8.0
 40
9.0
 40
9.0
 40
9.0
 40
10.0
 40
10.0
 40
10.0
 40
11.0
 40
11.0
 40
11.0
 40
12.0
 40
12.0
 40
12.0
 40
13.0
 40
13.0
 40
13.0
 40
14.0
 40
14.0
 40
14.0
 40
14.0
 10
77.5921630859375
 20
70.66407606336804
 30
0.0
 10
77.5921630859375
 20
70.66407606336804
 30
0.0
 10
72.79469536675346
 20
70.55590006510415
 30
0.0
 10
72.75145941840277
 20
70.55486653645832
 30
0.0
 10
72.70787896050347
 20
70.55590006510415
 30
0.0
 10
67.59105088975694
 20
70.66442057291665
 30
0.0
 10
67.59105088975694
 20
70.66442057291665
 30
0.0
 10
66.71530761718749
 20
70.66442057291665
 30
0.0
 10
66.00286187065972
 20
71.37652180989582
 30
0.0
 10
66.00286187065972
 20
72.25226508246527
 30
0.0
 10
66.00286187065972
 20
73.20965711805555
 30
0.0
 10
66.84191487630208
 20
73.77740885416667
 30
0.0
 10
67.67080485026041
 20
73.84355468749999
 30
0.0
 10
69.01938747829861
 20
73.95138617621526
 30
0.0
 10
69.79005533854166
 20
74.55875651041665
 30
0.0
 10
70.19898817274304
 20
75.04933810763889
 30
0.0
 10
70.91815185546875
 20
75.91164550781249
 30
0.0
 10
71.01719835069444
 20
76.95378689236111
 30
0.0
 10
71.01719835069444
 20
77.46193847656249
 30
0.0
 10
71.01719835069444
 20
77.54737684461805
 30
0.0
 10
71.01444227430555
 20
77.61283365885415
 30
0.0
 10
71.01134168836805
 20
77.66485460069444
 30
0.0
 10
71.01633707682291
 20
78.53611924913194
 30
0.0
 10
71.72499321831596
 20
79.24408637152777
 30
0.0
 10
72.59746365017361
 20
79.24408637152777
 30
0.0
 10
73.46907280815971
 20
79.24408637152777
 30
0.0
 10
74.17686767578124
 20
78.53749728732639
 30
0.0
 10
74.18324110243054
 20
77.66692165798611
 30
0.0
 10
74.17910698784722
 20
77.60835503472221
 30
0.0
 10
74.17566189236111
 20
77.53394097222221
 30
0.0
 10
74.17566189236111
 20
77.4378228081597
 30
0.0
 10
74.17566189236111
 20
76.9289822048611
 30
0.0
 10
74.27608642578125
 20
75.95057508680554
 30
0.0
 10
74.95080837673611
 20
75.1151394314236
 30
0.0
 10
75.35819091796874
 20
74.61043294270833
 30
0.0
 10
76.13419867621527
 20
73.98032497829861
 30
0.0
 10
77.51757676866319
 20
73.84493272569443
 30
0.0
 10
78.32906901041666
 20
73.76569552951387
 30
0.0
 10
79.20257297092013
 20
73.23342827690972
 30
0.0
 10
79.20257297092013
 20
72.25226508246527
 30
0.0
 10
79.20257297092013
 20
71.37652180989582
 30
0.0
 10
78.49029947916666
 20
70.66442057291665
 30
0.0
 10
77.5921630859375
 20
70.66407606336804
 30
0.0
  0
LINE
  5
3F0
330
A
100
AcDbEntity
  8
0
 62
     7
100
AcDbLine
 10
36.0878919813368
 20
242.4968261718749
 30
0.0
 11
52.02008056640624
 21
242.4968261718749
 31
0.0
  0
LINE
  5
3EF
330
A
100
AcDbEntity
  8
0
 62
     7
100
AcDbLine
 10
64.1512953016493
 20
275.9790201822916
 30
0.0
 11
80.46399468315971
 21
275.9790201822916
 31
0.0
  0
LINE
  5
3EE
330
A
100
AcDbEntity
  8
0
 62
     7
100
AcDbLine
 10
64.1512953016493
 20
268.2468478732638
 30
0.0
 11
64.1512953016493
 21
275.9790201822916
 31
0.0
  0
LINE
  5
3ED
330
A
100
AcDbEntity
  8
0
 62
     7
100
AcDbLine
 10
80.46003282335069
 20
268.2468478732638
 30
0.0
 11
80.46003282335069
 21
275.9790201822916
 31
0.0
  0
LINE
  5
3EC
330
A
100
AcDbEntity
  8
0
 62
     7
100
AcDbLine
 10
36.0878919813368
 20
111.7378824869791
 30
0.0
 11
48.65267198350694
 21
111.7378824869791
 31
0.0
  0
LINE
  5
3EB
330
A
100
AcDbEntity
  8
0
 62
     7
100
AcDbLine
 10
45.24116617838541
 20
122.2633382161458
 30
0.0
 11
52.6324462890625
 21
122.2633382161458
 31
0.0
  0
LINE
  5
3EA
330
A
100
AcDbEntity
  8
0
 62
     7
100
AcDbLine
 10
44.3137464735243
 20
221.3961330837673
 30
0.0
 11
51.70502658420138
 21
221.3961330837673
 31
0.0
  0
LINE
  5
3E9
330
A
100
AcDbEntity
  8
0
 62
     7
100
AcDbLine
 10
44.3137464735243
 20
201.3995930989583
 30
0.0
 11
51.70502658420138
 21
201.3995930989583
 31
0.0
  0
LINE
  5
3E8
330
A
100
AcDbEntity
  8
0
 62
     7
100
AcDbLine
 10
44.3137464735243
 20
191.2338053385416
 30
0.0
 11
51.70502658420138
 21
191.2338053385416
 31
0.0
  0
LINE
  5
3E7
330
A
100
AcDbEntity
  8
0
 62
     7
100
AcDbLine
 10
44.3137464735243
 20
181.2357937282986
 30
0.0
 11
51.70502658420138
 21
181.2357937282986
 31
0.0
  0
LINE
  5
3E6
330
A
100
AcDbEntity
  8
0
 62
     7
100
AcDbLine
 10
44.3137464735243
 20
211.3981214735242
 30
0.0
 11
51.70502658420138
 21
211.3981214735242
 31
0.0
  0
LINE
  5
3E5
330
A
100
AcDbEntity
  8
0
 62
     7
100
AcDbLine
 10
44.33286675347221
 20
231.3955227322048
 30
0.0
 11
51.7241468641493
 21
231.3955227322048
 31
0.0
  0
LINE
  5
3E4
330
A
100
AcDbEntity
  8
0
 62
     7
100
AcDbLine
 10
45.35519883897569
 20
122.1785888671874
 30
0.0
 11
45.35519883897569
 21
111.7378824869791
 31
0.0
  0
LINE
  5
3E3
330
A
100
AcDbEntity
  8
0
 62
     7
100
AcDbLine
 10
36.0878919813368
 20
111.5714843749999
 30
0.0
 11
36.0878919813368
 21
242.4043253580729
 31
0.0
  0
HATCH
  5
3E2
330
A
100
AcDbEntity
  8
0
 62
     7
100
AcDbHatch
 10
0.0
 20
0.0
 30
0.0
210
0.0
220
0.0
230
1.0
  2
SOLID
 70
     1
 71
     0
 91
        1
 92
        1
 93
        1
 72
     4
 94
        3
 73
     0
 74
     0
 95
       17
 96
       13
 40
0.0
 40
0.0
 40
0.0
 40
0.0
 40
1.0
 40
1.0
 40
1.0
 40
2.0
 40
2.0
 40
2.0
 40
3.0
 40
3.0
 40
3.0
 40
4.0
 40
4.0
 40
4.0
 40
4.0
 10
36.31630181206596
 20
111.7278917100694
 10
36.31630181206596
 20
111.6231608072916
 10
36.23155246310763
 20
111.5384114583333
 10
36.12682156032986
 20
111.5384114583333
 10
36.02209065755207
 20
111.5384114583333
 10
35.93734130859374
 20
111.6231608072916
 10
35.93734130859374
 20
111.7278917100694
 10
35.93734130859374
 20
111.8326226128472
 10
36.02209065755207
 20
111.9173719618055
 10
36.12682156032986
 20
111.9173719618055
 10
36.23155246310763
 20
111.9173719618055
 10
36.31630181206596
 20
111.8326226128472
 10
36.31630181206596
 20
111.7278917100694
 97
        0
 75
     0
 76
     1
 98
        1
 10
0.0
 20
0.0
  0
HATCH
  5
3E1
330
A
100
AcDbEntity
  8
0
 62
     7
100
AcDbHatch
 10
0.0
 20
0.0
 30
0.0
210
0.0
220
0.0
230
1.0
  2
SOLID
 70
     1
 71
     0
 91
        1
 92
        1
 93
        1
 72
     4
 94
        3
 73
     0
 74
     0
 95
       17
 96
       13
 40
0.0
 40
0.0
 40
0.0
 40
0.0
 40
1.0
 40
1.0
 40
1.0
 40
2.0
 40
2.0
 40
2.0
 40
3.0
 40
3.0
 40
3.0
 40
4.0
 40
4.0
 40
4.0
 40
4.0
 10
45.61874864366319
 20
111.7278917100694
 10
45.61874864366319
 20
111.6231608072916
 10
45.53399929470486
 20
111.5384114583333
 10
45.42926839192708
 20
111.5384114583333
 10
45.3245374891493
 20
111.5384114583333
 10
45.23978814019097
 20
111.6231608072916
 10
45.23978814019097
 20
111.7278917100694
 10
45.23978814019097
 20
111.8326226128472
 10
45.3245374891493
 20
111.9173719618055
 10
45.42926839192708
 20
111.9173719618055
 10
45.53399929470486
 20
111.9173719618055
 10
45.61874864366319
 20
111.8326226128472
 10
45.61874864366319
 20
111.7278917100694
 97
        0
 75
     0
 76
     1
 98
        1
 10
0.0
 20
0.0
  0
HATCH
  5
3E0
330
A
100
AcDbEntity
  8
0
 62
     7
100
AcDbHatch
 10
0.0
 20
0.0
 30
0.0
210
0.0
220
0.0
230
1.0
  2
SOLID
 70
     1
 71
     0
 91
        1
 92
        1
 93
        1
 72
     4
 94
        3
 73
     0
 74
     0
 95
       17
 96
       13
 40
0.0
 40
0.0
 40
0.0
 40
0.0
 40
1.0
 40
1.0
 40
1.0
 40
2.0
 40
2.0
 40
2.0
 40
3.0
 40
3.0
 40
3.0
 40
4.0
 40
4.0
 40
4.0
 40
4.0
 10
45.61874864366319
 20
122.2006374782986
 10
45.61874864366319
 20
122.0959065755208
 10
45.53399929470486
 20
122.0111572265624
 10
45.42926839192708
 20
122.0111572265624
 10
45.3245374891493
 20
122.0111572265624
 10
45.23978814019097
 20
122.0959065755208
 10
45.23978814019097
 20
122.2006374782986
 10
45.23978814019097
 20
122.3053683810763
 10
45.3245374891493
 20
122.3901177300347
 10
45.42926839192708
 20
122.3901177300347
 10
45.53399929470486
 20
122.3901177300347
 10
45.61874864366319
 20
122.3053683810763
 10
45.61874864366319
 20
122.2006374782986
 97
        0
 75
     0
 76
     1
 98
        1
 10
0.0
 20
0.0
  0
HATCH
  5
3DF
330
A
100
AcDbEntity
  8
0
 62
     7
100
AcDbHatch
 10
0.0
 20
0.0
 30
0.0
210
0.0
220
0.0
230
1.0
  2
SOLID
 70
     1
 71
     0
 91
        1
 92
        1
 93
        1
 72
     4
 94
        3
 73
     0
 74
     0
 95
       17
 96
       13
 40
0.0
 40
0.0
 40
0.0
 40
0.0
 40
1.0
 40
1.0
 40
1.0
 40
2.0
 40
2.0
 40
2.0
 40
3.0
 40
3.0
 40
3.0
 40
4.0
 40
4.0
 40
4.0
 40
4.0
 10
36.20657552083333
 20
242.469782172309
 10
36.20657552083333
 20
242.3650512695312
 10
36.121826171875
 20
242.2803019205729
 10
36.01709526909722
 20
242.2803019205729
 10
35.91236436631944
 20
242.2803019205729
 10
35.8276150173611
 20
242.3650512695312
 10
35.8276150173611
 20
242.469782172309
 10
35.8276150173611
 20
242.5745130750867
 10
35.91236436631944
 20
242.6592624240451
 10
36.01709526909722
 20
242.6592624240451
 10
36.121826171875
 20
242.6592624240451
 10
36.20657552083333
 20
242.5745130750867
 10
36.20657552083333
 20
242.469782172309
 97
        0
 75
     0
 76
     1
 98
        1
 10
0.0
 20
0.0
  0
HATCH
  5
3DE
330
A
100
AcDbEntity
  8
0
 62
     7
100
AcDbHatch
 10
0.0
 20
0.0
 30
0.0
210
0.0
220
0.0
230
1.0
  2
SOLID
 70
     1
 71
     0
 91
        1
 92
        1
 93
        1
 72
     4
 94
        3
 73
     0
 74
     0
 95
       17
 96
       13
 40
0.0
 40
0.0
 40
0.0
 40
0.0
 40
1.0
 40
1.0
 40
1.0
 40
2.0
 40
2.0
 40
2.0
 40
3.0
 40
3.0
 40
3.0
 40
4.0
 40
4.0
 40
4.0
 40
4.0
 10
44.48462320963542
 20
242.469782172309
 10
44.48462320963542
 20
242.3650512695312
 10
44.39987386067707
 20
242.2803019205729
 10
44.2951429578993
 20
242.2803019205729
 10
44.19041205512153
 20
242.2803019205729
 10
44.10566270616318
 20
242.3650512695312
 10
44.10566270616318
 20
242.469782172309
 10
44.10566270616318
 20
242.5745130750867
 10
44.19041205512153
 20
242.6592624240451
 10
44.2951429578993
 20
242.6592624240451
 10
44.39987386067707
 20
242.6592624240451
 10
44.48462320963542
 20
242.5745130750867
 10
44.48462320963542
 20
242.469782172309
 97
        0
 75
     0
 76
     1
 98
        1
 10
0.0
 20
0.0
  0
HATCH
  5
3DD
330
A
100
AcDbEntity
  8
0
 62
     7
100
AcDbHatch
 10
0.0
 20
0.0
 30
0.0
210
0.0
220
0.0
230
1.0
  2
SOLID
 70
     1
 71
     0
 91
        1
 92
        1
 93
        1
 72
     4
 94
        3
 73
     0
 74
     0
 95
       17
 96
       13
 40
0.0
 40
0.0
 40
0.0
 40
0.0
 40
1.0
 40
1.0
 40
1.0
 40
2.0
 40
2.0
 40
2.0
 40
3.0
 40
3.0
 40
3.0
 40
4.0
 40
4.0
 40
4.0
 40
4.0
 10
44.48462320963542
 20
231.3436740451388
 10
44.48462320963542
 20
231.238943142361
 10
44.39987386067707
 20
231.1541937934027
 10
44.2951429578993
 20
231.1541937934027
 10
44.19041205512153
 20
231.1541937934027
 10
44.10566270616318
 20
231.238943142361
 10
44.10566270616318
 20
231.3436740451388
 10
44.10566270616318
 20
231.4484049479166
 10
44.19041205512153
 20
231.5331542968749
 10
44.2951429578993
 20
231.5331542968749
 10
44.39987386067707
 20
231.5331542968749
 10
44.48462320963542
 20
231.4484049479166
 10
44.48462320963542
 20
231.3436740451388
 97
        0
 75
     0
 76
     1
 98
        1
 10
0.0
 20
0.0
  0
HATCH
  5
3DC
330
A
100
AcDbEntity
  8
0
 62
     7
100
AcDbHatch
 10
0.0
 20
0.0
 30
0.0
210
0.0
220
0.0
230
1.0
  2
SOLID
 70
     1
 71
     0
 91
        1
 92
        1
 93
        1
 72
     4
 94
        3
 73
     0
 74
     0
 95
       17
 96
       13
 40
0.0
 40
0.0
 40
0.0
 40
0.0
 40
1.0
 40
1.0
 40
1.0
 40
2.0
 40
2.0
 40
2.0
 40
3.0
 40
3.0
 40
3.0
 40
4.0
 40
4.0
 40
4.0
 40
4.0
 10
44.48462320963542
 20
221.4386800130208
 10
44.48462320963542
 20
221.333949110243
 10
44.39987386067707
 20
221.2491997612846
 10
44.2951429578993
 20
221.2491997612846
 10
44.19041205512153
 20
221.2491997612846
 10
44.10566270616318
 20
221.333949110243
 10
44.10566270616318
 20
221.4386800130208
 10
44.10566270616318
 20
221.5434109157985
 10
44.19041205512153
 20
221.6281602647569
 10
44.2951429578993
 20
221.6281602647569
 10
44.39987386067707
 20
221.6281602647569
 10
44.48462320963542
 20
221.5434109157985
 10
44.48462320963542
 20
221.4386800130208
 97
        0
 75
     0
 76
     1
 98
        1
 10
0.0
 20
0.0
  0
HATCH
  5
3DB
330
A
100
AcDbEntity
  8
0
 62
     7
100
AcDbHatch
 10
0.0
 20
0.0
 30
0.0
210
0.0
220
0.0
230
1.0
  2
SOLID
 70
     1
 71
     0
 91
        1
 92
        1
 93
        1
 72
     4
 94
        3
 73
     0
 74
     0
 95
       17
 96
       13
 40
0.0
 40
0.0
 40
0.0
 40
0.0
 40
1.0
 40
1.0
 40
1.0
 40
2.0
 40
2.0
 40
2.0
 40
3.0
 40
3.0
 40
3.0
 40
4.0
 40
4.0
 40
4.0
 40
4.0
 10
44.48462320963542
 20
211.4522094726562
 10
44.48462320963542
 20
211.3474785698784
 10
44.39987386067707
 20
211.2627292209201
 10
44.2951429578993
 20
211.2627292209201
 10
44.19041205512153
 20
211.2627292209201
 10
44.10566270616318
 20
211.3474785698784
 10
44.10566270616318
 20
211.4522094726562
 10
44.10566270616318
 20
211.5569403754339
 10
44.19041205512153
 20
211.6416897243923
 10
44.2951429578993
 20
211.6416897243923
 10
44.39987386067707
 20
211.6416897243923
 10
44.48462320963542
 20
211.5569403754339
 10
44.48462320963542
 20
211.4522094726562
 97
        0
 75
     0
 76
     1
 98
        1
 10
0.0
 20
0.0
  0
HATCH
  5
3DA
330
A
100
AcDbEntity
  8
0
 62
     7
100
AcDbHatch
 10
0.0
 20
0.0
 30
0.0
210
0.0
220
0.0
230
1.0
  2
SOLID
 70
     1
 71
     0
 91
        1
 92
        1
 93
        1
 72
     4
 94
        3
 73
     0
 74
     0
 95
       17
 96
       13
 40
0.0
 40
0.0
 40
0.0
 40
0.0
 40
1.0
 40
1.0
 40
1.0
 40
2.0
 40
2.0
 40
2.0
 40
3.0
 40
3.0
 40
3.0
 40
4.0
 40
4.0
 40
4.0
 40
4.0
 10
44.48462320963542
 20
201.4385226779513
 10
44.48462320963542
 20
201.3337917751735
 10
44.39987386067707
 20
201.2490424262152
 10
44.2951429578993
 20
201.2490424262152
 10
44.19041205512153
 20
201.2490424262152
 10
44.10566270616318
 20
201.3337917751735
 10
44.10566270616318
 20
201.4385226779513
 10
44.10566270616318
 20
201.5432535807291
 10
44.19041205512153
 20
201.6280029296874
 10
44.2951429578993
 20
201.6280029296874
 10
44.39987386067707
 20
201.6280029296874
 10
44.48462320963542
 20
201.5432535807291
 10
44.48462320963542
 20
201.4385226779513
 97
        0
 75
     0
 76
     1
 98
        1
 10
0.0
 20
0.0
  0
HATCH
  5
3D9
330
A
100
AcDbEntity
  8
0
 62
     7
100
AcDbHatch
 10
0.0
 20
0.0
 30
0.0
210
0.0
220
0.0
230
1.0
  2
SOLID
 70
     1
 71
     0
 91
        1
 92
        1
 93
        1
 72
     4
 94
        3
 73
     0
 74
     0
 95
       17
 96
       13
 40
0.0
 40
0.0
 40
0.0
 40
0.0
 40
1.0
 40
1.0
 40
1.0
 40
2.0
 40
2.0
 40
2.0
 40
3.0
 40
3.0
 40
3.0
 40
4.0
 40
4.0
 40
4.0
 40
4.0
 10
44.48462320963542
 20
191.2079671223958
 10
44.48462320963542
 20
191.103236219618
 10
44.39987386067707
 20
191.0184868706597
 10
44.2951429578993
 20
191.0184868706597
 10
44.19041205512153
 20
191.0184868706597
 10
44.10566270616318
 20
191.103236219618
 10
44.10566270616318
 20
191.2079671223958
 10
44.10566270616318
 20
191.3126980251736
 10
44.19041205512153
 20
191.3974473741319
 10
44.2951429578993
 20
191.3974473741319
 10
44.39987386067707
 20
191.3974473741319
 10
44.48462320963542
 20
191.3126980251736
 10
44.48462320963542
 20
191.2079671223958
 97
        0
 75
     0
 76
     1
 98
        1
 10
0.0
 20
0.0
  0
HATCH
  5
3D8
330
A
100
AcDbEntity
  8
0
 62
     7
100
AcDbHatch
 10
0.0
 20
0.0
 30
0.0
210
0.0
220
0.0
230
1.0
  2
SOLID
 70
     1
 71
     0
 91
        1
 92
        1
 93
        1
 72
     4
 94
        3
 73
     0
 74
     0
 95
       17
 96
       13
 40
0.0
 40
0.0
 40
0.0
 40
0.0
 40
1.0
 40
1.0
 40
1.0
 40
2.0
 40
2.0
 40
2.0
 40
3.0
 40
3.0
 40
3.0
 40
4.0
 40
4.0
 40
4.0
 40
4.0
 10
44.48462320963542
 20
181.2419949001736
 10
44.48462320963542
 20
181.1372639973958
 10
44.39987386067707
 20
181.0525146484375
 10
44.2951429578993
 20
181.0525146484375
 10
44.19041205512153
 20
181.0525146484375
 10
44.10566270616318
 20
181.1372639973958
 10
44.10566270616318
 20
181.2419949001736
 10
44.10566270616318
 20
181.3467258029513
 10
44.19041205512153
 20
181.4314751519096
 10
44.2951429578993
 20
181.4314751519096
 10
44.39987386067707
 20
181.4314751519096
 10
44.48462320963542
 20
181.3467258029513
 10
44.48462320963542
 20
181.2419949001736
 97
        0
 75
     0
 76
     1
 98
        1
 10
0.0
 20
0.0
  0
HATCH
  5
3D7
330
A
100
AcDbEntity
  8
0
 62
     7
100
AcDbHatch
 10
0.0
 20
0.0
 30
0.0
210
0.0
220
0.0
230
1.0
  2
SOLID
 70
     1
 71
     0
 91
        1
 92
        1
 93
        1
 72
     4
 94
        3
 73
     0
 74
     0
 95
       17
 96
       13
 40
0.0
 40
0.0
 40
0.0
 40
0.0
 40
1.0
 40
1.0
 40
1.0
 40
2.0
 40
2.0
 40
2.0
 40
3.0
 40
3.0
 40
3.0
 40
4.0
 40
4.0
 40
4.0
 40
4.0
 10
143.2663628472222
 20
152.0637586805555
 10
143.37109375
 20
152.0637586805555
 10
143.4558430989583
 20
151.9790093315972
 10
143.4558430989583
 20
151.8742784288194
 10
143.4558430989583
 20
151.7695475260416
 10
143.37109375
 20
151.6847981770833
 10
143.2663628472222
 20
151.6847981770833
 10
143.1616319444444
 20
151.6847981770833
 10
143.076882595486
 20
151.7695475260416
 10
143.076882595486
 20
151.8742784288194
 10
143.076882595486
 20
151.9790093315972
 10
143.1616319444444
 20
152.0637586805555
 10
143.2663628472222
 20
152.0637586805555
 97
        0
 75
     0
 76
     1
 98
        1
 10
0.0
 20
0.0
  0
HATCH
  5
3D6
330
A
100
AcDbEntity
  8
0
 62
     7
100
AcDbHatch
 10
0.0
 20
0.0
 30
0.0
210
0.0
220
0.0
230
1.0
  2
SOLID
 70
     1
 71
     0
 91
        1
 92
        1
 93
        1
 72
     4
 94
        3
 73
     0
 74
     0
 95
       17
 96
       13
 40
0.0
 40
0.0
 40
0.0
 40
0.0
 40
1.0
 40
1.0
 40
1.0
 40
2.0
 40
2.0
 40
2.0
 40
3.0
 40
3.0
 40
3.0
 40
4.0
 40
4.0
 40
4.0
 40
4.0
 10
143.287722439236
 20
155.6747355143228
 10
143.3924533420138
 20
155.6747355143228
 10
143.4772026909722
 20
155.5899861653645
 10
143.4772026909722
 20
155.4852552625868
 10
143.4772026909722
 20
155.380524359809
 10
143.3924533420138
 20
155.2957750108507
 10
143.287722439236
 20
155.2957750108507
 10
143.1829915364583
 20
155.2957750108507
 10
143.0982421874999
 20
155.380524359809
 10
143.0982421874999
 20
155.4852552625868
 10
143.0982421874999
 20
155.5899861653645
 10
143.1829915364583
 20
155.6747355143228
 10
143.287722439236
 20
155.6747355143228
 97
        0
 75
     0
 76
     1
 98
        1
 10
0.0
 20
0.0
  0
HATCH
  5
3D5
330
A
100
AcDbEntity
  8
0
 62
     7
100
AcDbHatch
 10
0.0
 20
0.0
 30
0.0
210
0.0
220
0.0
230
1.0
  2
SOLID
 70
     1
 71
     0
 91
        1
 92
        1
 93
        1
 72
     4
 94
        3
 73
     0
 74
     0
 95
       17
 96
       13
 40
0.0
 40
0.0
 40
0.0
 40
0.0
 40
1.0
 40
1.0
 40
1.0
 40
2.0
 40
2.0
 40
2.0
 40
3.0
 40
3.0
 40
3.0
 40
4.0
 40
4.0
 40
4.0
 40
4.0
 10
132.177978515625
 20
163.1722968207465
 10
132.2827094184027
 20
163.1722968207465
 10
132.367458767361
 20
163.0875474717881
 10
132.367458767361
 20
162.9828165690103
 10
132.367458767361
 20
162.8780856662326
 10
132.2827094184027
 20
162.7933363172742
 10
132.177978515625
 20
162.7933363172742
 10
132.0732476128472
 20
162.7933363172742
 10
131.9884982638888
 20
162.8780856662326
 10
131.9884982638888
 20
162.9828165690103
 10
131.9884982638888
 20
163.0875474717881
 10
132.0732476128472
 20
163.1722968207465
 10
132.177978515625
 20
163.1722968207465
 97
        0
 75
     0
 76
     1
 98
        1
 10
0.0
 20
0.0
  0
HATCH
  5
3D4
330
A
100
AcDbEntity
  8
0
 62
     7
100
AcDbHatch
 10
0.0
 20
0.0
 30
0.0
210
0.0
220
0.0
230
1.0
  2
SOLID
 70
     1
 71
     0
 91
        1
 92
        1
 93
        1
 72
     4
 94
        3
 73
     0
 74
     0
 95
       17
 96
       13
 40
0.0
 40
0.0
 40
0.0
 40
0.0
 40
1.0
 40
1.0
 40
1.0
 40
2.0
 40
2.0
 40
2.0
 40
3.0
 40
3.0
 40
3.0
 40
4.0
 40
4.0
 40
4.0
 40
4.0
 10
104.5092108832465
 20
163.1722968207465
 10
104.6139417860243
 20
163.1722968207465
 10
104.6986911349826
 20
163.0875474717881
 10
104.6986911349826
 20
162.9828165690103
 10
104.6986911349826
 20
162.8780856662326
 10
104.6139417860243
 20
162.7933363172742
 10
104.5092108832465
 20
162.7933363172742
 10
104.4044799804687
 20
162.7933363172742
 10
104.3197306315104
 20
162.8780856662326
 10
104.3197306315104
 20
162.9828165690103
 10
104.3197306315104
 20
163.0875474717881
 10
104.4044799804687
 20
163.1722968207465
 10
104.5092108832465
 20
163.1722968207465
 97
        0
 75
     0
 76
     1
 98
        1
 10
0.0
 20
0.0
  0
HATCH
  5
3D3
330
A
100
AcDbEntity
  8
0
 62
     7
100
AcDbHatch
 10
0.0
 20
0.0
 30
0.0
210
0.0
220
0.0
230
1.0
  2
SOLID
 70
     1
 71
     0
 91
        1
 92
        1
 93
        1
 72
     4
 94
        3
 73
     0
 74
     0
 95
       17
 96
       13
 40
0.0
 40
0.0
 40
0.0
 40
0.0
 40
1.0
 40
1.0
 40
1.0
 40
2.0
 40
2.0
 40
2.0
 40
3.0
 40
3.0
 40
3.0
 40
4.0
 40
4.0
 40
4.0
 40
4.0
 10
94.24334309895831
 20
152.765352376302
 10
94.3480740017361
 20
152.765352376302
 10
94.43282335069444
 20
152.6806030273437
 10
94.43282335069444
 20
152.5758721245659
 10
94.43282335069444
 20
152.4711412217881
 10
94.3480740017361
 20
152.3863918728298
 10
94.24334309895831
 20
152.3863918728298
 10
94.13861219618054
 20
152.3863918728298
 10
94.05386284722222
 20
152.4711412217881
 10
94.05386284722222
 20
152.5758721245659
 10
94.05386284722222
 20
152.6806030273437
 10
94.13861219618054
 20
152.765352376302
 10
94.24334309895831
 20
152.765352376302
 97
        0
 75
     0
 76
     1
 98
        1
 10
0.0
 20
0.0
  0
HATCH
  5
3D2
330
A
100
AcDbEntity
  8
0
 62
     7
100
AcDbHatch
 10
0.0
 20
0.0
 30
0.0
210
0.0
220
0.0
230
1.0
  2
SOLID
 70
     1
 71
     0
 91
        1
 92
        1
 93
        1
 72
     4
 94
        3
 73
     0
 74
     0
 95
       17
 96
       13
 40
0.0
 40
0.0
 40
0.0
 40
0.0
 40
1.0
 40
1.0
 40
1.0
 40
2.0
 40
2.0
 40
2.0
 40
3.0
 40
3.0
 40
3.0
 40
4.0
 40
4.0
 40
4.0
 40
4.0
 10
94.24334309895831
 20
154.7672973632812
 10
94.3480740017361
 20
154.7672973632812
 10
94.43282335069444
 20
154.6825480143228
 10
94.43282335069444
 20
154.5778171115451
 10
94.43282335069444
 20
154.4730862087673
 10
94.3480740017361
 20
154.388336859809
 10
94.24334309895831
 20
154.388336859809
 10
94.13861219618054
 20
154.388336859809
 10
94.05386284722222
 20
154.4730862087673
 10
94.05386284722222
 20
154.5778171115451
 10
94.05386284722222
 20
154.6825480143228
 10
94.13861219618054
 20
154.7672973632812
 10
94.24334309895831
 20
154.7672973632812
 97
        0
 75
     0
 76
     1
 98
        1
 10
0.0
 20
0.0
  0
HATCH
  5
3D1
330
A
100
AcDbEntity
  8
0
 62
     7
100
AcDbHatch
 10
0.0
 20
0.0
 30
0.0
210
0.0
220
0.0
230
1.0
  2
SOLID
 70
     1
 71
     0
 91
        1
 92
        1
 93
        1
 72
     4
 94
        3
 73
     0
 74
     0
 95
       17
 96
       13
 40
0.0
 40
0.0
 40
0.0
 40
0.0
 40
1.0
 40
1.0
 40
1.0
 40
2.0
 40
2.0
 40
2.0
 40
3.0
 40
3.0
 40
3.0
 40
4.0
 40
4.0
 40
4.0
 40
4.0
 10
131.0631456163194
 20
159.9018676757812
 10
131.1678765190972
 20
159.9018676757812
 10
131.2526258680555
 20
159.8171183268229
 10
131.2526258680555
 20
159.7123874240451
 10
131.2526258680555
 20
159.6076565212673
 10
131.1678765190972
 20
159.522907172309
 10
131.0631456163194
 20
159.522907172309
 10
130.9584147135416
 20
159.522907172309
 10
130.8736653645833
 20
159.6076565212673
 10
130.8736653645833
 20
159.7123874240451
 10
130.8736653645833
 20
159.8171183268229
 10
130.9584147135416
 20
159.9018676757812
 10
131.0631456163194
 20
159.9018676757812
 97
        0
 75
     0
 76
     1
 98
        1
 10
0.0
 20
0.0
  0
HATCH
  5
3D0
330
A
100
AcDbEntity
  8
0
 62
     7
100
AcDbHatch
 10
0.0
 20
0.0
 30
0.0
210
0.0
220
0.0
230
1.0
  2
SOLID
 70
     1
 71
     0
 91
        1
 92
        1
 93
        1
 72
     4
 94
        3
 73
     0
 74
     0
 95
       17
 96
       13
 40
0.0
 40
0.0
 40
0.0
 40
0.0
 40
1.0
 40
1.0
 40
1.0
 40
2.0
 40
2.0
 40
2.0
 40
3.0
 40
3.0
 40
3.0
 40
4.0
 40
4.0
 40
4.0
 40
4.0
 10
132.1524848090277
 20
159.9018676757812
 10
132.2572157118055
 20
159.9018676757812
 10
132.3419650607638
 20
159.8171183268229
 10
132.3419650607638
 20
159.7123874240451
 10
132.3419650607638
 20
159.6076565212673
 10
132.2572157118055
 20
159.522907172309
 10
132.1524848090277
 20
159.522907172309
 10
132.0477539062499
 20
159.522907172309
 10
131.9630045572916
 20
159.6076565212673
 10
131.9630045572916
 20
159.7123874240451
 10
131.9630045572916
 20
159.8171183268229
 10
132.0477539062499
 20
159.9018676757812
 10
132.1524848090277
 20
159.9018676757812
 97
        0
 75
     0
 76
     1
 98
        1
 10
0.0
 20
0.0
  0
HATCH
  5
3CF
330
A
100
AcDbEntity
  8
0
 62
     7
100
AcDbHatch
 10
0.0
 20
0.0
 30
0.0
210
0.0
220
0.0
230
1.0
  2
SOLID
 70
     1
 71
     0
 91
        1
 92
        1
 93
        1
 72
     4
 94
        3
 73
     0
 74
     0
 95
       17
 96
       13
 40
0.0
 40
0.0
 40
0.0
 40
0.0
 40
1.0
 40
1.0
 40
1.0
 40
2.0
 40
2.0
 40
2.0
 40
3.0
 40
3.0
 40
3.0
 40
4.0
 40
4.0
 40
4.0
 40
4.0
 10
64.33698594835068
 20
275.9852213541666
 10
64.33698594835068
 20
275.8804904513888
 10
64.25223659939236
 20
275.7957411024305
 10
64.14750569661457
 20
275.7957411024305
 10
64.04277479383679
 20
275.7957411024305
 10
63.95802544487846
 20
275.8804904513888
 10
63.95802544487846
 20
275.9852213541666
 10
63.95802544487846
 20
276.0899522569443
 10
64.04277479383679
 20
276.1747016059027
 10
64.14750569661457
 20
276.1747016059027
 10
64.25223659939236
 20
276.1747016059027
 10
64.33698594835068
 20
276.0899522569443
 10
64.33698594835068
 20
275.9852213541666
 97
        0
 75
     0
 76
     1
 98
        1
 10
0.0
 20
0.0
  0
HATCH
  5
3CE
330
A
100
AcDbEntity
  8
0
 62
     7
100
AcDbHatch
 10
0.0
 20
0.0
 30
0.0
210
0.0
220
0.0
230
1.0
  2
SOLID
 70
     1
 71
     0
 91
        1
 92
        1
 93
        1
 72
     4
 94
        3
 73
     0
 74
     0
 95
       17
 96
       13
 40
0.0
 40
0.0
 40
0.0
 40
0.0
 40
1.0
 40
1.0
 40
1.0
 40
2.0
 40
2.0
 40
2.0
 40
3.0
 40
3.0
 40
3.0
 40
4.0
 40
4.0
 40
4.0
 40
4.0
 10
80.65898708767361
 20
275.9852213541666
 10
80.65898708767361
 20
275.8804904513888
 10
80.57423773871526
 20
275.7957411024305
 10
80.46950683593749
 20
275.7957411024305
 10
80.36477593315972
 20
275.7957411024305
 10
80.28002658420138
 20
275.8804904513888
 10
80.28002658420138
 20
275.9852213541666
 10
80.28002658420138
 20
276.0899522569443
 10
80.36477593315972
 20
276.1747016059027
 10
80.46950683593749
 20
276.1747016059027
 10
80.57423773871526
 20
276.1747016059027
 10
80.65898708767361
 20
276.0899522569443
 10
80.65898708767361
 20
275.9852213541666
 97
        0
 75
     0
 76
     1
 98
        1
 10
0.0
 20
0.0
  0
INSERT
  5
3B0
330
A
100
AcDbEntity
  8
0
 62
     7
100
AcDbBlockReference
  2
AI9-BLK126
 10
33.97243109809027
 20
184.1761827256944
 30
0.0
  0
INSERT
  5
391
330
A
100
AcDbEntity
  8
0
 62
     7
100
AcDbBlockReference
  2
AI9-BLK119
 10
71.95150824652777
 20
278.4729248046874
 30
0.0
  0
LINE
  5
38F
330
A
100
AcDbEntity
  8
0
 62
     7
100
AcDbLine
 10
58.07604166666666
 20
94.9182373046875
 30
0.0
 11
58.07604166666666
 21
102.6504096137152
 31
0.0
  0
LINE
  5
38E
330
A
100
AcDbEntity
  8
0
 62
     7
100
AcDbLine
 10
86.39076470269095
 20
94.9182373046875
 30
0.0
 11
86.39076470269095
 21
102.6504096137152
 31
0.0
  0
LINE
  5
38D
330
A
100
AcDbEntity
  8
0
 62
     7
100
AcDbLine
 10
58.12272271050346
 20
102.6504096137152
 30
0.0
 11
86.32685818142361
 21
102.6504096137152
 31
0.0
  0
LINE
  5
38C
330
A
100
AcDbEntity
  8
0
 62
     7
100
AcDbLine
 10
36.12682156032986
 20
53.25428602430555
 30
0.0
 11
36.12682156032986
 21
93.53709852430554
 31
0.0
  0
LINE
  5
38B
330
A
100
AcDbEntity
  8
0
 62
     7
100
AcDbLine
 10
54.49073079427083
 20
53.24463975694444
 30
0.0
 11
36.12682156032986
 21
53.24463975694444
 31
0.0
  0
LINE
  5
38A
330
A
100
AcDbEntity
  8
0
 62
     7
100
AcDbLine
 10
54.49073079427083
 20
93.42685546874999
 30
0.0
 11
36.12682156032986
 21
93.42685546874999
 31
0.0
  0
HATCH
  5
389
330
A
100
AcDbEntity
  8
0
 62
     7
100
AcDbHatch
 10
0.0
 20
0.0
 30
0.0
210
0.0
220
0.0
230
1.0
  2
SOLID
 70
     1
 71
     0
 91
        1
 92
        1
 93
        1
 72
     4
 94
        3
 73
     0
 74
     0
 95
       17
 96
       13
 40
0.0
 40
0.0
 40
0.0
 40
0.0
 40
1.0
 40
1.0
 40
1.0
 40
2.0
 40
2.0
 40
2.0
 40
3.0
 40
3.0
 40
3.0
 40
4.0
 40
4.0
 40
4.0
 40
4.0
 10
36.12062038845486
 20
53.41586100260416
 10
36.22535129123263
 20
53.41586100260416
 10
36.31010064019096
 20
53.33111165364583
 10
36.31010064019096
 20
53.22638075086805
 10
36.31010064019096
 20
53.12164984809027
 10
36.22535129123263
 20
53.03690049913194
 10
36.12062038845486
 20
53.03690049913194
 10
36.01588948567707
 20
53.03690049913194
 10
35.93114013671874
 20
53.12164984809027
 10
35.93114013671874
 20
53.22638075086805
 10
35.93114013671874
 20
53.33111165364583
 10
36.01588948567707
 20
53.41586100260416
 10
36.12062038845486
 20
53.41586100260416
 97
        0
 75
     0
 76
     1
 98
        1
 10
0.0
 20
0.0
  0
HATCH
  5
388
330
A
100
AcDbEntity
  8
0
 62
     7
100
AcDbHatch
 10
0.0
 20
0.0
 30
0.0
210
0.0
220
0.0
230
1.0
  2
SOLID
 70
     1
 71
     0
 91
        1
 92
        1
 93
        1
 72
     4
 94
        3
 73
     0
 74
     0
 95
       17
 96
       13
 40
0.0
 40
0.0
 40
0.0
 40
0.0
 40
1.0
 40
1.0
 40
1.0
 40
2.0
 40
2.0
 40
2.0
 40
3.0
 40
3.0
 40
3.0
 40
4.0
 40
4.0
 40
4.0
 40
4.0
 10
36.12062038845486
 20
93.62460394965276
 10
36.22535129123263
 20
93.62460394965276
 10
36.31010064019096
 20
93.53985460069443
 10
36.31010064019096
 20
93.43512369791666
 10
36.31010064019096
 20
93.33039279513888
 10
36.22535129123263
 20
93.24564344618055
 10
36.12062038845486
 20
93.24564344618055
 10
36.01588948567707
 20
93.24564344618055
 10
35.93114013671874
 20
93.33039279513888
 10
35.93114013671874
 20
93.43512369791666
 10
35.93114013671874
 20
93.53985460069443
 10
36.01588948567707
 20
93.62460394965276
 10
36.12062038845486
 20
93.62460394965276
 97
        0
 75
     0
 76
     1
 98
        1
 10
0.0
 20
0.0
  0
HATCH
  5
387
330
A
100
AcDbEntity
  8
0
 62
     7
100
AcDbHatch
 10
0.0
 20
0.0
 30
0.0
210
0.0
220
0.0
230
1.0
  2
SOLID
 70
     1
 71
     0
 91
        1
 92
        1
 93
        1
 72
     4
 94
        3
 73
     0
 74
     0
 95
       17
 96
       13
 40
0.0
 40
0.0
 40
0.0
 40
0.0
 40
1.0
 40
1.0
 40
1.0
 40
2.0
 40
2.0
 40
2.0
 40
3.0
 40
3.0
 40
3.0
 40
4.0
 40
4.0
 40
4.0
 40
4.0
 10
57.8789822048611
 20
102.6576443142361
 10
57.8789822048611
 20
102.7623752170138
 10
57.96373155381943
 20
102.8471245659722
 10
58.06846245659722
 20
102.8471245659722
 10
58.17319335937499
 20
102.8471245659722
 10
58.25794270833333
 20
102.7623752170138
 10
58.25794270833333
 20
102.6576443142361
 10
58.25794270833333
 20
102.5529134114583
 10
58.17319335937499
 20
102.4681640624999
 10
58.06846245659722
 20
102.4681640624999
 10
57.96373155381943
 20
102.4681640624999
 10
57.8789822048611
 20
102.5529134114583
 10
57.8789822048611
 20
102.6576443142361
 97
        0
 75
     0
 76
     1
 98
        1
 10
0.0
 20
0.0
  0
HATCH
  5
386
330
A
100
AcDbEntity
  8
0
 62
     7
100
AcDbHatch
 10
0.0
 20
0.0
 30
0.0
210
0.0
220
0.0
230
1.0
  2
SOLID
 70
     1
 71
     0
 91
        1
 92
        1
 93
        1
 72
     4
 94
        3
 73
     0
 74
     0
 95
       17
 96
       13
 40
0.0
 40
0.0
 40
0.0
 40
0.0
 40
1.0
 40
1.0
 40
1.0
 40
2.0
 40
2.0
 40
2.0
 40
3.0
 40
3.0
 40
3.0
 40
4.0
 40
4.0
 40
4.0
 40
4.0
 10
86.19973415798609
 20
102.6576443142361
 10
86.19973415798609
 20
102.7623752170138
 10
86.28448350694444
 20
102.8471245659722
 10
86.38921440972222
 20
102.8471245659722
 10
86.49394531249999
 20
102.8471245659722
 10
86.57869466145832
 20
102.7623752170138
 10
86.57869466145832
 20
102.6576443142361
 10
86.57869466145832
 20
102.5529134114583
 10
86.49394531249999
 20
102.4681640624999
 10
86.38921440972222
 20
102.4681640624999
 10
86.28448350694444
 20
102.4681640624999
 10
86.19973415798609
 20
102.5529134114583
 10
86.19973415798609
 20
102.6576443142361
 97
        0
 75
     0
 76
     1
 98
        1
 10
0.0
 20
0.0
  0
INSERT
  5
368
330
A
100
AcDbEntity
  8
0
 62
     7
100
AcDbBlockReference
  2
AI9-BLK112
 10
34.19567328559027
 20
73.81048177083332
 30
0.0
  0
INSERT
  5
349
330
A
100
AcDbEntity
  8
0
 62
     7
100
AcDbBlockReference
  2
AI9-BLK105
 10
74.16567111545139
 20
44.38867730034721
 30
0.0
  0
INSERT
  5
32A
330
A
100
AcDbEntity
  8
0
 62
     7
100
AcDbBlockReference
  2
AI9-BLK98
 10
163.7433213975694
 20
44.74937879774304
 30
0.0
  0
INSERT
  5
321
330
A
100
AcDbEntity
  8
0
 62
     7
100
AcDbBlockReference
  2
AI9-BLK96
 10
64.47789035373263
 20
44.38867730034721
 30
0.0
  0
POLYLINE
  5
31A
330
A
100
AcDbEntity
  8
0
 62
     7
100
AcDb2dPolyline
 66
     1
 10
0.0
 20
0.0
 30
0.0
 70
     1
  0
VERTEX
  5
31B
330
31A
100
AcDbEntity
  8
0
 62
     7
100
AcDbVertex
100
AcDb2dVertex
 10
91.72997368706596
 20
41.65464952256944
 30
0.0
  0
VERTEX
  5
31C
330
31A
100
AcDbEntity
  8
0
 62
     7
100
AcDbVertex
100
AcDb2dVertex
 10
57.15775146484374
 20
41.65464952256944
 30
0.0
  0
VERTEX
  5
31D
330
31A
100
AcDbEntity
  8
0
 62
     7
100
AcDbVertex
100
AcDb2dVertex
 10
57.15775146484374
 20
47.12270507812499
 30
0.0
  0
VERTEX
  5
31E
330
31A
100
AcDbEntity
  8
0
 62
     7
100
AcDbVertex
100
AcDb2dVertex
 10
91.72997368706596
 20
47.12270507812499
 30
0.0
  0
SEQEND
  5
31F
330
31A
100
AcDbEntity
  8
0
 62
     7
  0
POLYLINE
  5
314
330
A
100
AcDbEntity
  8
0
 62
     7
100
AcDb2dPolyline
 66
     1
 10
0.0
 20
0.0
 30
0.0
 70
     1
  0
VERTEX
  5
315
330
314
100
AcDbEntity
  8
0
 62
     7
100
AcDbVertex
100
AcDb2dVertex
 10
180.6018961588541
 20
41.83482801649304
 30
0.0
  0
VERTEX
  5
316
330
314
100
AcDbEntity
  8
0
 62
     7
100
AcDbVertex
100
AcDb2dVertex
 10
146.0296739366319
 20
41.83482801649304
 30
0.0
  0
VERTEX
  5
317
330
314
100
AcDbEntity
  8
0
 62
     7
100
AcDbVertex
100
AcDb2dVertex
 10
146.0296739366319
 20
47.30288357204861
 30
0.0
  0
VERTEX
  5
318
330
314
100
AcDbEntity
  8
0
 62
     7
100
AcDbVertex
100
AcDb2dVertex
 10
180.6018961588541
 20
47.30288357204861
 30
0.0
  0
SEQEND
  5
319
330
314
100
AcDbEntity
  8
0
 62
     7
  0
SPLINE
  5
313
330
A
100
AcDbEntity
  8
0
 62
     7
100
AcDbSpline
210
0.0
220
0.0
230
1.0
 70
     8
 71
     3
 72
    11
 73
     7
 74
     0
 42
0.0000000001
 43
0.0000000001
 40
0.0
 40
0.0
 40
0.0
 40
0.0
 40
1.0
 40
1.0
 40
1.0
 40
2.0
 40
2.0
 40
2.0
 40
2.0
 10
52.31877034505208
 20
141.1428059895833
 30
0.0
 10
52.34512532552082
 20
140.894070095486
 30
0.0
 10
52.56819525824653
 20
140.7135470920138
 30
0.0
 10
52.81744791666666
 20
140.739040798611
 30
0.0
 10
52.8219265407986
 20
140.7397298177083
 30
0.0
 10
52.82623291015625
 20
140.7404188368055
 30
0.0
 10
52.83036702473958
 20
140.7411078559027
 30
0.0
  0
LINE
  5
312
330
A
100
AcDbEntity
  8
0
  6
AI9-LType4
 62
     7
100
AcDbLine
 10
80.09071858723958
 20
119.7825249565972
 30
0.0
 11
64.62051730685764
 21
119.7825249565972
 31
0.0
  0
SPLINE
  5
311
330
A
100
AcDbEntity
  8
0
 62
     7
100
AcDbSpline
210
0.0
220
0.0
230
1.0
 70
     9
 71
     3
 72
    17
 73
    13
 74
     0
 42
0.0000000001
 43
0.0000000001
 40
0.0
 40
0.0
 40
0.0
 40
0.0
 40
1.0
 40
1.0
 40
1.0
 40
2.0
 40
2.0
 40
2.0
 40
3.0
 40
3.0
 40
3.0
 40
4.0
 40
4.0
 40
4.0
 40
4.0
 10
75.87013210720485
 20
61.8911404079861
 30
0.0
 10
76.62012939453124
 20
61.60864257812499
 30
0.0
 10
77.49208306206596
 20
62.2042995876736
 30
0.0
 10
77.81816134982638
 20
63.22094726562499
 30
0.0
 10
78.14423963758679
 20
64.237939453125
 30
0.0
 10
77.80059136284721
 20
65.29144965277777
 30
0.0
 10
77.05093858506943
 20
65.57394748263888
 30
0.0
 10
76.30128580729166
 20
65.85610080295139
 30
0.0
 10
75.42898763020833
 20
65.26113281249999
 30
0.0
 10
75.10290934244792
 20
64.244140625
 30
0.0
 10
74.77665879991319
 20
63.22714843749999
 30
0.0
 10
75.12047932942707
 20
62.17398274739583
 30
0.0
 10
75.87013210720485
 20
61.8911404079861
 30
0.0
  0
SPLINE
  5
310
330
A
100
AcDbEntity
  8
0
 62
     7
100
AcDbSpline
210
0.0
220
0.0
230
1.0
 70
     9
 71
     3
 72
    17
 73
    13
 74
     0
 42
0.0000000001
 43
0.0000000001
 40
0.0
 40
0.0
 40
0.0
 40
0.0
 40
1.0
 40
1.0
 40
1.0
 40
2.0
 40
2.0
 40
2.0
 40
3.0
 40
3.0
 40
3.0
 40
4.0
 40
4.0
 40
4.0
 40
4.0
 10
68.8085476345486
 20
61.8911404079861
 30
0.0
 10
68.05855034722222
 20
61.60864257812499
 30
0.0
 10
67.1865966796875
 20
62.2042995876736
 30
0.0
 10
66.86051839192707
 20
63.22094726562499
 30
0.0
 10
66.53444010416666
 20
64.237939453125
 30
0.0
 10
66.87808837890624
 20
65.29144965277777
 30
0.0
 10
67.62774115668403
 20
65.57394748263888
 30
0.0
 10
68.37739393446179
 20
65.85610080295139
 30
0.0
 10
69.24969211154513
 20
65.26113281249999
 30
0.0
 10
69.57577039930555
 20
64.244140625
 30
0.0
 10
69.90202094184027
 20
63.22714843749999
 30
0.0
 10
69.55820041232638
 20
62.17398274739583
 30
0.0
 10
68.8085476345486
 20
61.8911404079861
 30
0.0
  0
LINE
  5
30F
330
A
100
AcDbEntity
  8
0
  6
AI9-LType5
 62
     7
100
AcDbLine
 10
61.65687391493055
 20
64.31442057291666
 30
0.0
 11
65.91914605034722
 21
60.0524929470486
 31
0.0
  0
LINE
  5
30E
330
A
100
AcDbEntity
  8
0
  6
AI9-LType5
 62
     7
100
AcDbLine
 10
65.91914605034722
 20
64.31442057291666
 30
0.0
 11
61.65687391493055
 21
60.0524929470486
 31
0.0
  0
CIRCLE
  5
30D
330
A
100
AcDbEntity
  8
0
 62
     7
100
AcDbCircle
 10
63.78800998263888
 20
62.18362901475694
 30
0.0
 40
1.004589843749999
  0
LINE
  5
30C
330
A
100
AcDbEntity
  8
0
  6
AI9-LType5
 62
     7
100
AcDbLine
 10
83.04574924045139
 20
64.31442057291666
 30
0.0
 11
78.78382161458333
 21
60.0524929470486
 31
0.0
  0
LINE
  5
30B
330
A
100
AcDbEntity
  8
0
  6
AI9-LType5
 62
     7
100
AcDbLine
 10
78.78382161458333
 20
64.31442057291666
 30
0.0
 11
83.04574924045139
 21
60.0524929470486
 31
0.0
  0
CIRCLE
  5
30A
330
A
100
AcDbEntity
  8
0
 62
     7
100
AcDbCircle
 10
80.91461317274305
 20
62.18362901475694
 30
0.0
 40
1.004589843749999
  0
LINE
  5
309
330
A
100
AcDbEntity
  8
0
  6
AI9-LType5
 62
     7
100
AcDbLine
 10
78.78382161458333
 20
86.61865776909721
 30
0.0
 11
83.04574924045139
 21
82.35673014322916
 31
0.0
  0
CIRCLE
  5
308
330
A
100
AcDbEntity
  8
0
 62
     7
100
AcDbCircle
 10
80.91461317274305
 20
84.4878662109375
 30
0.0
 40
1.004589843749999
  0
LINE
  5
307
330
A
100
AcDbEntity
  8
0
  6
AI9-LType5
 62
     7
100
AcDbLine
 10
83.04574924045139
 20
86.61865776909721
 30
0.0
 11
78.78382161458333
 21
82.35673014322916
 31
0.0
  0
LINE
  5
306
330
A
100
AcDbEntity
  8
0
  6
AI9-LType5
 62
     7
100
AcDbLine
 10
65.83818630642361
 20
86.61865776909721
 30
0.0
 11
61.57591417100693
 21
82.35673014322916
 31
0.0
  0
CIRCLE
  5
305
330
A
100
AcDbEntity
  8
0
 62
     7
100
AcDbCircle
 10
63.72996012369791
 20
84.46547309027776
 30
0.0
 40
2.999989149305555
  0
CIRCLE
  5
304
330
A
100
AcDbEntity
  8
0
 62
     7
100
AcDbCircle
 10
80.96163872612846
 20
84.46547309027776
 30
0.0
 40
2.999989149305555
  0
CIRCLE
  5
303
330
A
100
AcDbEntity
  8
0
 62
     7
100
AcDbCircle
 10
80.96163872612846
 20
62.21842447916666
 30
0.0
 40
2.999989149305555
  0
CIRCLE
  5
302
330
A
100
AcDbEntity
  8
0
 62
     7
100
AcDbCircle
 10
63.73013237847221
 20
62.21842447916666
 30
0.0
 40
2.999989149305555
  0
CIRCLE
  5
301
330
A
100
AcDbEntity
  8
0
 62
     7
100
AcDbCircle
 10
63.70705023871527
 20
84.4878662109375
 30
0.0
 40
1.004589843749999
  0
LINE
  5
300
330
A
100
AcDbEntity
  8
0
  6
AI9-LType5
 62
     7
100
AcDbLine
 10
61.57591417100693
 20
86.61865776909721
 30
0.0
 11
65.83818630642361
 21
82.35673014322916
 31
0.0
  0
CIRCLE
  5
2FE
330
A
100
AcDbEntity
  8
0
 62
     7
100
AcDbCircle
 10
72.4825697157118
 20
73.36124131944443
 30
0.0
 40
8.249970160590276
  0
INSERT
  5
2F6
330
A
100
AcDbEntity
  8
0
 62
     7
100
AcDbBlockReference
  2
AI9-BLK94
 10
87.4463419596354
 20
252.1291408962673
 30
0.0
  0
INSERT
  5
2ED
330
A
100
AcDbEntity
  8
0
 62
     7
100
AcDbBlockReference
  2
AI9-BLK92
 10
58.84266153971354
 20
252.0254435221354
 30
0.0
  0
LINE
  5
2EB
330
A
100
AcDbEntity
  8
0
 62
     7
100
AcDbLine
 10
80.37149386935764
 20
255.002350531684
 30
0.0
 11
83.1055216471354
 21
254.0322116427951
 31
0.0
  0
LINE
  5
2EA
330
A
100
AcDbEntity
  8
0
 62
     7
100
AcDbLine
 10
61.67427164713541
 20
253.4975328233506
 30
0.0
 11
64.40829942491318
 21
254.8314737955728
 31
0.0
  0
POLYLINE
  5
2E5
330
A
100
AcDbEntity
  8
0
 62
     7
100
AcDb2dPolyline
 66
     1
 10
0.0
 20
0.0
 30
0.0
  0
VERTEX
  5
2E6
330
2E5
100
AcDbEntity
  8
0
 62
     7
100
AcDbVertex
100
AcDb2dVertex
 10
72.87496609157985
 20
264.2627671983506
 30
0.0
  0
VERTEX
  5
2E7
330
2E5
100
AcDbEntity
  8
0
 62
     7
100
AcDbVertex
100
AcDb2dVertex
 10
74.19788275824652
 20
266.2030449761284
 30
0.0
  0
VERTEX
  5
2E8
330
2E5
100
AcDbEntity
  8
0
 62
     7
100
AcDbVertex
100
AcDb2dVertex
 10
77.54927164713541
 20
266.2030449761284
 30
0.0
  0
SEQEND
  5
2E9
330
2E5
100
AcDbEntity
  8
0
 62
     7
  0
INSERT
  5
2DD
330
A
100
AcDbEntity
  8
0
  6
AI9-LType1
 62
     7
100
AcDbBlockReference
  2
AI9-BLK90
 10
81.25869208441839
 20
266.1747951931423
 30
0.0
  0
LINE
  5
2DB
330
A
100
AcDbEntity
  8
0
  6
AI9-LType1
 62
     7
100
AcDbLine
 10
72.33219129774305
 20
109.6312065972222
 30
0.0
 11
72.33219129774305
 21
269.8703491210937
 31
0.0
  0
LINE
  5
2DA
330
A
100
AcDbEntity
  8
0
 62
     7
100
AcDbLine
 10
51.93946533203124
 20
111.6810384114583
 30
0.0
 11
97.46605767144096
 21
111.6810384114583
 31
0.0
  0
INSERT
  5
2D5
330
A
100
AcDbEntity
  8
0
 62
     7
100
AcDbBlockReference
  2
AI9-BLK89
 10
68.20091891818576
 20
119.8466037326388
 30
0.0
  0
INSERT
  5
2CF
330
A
100
AcDbEntity
  8
0
  6
AI9-LType4
 62
     7
100
AcDbBlockReference
  2
AI9-BLK88
 10
76.19715779622395
 20
119.8466037326388
 30
0.0
  0
LINE
  5
2CD
330
A
100
AcDbEntity
  8
0
  6
AI9-LType4
 62
     7
100
AcDbLine
 10
76.18105197482639
 20
117.1229112413194
 30
0.0
 11
76.18105197482639
 21
122.1465494791666
 31
0.0
  0
LINE
  5
2CC
330
A
100
AcDbEntity
  8
0
  6
AI9-LType4
 62
     7
100
AcDbLine
 10
68.1634535047743
 20
117.1229112413194
 30
0.0
 11
68.1634535047743
 21
122.1465494791666
 31
0.0
  0
LINE
  5
2CB
330
A
100
AcDbEntity
  8
0
  6
AI9-LType4
 62
     7
100
AcDbLine
 10
171.2839463975694
 20
119.7825249565972
 30
0.0
 11
155.8134006076388
 21
119.7825249565972
 31
0.0
  0
LINE
  5
2CA
330
A
100
AcDbEntity
  8
0
  6
AI9-LType4
 62
     7
100
AcDbLine
 10
167.3741075303819
 20
117.1229112413194
 30
0.0
 11
167.3741075303819
 21
122.1465494791666
 31
0.0
  0
LINE
  5
2C9
330
A
100
AcDbEntity
  8
0
  6
AI9-LType4
 62
     7
100
AcDbLine
 10
159.3563368055555
 20
117.1229112413194
 30
0.0
 11
159.3563368055555
 21
122.1465494791666
 31
0.0
  0
LINE
  5
2C7
330
A
100
AcDbEntity
  8
0
 62
     7
100
AcDbLine
 10
91.86071506076388
 20
111.6810384114583
 30
0.0
 11
52.62865668402778
 21
111.6810384114583
 31
0.0
  0
ELLIPSE
  5
2C6
330
A
100
AcDbEntity
  8
0
 62
   189
100
AcDbEllipse
 10
80.87516682942707
 20
117.4264241536458
 30
0.0
 11
-1.864830186631944
 21
2.929020182291666
 31
0.0
210
0.0
220
0.0
230
0.9999999999999998
 40
0.4883954229014335
 41
0.0
 42
6.283185307179586
  0
ELLIPSE
  5
2C5
330
A
100
AcDbEntity
  8
0
 62
   189
100
AcDbEllipse
 10
63.50120578342013
 20
117.4264241536458
 30
0.0
 11
1.864830186631944
 21
2.929020182291666
 31
0.0
210
0.0
220
0.0
230
0.9999999999999998
 40
0.4883954229014335
 41
0.0
 42
6.283185307179586
  0
POLYLINE
  5
2BD
330
A
100
AcDbEntity
  8
0
 62
   189
100
AcDb2dPolyline
 66
     1
 10
0.0
 20
0.0
 30
0.0
 70
     1
  0
VERTEX
  5
2BE
330
2BD
100
AcDbEntity
  8
0
 62
   189
100
AcDbVertex
100
AcDb2dVertex
 10
86.32186279296874
 20
112.032093641493
 30
0.0
  0
VERTEX
  5
2BF
330
2BD
100
AcDbEntity
  8
0
 62
   189
100
AcDbVertex
100
AcDb2dVertex
 10
86.12170274522569
 20
111.660023328993
 30
0.0
  0
VERTEX
  5
2C0
330
2BD
100
AcDbEntity
  8
0
 62
   189
100
AcDbVertex
100
AcDb2dVertex
 10
58.22710910373263
 20
111.660023328993
 30
0.0
  0
VERTEX
  5
2C1
330
2BD
100
AcDbEntity
  8
0
 62
   189
100
AcDbVertex
100
AcDb2dVertex
 10
58.00679524739583
 20
112.0603434244791
 30
0.0
  0
VERTEX
  5
2C2
330
2BD
100
AcDbEntity
  8
0
 62
   189
100
AcDbVertex
100
AcDb2dVertex
 10
63.98127983940971
 20
122.2633382161458
 30
0.0
  0
VERTEX
  5
2C3
330
2BD
100
AcDbEntity
  8
0
 62
   189
100
AcDbVertex
100
AcDb2dVertex
 10
80.44763047960069
 20
122.2633382161458
 30
0.0
  0
SEQEND
  5
2C4
330
2BD
100
AcDbEntity
  8
0
 62
   189
  0
ELLIPSE
  5
2BC
330
A
100
AcDbEntity
  8
0
 62
   189
100
AcDbEllipse
 10
172.1672688802083
 20
117.4264241536458
 30
0.0
 11
-1.864830186631944
 21
2.929020182291666
 31
0.0
210
0.0
220
0.0
230
0.9999999999999998
 40
0.488437262089901
 41
0.0
 42
6.283185307179586
  0
ELLIPSE
  5
2BB
330
A
100
AcDbEntity
  8
0
 62
   189
100
AcDbEllipse
 10
154.7933078342014
 20
117.4264241536458
 30
0.0
 11
1.864830186631944
 21
2.929020182291666
 31
0.0
210
0.0
220
0.0
230
0.9999999999999998
 40
0.4883535851678256
 41
0.0
 42
6.283185307179586
  0
POLYLINE
  5
2B3
330
A
100
AcDbEntity
  8
0
 62
   189
100
AcDb2dPolyline
 66
     1
 10
0.0
 20
0.0
 30
0.0
 70
     1
  0
VERTEX
  5
2B4
330
2B3
100
AcDbEntity
  8
0
 62
   189
100
AcDbVertex
100
AcDb2dVertex
 10
177.6139648437499
 20
112.032093641493
 30
0.0
  0
VERTEX
  5
2B5
330
2B3
100
AcDbEntity
  8
0
 62
   189
100
AcDbVertex
100
AcDb2dVertex
 10
177.4138047960069
 20
111.660023328993
 30
0.0
  0
VERTEX
  5
2B6
330
2B3
100
AcDbEntity
  8
0
 62
   189
100
AcDbVertex
100
AcDb2dVertex
 10
149.5192111545138
 20
111.660023328993
 30
0.0
  0
VERTEX
  5
2B7
330
2B3
100
AcDbEntity
  8
0
 62
   189
100
AcDbVertex
100
AcDb2dVertex
 10
149.2987250434027
 20
112.0603434244791
 30
0.0
  0
VERTEX
  5
2B8
330
2B3
100
AcDbEntity
  8
0
 62
   189
100
AcDbVertex
100
AcDb2dVertex
 10
155.2732096354166
 20
122.2633382161458
 30
0.0
  0
VERTEX
  5
2B9
330
2B3
100
AcDbEntity
  8
0
 62
   189
100
AcDbVertex
100
AcDb2dVertex
 10
171.7397325303819
 20
122.2633382161458
 30
0.0
  0
SEQEND
  5
2BA
330
2B3
100
AcDbEntity
  8
0
 62
   189
  0
LINE
  5
2B2
330
A
100
AcDbEntity
  8
0
 62
     7
100
AcDbLine
 10
86.26364067925347
 20
112.112708875868
 30
0.0
 11
58.09567871093749
 21
112.112708875868
 31
0.0
  0
POLYLINE
  5
2AC
330
A
100
AcDbEntity
  8
0
 62
   222
100
AcDb2dPolyline
 66
     1
 10
0.0
 20
0.0
 30
0.0
 70
     1
  0
VERTEX
  5
2AD
330
2AC
100
AcDbEntity
  8
0
 62
   222
100
AcDbVertex
100
AcDb2dVertex
 10
171.3221869574652
 20
221.2283569335937
 30
0.0
  0
VERTEX
  5
2AE
330
2AC
100
AcDbEntity
  8
0
 62
   222
100
AcDbVertex
100
AcDb2dVertex
 10
155.7221055772569
 20
221.2283569335937
 30
0.0
  0
VERTEX
  5
2AF
330
2AC
100
AcDbEntity
  8
0
 62
   222
100
AcDbVertex
100
AcDb2dVertex
 10
155.7221055772569
 20
231.2277465820312
 30
0.0
  0
VERTEX
  5
2B0
330
2AC
100
AcDbEntity
  8
0
 62
   222
100
AcDbVertex
100
AcDb2dVertex
 10
171.3221869574652
 20
231.2277465820312
 30
0.0
  0
SEQEND
  5
2B1
330
2AC
100
AcDbEntity
  8
0
 62
   222
  0
HATCH
  5
2AB
330
A
100
AcDbEntity
  8
0
 62
   254
100
AcDbHatch
 10
0.0
 20
0.0
 30
0.0
210
0.0
220
0.0
230
1.0
  2
SOLID
 70
     1
 71
     0
 91
        1
 92
        3
 72
     0
 73
     1
 93
        4
 10
171.3221869574652
 20
221.2283569335937
 10
155.7221055772569
 20
221.2283569335937
 10
155.7221055772569
 20
231.2277465820312
 10
171.3221869574652
 20
231.2277465820312
 97
        0
 75
     0
 76
     1
 98
        1
 10
0.0
 20
0.0
  0
POLYLINE
  5
2A5
330
A
100
AcDbEntity
  8
0
 62
   222
100
AcDb2dPolyline
 66
     1
 10
0.0
 20
0.0
 30
0.0
 70
     1
  0
VERTEX
  5
2A6
330
2A5
100
AcDbEntity
  8
0
 62
   222
100
AcDbVertex
100
AcDb2dVertex
 10
171.3221869574652
 20
181.2352769639756
 30
0.0
  0
VERTEX
  5
2A7
330
2A5
100
AcDbEntity
  8
0
 62
   222
100
AcDbVertex
100
AcDb2dVertex
 10
155.7221055772569
 20
181.2352769639756
 30
0.0
  0
VERTEX
  5
2A8
330
2A5
100
AcDbEntity
  8
0
 62
   222
100
AcDbVertex
100
AcDb2dVertex
 10
155.7221055772569
 20
191.2338053385416
 30
0.0
  0
VERTEX
  5
2A9
330
2A5
100
AcDbEntity
  8
0
 62
   222
100
AcDbVertex
100
AcDb2dVertex
 10
171.3221869574652
 20
191.2338053385416
 30
0.0
  0
SEQEND
  5
2AA
330
2A5
100
AcDbEntity
  8
0
 62
   222
  0
HATCH
  5
2A4
330
A
100
AcDbEntity
  8
0
 62
   254
100
AcDbHatch
 10
0.0
 20
0.0
 30
0.0
210
0.0
220
0.0
230
1.0
  2
SOLID
 70
     1
 71
     0
 91
        1
 92
        3
 72
     0
 73
     1
 93
        4
 10
171.3221869574652
 20
181.2352769639756
 10
155.7221055772569
 20
181.2352769639756
 10
155.7221055772569
 20
191.2338053385416
 10
171.3221869574652
 20
191.2338053385416
 97
        0
 75
     0
 76
     1
 98
        1
 10
0.0
 20
0.0
  0
POLYLINE
  5
29E
330
A
100
AcDbEntity
  8
0
 62
   222
100
AcDb2dPolyline
 66
     1
 10
0.0
 20
0.0
 30
0.0
 70
     1
  0
VERTEX
  5
29F
330
29E
100
AcDbEntity
  8
0
 62
   222
100
AcDbVertex
100
AcDb2dVertex
 10
171.3221869574652
 20
201.2318169487847
 30
0.0
  0
VERTEX
  5
2A0
330
29E
100
AcDbEntity
  8
0
 62
   222
100
AcDbVertex
100
AcDb2dVertex
 10
155.7221055772569
 20
201.2318169487847
 30
0.0
  0
VERTEX
  5
2A1
330
29E
100
AcDbEntity
  8
0
 62
   222
100
AcDbVertex
100
AcDb2dVertex
 10
155.7221055772569
 20
211.2303453233506
 30
0.0
  0
VERTEX
  5
2A2
330
29E
100
AcDbEntity
  8
0
 62
   222
100
AcDbVertex
100
AcDb2dVertex
 10
171.3221869574652
 20
211.2303453233506
 30
0.0
  0
SEQEND
  5
2A3
330
29E
100
AcDbEntity
  8
0
 62
   222
  0
HATCH
  5
29D
330
A
100
AcDbEntity
  8
0
 62
   254
100
AcDbHatch
 10
0.0
 20
0.0
 30
0.0
210
0.0
220
0.0
230
1.0
  2
SOLID
 70
     1
 71
     0
 91
        1
 92
        3
 72
     0
 73
     1
 93
        4
 10
171.3221869574652
 20
201.2318169487847
 10
155.7221055772569
 20
201.2318169487847
 10
155.7221055772569
 20
211.2303453233506
 10
171.3221869574652
 20
211.2303453233506
 97
        0
 75
     0
 76
     1
 98
        1
 10
0.0
 20
0.0
  0
LINE
  5
29C
330
A
100
AcDbEntity
  8
0
 62
     7
100
AcDbLine
 10
162.1919949001735
 20
144.216175672743
 30
0.0
 11
162.1919949001735
 21
122.3511881510416
 31
0.0
  0
LINE
  5
29B
330
A
100
AcDbEntity
  8
0
 62
     7
100
AcDbLine
 10
162.1919949001735
 20
242.2274197048611
 30
0.0
 11
162.1919949001735
 21
142.9053168402777
 31
0.0
  0
LINE
  5
29A
330
A
100
AcDbEntity
  8
0
 62
     7
100
AcDbLine
 10
161.2501057942708
 20
143.6453233506944
 30
0.0
 11
161.2501057942708
 21
122.3511881510416
 31
0.0
  0
LINE
  5
299
330
A
100
AcDbEntity
  8
0
 62
     7
100
AcDbLine
 10
161.2501057942708
 20
242.2274197048611
 30
0.0
 11
161.2501057942708
 21
142.3751166449652
 31
0.0
  0
LINE
  5
298
330
A
100
AcDbEntity
  8
0
 62
     7
100
AcDbLine
 10
160.9810438368055
 20
143.5026963975694
 30
0.0
 11
160.9810438368055
 21
122.3511881510416
 31
0.0
  0
LINE
  5
297
330
A
100
AcDbEntity
  8
0
 62
     7
100
AcDbLine
 10
160.9810438368055
 20
242.2274197048611
 30
0.0
 11
160.9810438368055
 21
142.2121636284722
 31
0.0
  0
LINE
  5
296
330
A
100
AcDbEntity
  8
0
 62
     7
100
AcDbLine
 10
160.5772786458333
 20
143.2580946180555
 30
0.0
 11
160.5772786458333
 21
122.3511881510416
 31
0.0
  0
LINE
  5
295
330
A
100
AcDbEntity
  8
0
 62
     7
100
AcDbLine
 10
160.5772786458333
 20
242.2274197048611
 30
0.0
 11
160.5772786458333
 21
141.9675618489583
 31
0.0
  0
LINE
  5
294
330
A
100
AcDbEntity
  8
0
 62
     7
100
AcDbLine
 10
159.7700927734374
 20
142.7895616319444
 30
0.0
 11
159.7700927734374
 21
122.3511881510416
 31
0.0
  0
LINE
  5
293
330
A
100
AcDbEntity
  8
0
 62
     7
100
AcDbLine
 10
159.7700927734374
 20
242.2274197048611
 30
0.0
 11
159.7700927734374
 21
141.5393364800347
 31
0.0
  0
LINE
  5
292
330
A
100
AcDbEntity
  8
0
 62
     7
100
AcDbLine
 10
164.9511718749999
 20
149.0269070095486
 30
0.0
 11
164.9511718749999
 21
122.3511881510416
 31
0.0
  0
LINE
  5
291
330
A
100
AcDbEntity
  8
0
 62
     7
100
AcDbLine
 10
164.9511718749999
 20
242.2274197048611
 30
0.0
 11
164.9511718749999
 21
148.775759548611
 31
0.0
  0
LINE
  5
290
330
A
100
AcDbEntity
  8
0
 62
     7
100
AcDbLine
 10
165.8930609809027
 20
146.417591688368
 30
0.0
 11
165.8930609809027
 21
122.3511881510416
 31
0.0
  0
LINE
  5
28F
330
A
100
AcDbEntity
  8
0
 62
     7
100
AcDbLine
 10
165.8930609809027
 20
242.2274197048611
 30
0.0
 11
165.8930609809027
 21
145.1890706380208
 31
0.0
  0
LINE
  5
28E
330
A
100
AcDbEntity
  8
0
 62
     7
100
AcDbLine
 10
166.162122938368
 20
146.5605631510416
 30
0.0
 11
166.162122938368
 21
122.3511881510416
 31
0.0
  0
LINE
  5
28D
330
A
100
AcDbEntity
  8
0
 62
     7
100
AcDbLine
 10
166.162122938368
 20
242.2274197048611
 30
0.0
 11
166.162122938368
 21
145.2910454644097
 31
0.0
  0
LINE
  5
28C
330
A
100
AcDbEntity
  8
0
 62
     7
100
AcDbLine
 10
166.5658881293402
 20
146.7438422309027
 30
0.0
 11
166.5658881293402
 21
122.3511881510416
 31
0.0
  0
LINE
  5
28B
330
A
100
AcDbEntity
  8
0
 62
     7
100
AcDbLine
 10
166.5658881293402
 20
242.2274197048611
 30
0.0
 11
166.5658881293402
 21
145.535302734375
 31
0.0
  0
LINE
  5
28A
330
A
100
AcDbEntity
  8
0
 62
     7
100
AcDbLine
 10
167.373074001736
 20
147.2127197265624
 30
0.0
 11
167.373074001736
 21
122.3511881510416
 31
0.0
  0
LINE
  5
289
330
A
100
AcDbEntity
  8
0
 62
     7
100
AcDbLine
 10
167.373074001736
 20
242.2274197048611
 30
0.0
 11
167.373074001736
 21
145.9838541666666
 31
0.0
  0
LINE
  5
288
330
A
100
AcDbEntity
  8
0
 62
     7
100
AcDbLine
 10
155.8492296006944
 20
241.4507229275173
 30
0.0
 11
171.192995876736
 21
241.4507229275173
 31
0.0
  0
INSERT
  5
280
330
A
100
AcDbEntity
  8
0
 62
     7
100
AcDbBlockReference
  2
AI9-BLK87
 10
163.6074123806423
 20
257.4590481228298
 30
0.0
  0
LINE
  5
27E
330
A
100
AcDbEntity
  8
0
 62
     7
100
AcDbLine
 10
155.4533881293402
 20
275.9790201822916
 30
0.0
 11
171.766259765625
 21
275.9790201822916
 31
0.0
  0
LINE
  5
27D
330
A
100
AcDbEntity
  8
0
 62
     7
100
AcDbLine
 10
155.4533881293402
 20
268.2468478732638
 30
0.0
 11
155.4533881293402
 21
275.9790201822916
 31
0.0
  0
LINE
  5
27C
330
A
100
AcDbEntity
  8
0
 62
     7
100
AcDbLine
 10
171.7621256510416
 20
268.2468478732638
 30
0.0
 11
171.7621256510416
 21
275.9790201822916
 31
0.0
  0
HATCH
  5
27B
330
A
100
AcDbEntity
  8
0
 62
     7
100
AcDbHatch
 10
0.0
 20
0.0
 30
0.0
210
0.0
220
0.0
230
1.0
  2
SOLID
 70
     1
 71
     0
 91
        1
 92
        1
 93
        1
 72
     4
 94
        3
 73
     0
 74
     0
 95
       17
 96
       13
 40
0.0
 40
0.0
 40
0.0
 40
0.0
 40
1.0
 40
1.0
 40
1.0
 40
2.0
 40
2.0
 40
2.0
 40
3.0
 40
3.0
 40
3.0
 40
4.0
 40
4.0
 40
4.0
 40
4.0
 10
155.6390787760416
 20
275.9852213541666
 10
155.6390787760416
 20
275.8804904513888
 10
155.5543294270833
 20
275.7957411024305
 10
155.4495985243055
 20
275.7957411024305
 10
155.3448676215277
 20
275.7957411024305
 10
155.2601182725694
 20
275.8804904513888
 10
155.2601182725694
 20
275.9852213541666
 10
155.2601182725694
 20
276.0899522569443
 10
155.3448676215277
 20
276.1747016059027
 10
155.4495985243055
 20
276.1747016059027
 10
155.5543294270833
 20
276.1747016059027
 10
155.6390787760416
 20
276.0899522569443
 10
155.6390787760416
 20
275.9852213541666
 97
        0
 75
     0
 76
     1
 98
        1
 10
0.0
 20
0.0
  0
HATCH
  5
27A
330
A
100
AcDbEntity
  8
0
 62
     7
100
AcDbHatch
 10
0.0
 20
0.0
 30
0.0
210
0.0
220
0.0
230
1.0
  2
SOLID
 70
     1
 71
     0
 91
        1
 92
        1
 93
        1
 72
     4
 94
        3
 73
     0
 74
     0
 95
       17
 96
       13
 40
0.0
 40
0.0
 40
0.0
 40
0.0
 40
1.0
 40
1.0
 40
1.0
 40
2.0
 40
2.0
 40
2.0
 40
3.0
 40
3.0
 40
3.0
 40
4.0
 40
4.0
 40
4.0
 40
4.0
 10
171.9612521701388
 20
275.9852213541666
 10
171.9612521701388
 20
275.8804904513888
 10
171.8765028211805
 20
275.7957411024305
 10
171.7717719184027
 20
275.7957411024305
 10
171.6670410156249
 20
275.7957411024305
 10
171.5822916666666
 20
275.8804904513888
 10
171.5822916666666
 20
275.9852213541666
 10
171.5822916666666
 20
276.0899522569443
 10
171.6670410156249
 20
276.1747016059027
 10
171.7717719184027
 20
276.1747016059027
 10
171.8765028211805
 20
276.1747016059027
 10
171.9612521701388
 20
276.0899522569443
 10
171.9612521701388
 20
275.9852213541666
 97
        0
 75
     0
 76
     1
 98
        1
 10
0.0
 20
0.0
  0
INSERT
  5
25C
330
A
100
AcDbEntity
  8
0
  6
AI9-LType1
 62
     7
100
AcDbBlockReference
  2
AI9-BLK80
 10
163.2534288194444
 20
278.4729248046874
 30
0.0
  0
LINE
  5
25A
330
A
100
AcDbEntity
  8
0
  6
AI9-LType1
 62
     7
100
AcDbLine
 10
163.6344563802083
 20
145.0636691623263
 30
0.0
 11
163.6344563802083
 21
269.8703491210937
 31
0.0
  0
LINE
  5
259
330
A
100
AcDbEntity
  8
0
  6
AI9-LType1
 62
     7
100
AcDbLine
 10
163.6344563802083
 20
109.9385091145833
 30
0.0
 11
163.6344563802083
 21
144.9906331380208
 31
0.0
  0
LINE
  5
258
330
A
100
AcDbEntity
  8
0
 62
     7
100
AcDbLine
 10
137.7145914713541
 20
111.6810384114583
 30
0.0
 11
188.1848958333333
 21
111.6810384114583
 31
0.0
  0
CIRCLE
  5
257
330
A
100
AcDbEntity
  8
0
 62
     7
100
AcDbCircle
 10
167.4268174913194
 20
119.7684000651041
 30
0.0
 40
1.406287977430555
  0
CIRCLE
  5
256
330
A
100
AcDbEntity
  8
0
 62
     7
100
AcDbCircle
 10
159.3125840928819
 20
119.7684000651041
 30
0.0
 40
1.406632486979166
  0
CIRCLE
  5
255
330
A
100
AcDbEntity
  8
0
 62
   189
100
AcDbCircle
 10
159.342556423611
 20
119.7904486762152
 30
0.0
 40
0.6249403211805556
  0
CIRCLE
  5
254
330
A
100
AcDbEntity
  8
0
 62
   189
100
AcDbCircle
 10
167.4075249565972
 20
119.7904486762152
 30
0.0
 40
0.6249403211805556
  0
LINE
  5
253
330
A
100
AcDbEntity
  8
0
 62
     7
100
AcDbLine
 10
183.1626356336805
 20
111.6810384114583
 30
0.0
 11
143.9305772569444
 21
111.6810384114583
 31
0.0
  0
LINE
  5
252
330
A
100
AcDbEntity
  8
0
 62
     7
100
AcDbLine
 10
177.5240478515624
 20
112.112708875868
 30
0.0
 11
149.3142279730902
 21
112.112708875868
 31
0.0
  0
LINE
  5
251
330
A
100
AcDbEntity
  8
0
  6
AI9-LType2
 62
     7
100
AcDbLine
 10
144.3708604600694
 20
153.6304158528645
 30
0.0
 11
97.60403374565973
 21
153.6111233181423
 31
0.0
  0
INSERT
  5
248
330
A
100
AcDbEntity
  8
0
 62
     7
100
AcDbBlockReference
  2
AI9-BLK79
 10
114.7502739800347
 20
153.6832980685763
 30
0.0
  0
INSERT
  5
229
330
A
100
AcDbEntity
  8
0
 62
     7
100
AcDbBlockReference
  2
AI9-BLK72
 10
43.38167588975694
 20
117.3799153645833
 30
0.0
  0
INSERT
  5
220
330
A
100
AcDbEntity
  8
0
 62
     7
100
AcDbBlockReference
  2
AI9-BLK70
 10
42.62651095920138
 20
206.0160210503472
 30
0.0
  0
INSERT
  5
217
330
A
100
AcDbEntity
  8
0
 62
     7
100
AcDbBlockReference
  2
AI9-BLK68
 10
42.62651095920138
 20
196.5792154947916
 30
0.0
  0
INSERT
  5
20E
330
A
100
AcDbEntity
  8
0
 62
     7
100
AcDbBlockReference
  2
AI9-BLK66
 10
42.62651095920138
 20
187.0542154947916
 30
0.0
  0
INSERT
  5
205
330
A
100
AcDbEntity
  8
0
 62
     7
100
AcDbBlockReference
  2
AI9-BLK64
 10
42.62651095920138
 20
215.6591878255208
 30
0.0
  0
INSERT
  5
1FC
330
A
100
AcDbEntity
  8
0
 62
     7
100
AcDbBlockReference
  2
AI9-BLK62
 10
42.62651095920138
 20
226.220472547743
 30
0.0
  0
INSERT
  5
1F3
330
A
100
AcDbEntity
  8
0
 62
     7
100
AcDbBlockReference
  2
AI9-BLK60
 10
42.62651095920138
 20
235.2507568359374
 30
0.0
  0
LINE
  5
1F1
330
A
100
AcDbEntity
  8
0
 62
     7
100
AcDbLine
 10
132.1738444010416
 20
157.9254163953992
 30
0.0
 11
132.1738444010416
 21
163.0052096896701
 31
0.0
  0
LINE
  5
1F0
330
A
100
AcDbEntity
  8
0
 62
     7
100
AcDbLine
 10
104.4961195203992
 20
157.9254163953992
 30
0.0
 11
104.4961195203992
 21
163.0052096896701
 31
0.0
  0
LINE
  5
1EF
330
A
100
AcDbEntity
  8
0
 62
     7
100
AcDbLine
 10
94.27262641059027
 20
152.5896525065103
 30
0.0
 11
94.27262641059027
 21
154.5826402452257
 31
0.0
  0
LINE
  5
1EE
330
A
100
AcDbEntity
  8
0
 62
     7
100
AcDbLine
 10
98.28237304687499
 20
152.6213473849826
 30
0.0
 11
94.2023464626736
 21
152.6213473849826
 31
0.0
  0
LINE
  5
1ED
330
A
100
AcDbEntity
  8
0
 62
     7
100
AcDbLine
 10
98.28237304687499
 20
154.6002102322048
 30
0.0
 11
94.2023464626736
 21
154.6002102322048
 31
0.0
  0
INSERT
  5
1D8
330
A
100
AcDbEntity
  8
0
 62
     7
100
AcDbBlockReference
  2
AI9-BLK55
 10
129.7472913953992
 20
161.2728434244791
 30
0.0
  0
INSERT
  5
1CF
330
A
100
AcDbEntity
  8
0
 62
     7
100
AcDbBlockReference
  2
AI9-BLK53
 10
118.7758680555555
 20
164.5711778428819
 30
0.0
  0
INSERT
  5
1C6
330
A
100
AcDbEntity
  8
0
 62
     7
100
AcDbBlockReference
  2
AI9-BLK51
 10
92.51700575086806
 20
153.5262017144096
 30
0.0
  0
INSERT
  5
1BD
330
A
100
AcDbEntity
  8
0
 62
     7
100
AcDbBlockReference
  2
AI9-BLK49
 10
99.07465888129339
 20
209.4600830078124
 30
0.0
  0
POLYLINE
  5
1B7
330
A
100
AcDbEntity
  8
0
 62
     7
100
AcDb2dPolyline
 66
     1
 10
0.0
 20
0.0
 30
0.0
  0
VERTEX
  5
1B8
330
1B7
100
AcDbEntity
  8
0
 62
     7
100
AcDbVertex
100
AcDb2dVertex
 10
78.18179117838541
 20
205.3617974175347
 30
0.0
  0
VERTEX
  5
1B9
330
1B7
100
AcDbEntity
  8
0
 62
     7
100
AcDbVertex
100
AcDb2dVertex
 10
84.13198784722222
 20
207.7085964626736
 30
0.0
  0
VERTEX
  5
1BA
330
1B7
100
AcDbEntity
  8
0
 62
     7
100
AcDbVertex
100
AcDb2dVertex
 10
111.8736192491319
 20
207.7085964626736
 30
0.0
  0
SEQEND
  5
1BB
330
1B7
100
AcDbEntity
  8
0
 62
     7
  0
POLYLINE
  5
1B2
330
A
100
AcDbEntity
  8
0
 62
     7
100
AcDb2dPolyline
 66
     1
 10
0.0
 20
0.0
 30
0.0
  0
VERTEX
  5
1B3
330
1B2
100
AcDbEntity
  8
0
 62
     7
100
AcDbVertex
100
AcDb2dVertex
 10
78.18179117838541
 20
213.1761352539062
 30
0.0
  0
VERTEX
  5
1B4
330
1B2
100
AcDbEntity
  8
0
 62
     7
100
AcDbVertex
100
AcDb2dVertex
 10
84.13198784722222
 20
215.5229342990451
 30
0.0
  0
VERTEX
  5
1B5
330
1B2
100
AcDbEntity
  8
0
 62
     7
100
AcDbVertex
100
AcDb2dVertex
 10
102.8882934570312
 20
215.5229342990451
 30
0.0
  0
SEQEND
  5
1B6
330
1B2
100
AcDbEntity
  8
0
 62
     7
  0
POLYLINE
  5
1AD
330
A
100
AcDbEntity
  8
0
 62
     7
100
AcDb2dPolyline
 66
     1
 10
0.0
 20
0.0
 30
0.0
  0
VERTEX
  5
1AE
330
1AD
100
AcDbEntity
  8
0
 62
     7
100
AcDbVertex
100
AcDb2dVertex
 10
76.52435574001735
 20
121.1164659288194
 30
0.0
  0
VERTEX
  5
1AF
330
1AD
100
AcDbEntity
  8
0
 62
     7
100
AcDbVertex
100
AcDb2dVertex
 10
82.26405707465277
 20
124.0919949001735
 30
0.0
  0
VERTEX
  5
1B0
330
1AD
100
AcDbEntity
  8
0
 62
     7
100
AcDbVertex
100
AcDb2dVertex
 10
111.0836588541666
 20
124.0919949001735
 30
0.0
  0
SEQEND
  5
1B1
330
1AD
100
AcDbEntity
  8
0
 62
     7
  0
POLYLINE
  5
1A8
330
A
100
AcDbEntity
  8
0
 62
     7
100
AcDb2dPolyline
 66
     1
 10
0.0
 20
0.0
 30
0.0
  0
VERTEX
  5
1A9
330
1A8
100
AcDbEntity
  8
0
 62
     7
100
AcDbVertex
100
AcDb2dVertex
 10
81.82911376953125
 20
115.5454020182291
 30
0.0
  0
VERTEX
  5
1AA
330
1A8
100
AcDbEntity
  8
0
 62
     7
100
AcDbVertex
100
AcDb2dVertex
 10
88.70759141710069
 20
120.1197998046874
 30
0.0
  0
VERTEX
  5
1AB
330
1A8
100
AcDbEntity
  8
0
 62
     7
100
AcDbVertex
100
AcDb2dVertex
 10
110.0639105902777
 20
120.1197998046874
 30
0.0
  0
SEQEND
  5
1AC
330
1A8
100
AcDbEntity
  8
0
 62
     7
  0
INSERT
  5
193
330
A
100
AcDbEntity
  8
0
 62
     7
100
AcDbBlockReference
  2
AI9-BLK44
 10
94.11880289713542
 20
217.5119601779513
 30
0.0
  0
INSERT
  5
174
330
A
100
AcDbEntity
  8
0
 62
     7
100
AcDbBlockReference
  2
AI9-BLK37
 10
98.0718777126736
 20
126.0997965494791
 30
0.0
  0
POLYLINE
  5
16E
330
A
100
AcDbEntity
  8
0
 62
     7
100
AcDb2dPolyline
 66
     1
 10
0.0
 20
0.0
 30
0.0
  0
VERTEX
  5
16F
330
16E
100
AcDbEntity
  8
0
 62
     7
100
AcDbVertex
100
AcDb2dVertex
 10
75.93197157118055
 20
84.6029324001736
 30
0.0
  0
VERTEX
  5
170
330
16E
100
AcDbEntity
  8
0
 62
     7
100
AcDbVertex
100
AcDb2dVertex
 10
89.91595865885415
 20
95.27756076388888
 30
0.0
  0
VERTEX
  5
171
330
16E
100
AcDbEntity
  8
0
 62
     7
100
AcDbVertex
100
AcDb2dVertex
 10
111.2710720486111
 20
95.27756076388888
 30
0.0
  0
SEQEND
  5
172
330
16E
100
AcDbEntity
  8
0
 62
     7
  0
INSERT
  5
166
330
A
100
AcDbEntity
  8
0
 62
     7
100
AcDbBlockReference
  2
AI9-BLK35
 10
100.3208360460069
 20
97.63779568142361
 30
0.0
  0
INSERT
  5
15D
330
A
100
AcDbEntity
  8
0
 62
     7
100
AcDbBlockReference
  2
AI9-BLK33
 10
98.71748860677083
 20
122.108997938368
 30
0.0
  0
POLYLINE
  5
157
330
A
100
AcDbEntity
  8
0
 62
     7
100
AcDb2dPolyline
 66
     1
 10
0.0
 20
0.0
 30
0.0
  0
VERTEX
  5
158
330
157
100
AcDbEntity
  8
0
 62
     7
100
AcDbVertex
100
AcDb2dVertex
 10
81.75625
 20
84.45134819878472
 30
0.0
  0
VERTEX
  5
159
330
157
100
AcDbEntity
  8
0
 62
     7
100
AcDbVertex
100
AcDb2dVertex
 10
90.64786919487847
 20
89.95557725694444
 30
0.0
  0
VERTEX
  5
15A
330
157
100
AcDbEntity
  8
0
 62
     7
100
AcDbVertex
100
AcDb2dVertex
 10
112.0041883680555
 20
89.95557725694444
 30
0.0
  0
SEQEND
  5
15B
330
157
100
AcDbEntity
  8
0
 62
     7
  0
INSERT
  5
142
330
A
100
AcDbEntity
  8
0
 62
     7
100
AcDbBlockReference
  2
AI9-BLK28
 10
103.9650580512152
 20
91.944775390625
 30
0.0
  0
INSERT
  5
139
330
A
100
AcDbEntity
  8
0
 62
     7
100
AcDbBlockReference
  2
AI9-BLK26
 10
128.7776692708333
 20
24.18284776475694
 30
0.0
  0
INSERT
  5
130
330
A
100
AcDbEntity
  8
0
 62
     7
100
AcDbBlockReference
  2
AI9-BLK24
 10
173.9180664062499
 20
24.18284776475694
 30
0.0
  0
INSERT
  5
111
330
A
100
AcDbEntity
  8
0
 62
     7
100
AcDbBlockReference
  2
AI9-BLK17
 10
72.05847846137152
 20
104.5486572265625
 30
0.0
  0
POLYLINE
  5
10A
330
A
100
AcDbEntity
  8
0
 62
     7
100
AcDb2dPolyline
 66
     1
 10
0.0
 20
0.0
 30
0.0
  0
VERTEX
  5
10B
330
10A
100
AcDbEntity
  8
0
 62
     7
100
AcDbVertex
100
AcDb2dVertex
 10
64.43189832899304
 20
139.1729003906249
 30
0.0
  0
VERTEX
  5
10C
330
10A
100
AcDbEntity
  8
0
 62
     7
100
AcDbVertex
100
AcDb2dVertex
 10
64.43189832899304
 20
242.2520521375867
 30
0.0
  0
VERTEX
  5
10D
330
10A
100
AcDbEntity
  8
0
 62
     7
100
AcDbVertex
100
AcDb2dVertex
 10
80.03197970920139
 20
242.2520521375867
 30
0.0
  0
VERTEX
  5
10E
330
10A
100
AcDbEntity
  8
0
 62
     7
100
AcDbVertex
100
AcDb2dVertex
 10
80.03197970920139
 20
148.2471096462673
 30
0.0
  0
SEQEND
  5
10F
330
10A
100
AcDbEntity
  8
0
 62
     7
  0
POLYLINE
  5
104
330
A
100
AcDbEntity
  8
0
 62
   189
100
AcDb2dPolyline
 66
     1
 10
0.0
 20
0.0
 30
0.0
  0
VERTEX
  5
105
330
104
100
AcDbEntity
  8
0
 62
   189
100
AcDbVertex
100
AcDb2dVertex
 10
80.03197970920139
 20
149.5433268229166
 30
0.0
  0
VERTEX
  5
106
330
104
100
AcDbEntity
  8
0
 62
   189
100
AcDbVertex
100
AcDb2dVertex
 10
80.03197970920139
 20
122.2633382161458
 30
0.0
  0
VERTEX
  5
107
330
104
100
AcDbEntity
  8
0
 62
   189
100
AcDbVertex
100
AcDb2dVertex
 10
64.43189832899304
 20
122.2633382161458
 30
0.0
  0
VERTEX
  5
108
330
104
100
AcDbEntity
  8
0
 62
   189
100
AcDbVertex
100
AcDb2dVertex
 10
64.43189832899304
 20
140.5437038845485
 30
0.0
  0
SEQEND
  5
109
330
104
100
AcDbEntity
  8
0
 62
   189
  0
LINE
  5
103
330
A
100
AcDbEntity
  8
0
 62
     7
100
AcDbLine
 10
65.38601752387151
 20
141.0997422960069
 30
0.0
 11
65.38601752387151
 21
122.264027235243
 31
0.0
  0
LINE
  5
102
330
A
100
AcDbEntity
  8
0
 62
     7
100
AcDbLine
 10
65.38601752387151
 20
242.2520521375867
 30
0.0
 11
65.38601752387151
 21
139.7282497829861
 31
0.0
  0
LINE
  5
101
330
A
100
AcDbEntity
  8
0
 62
     7
100
AcDbLine
 10
64.66013590494791
 20
140.6918429904513
 30
0.0
 11
64.66013590494791
 21
122.264027235243
 31
0.0
  0
LINE
  5
100
330
A
100
AcDbEntity
  8
0
 62
     7
100
AcDbLine
 10
64.66013590494791
 20
242.2520521375867
 30
0.0
 11
64.66013590494791
 21
139.3210394965277
 31
0.0
  0
LINE
  5
FF
330
A
100
AcDbEntity
  8
0
 62
     7
100
AcDbLine
 10
79.74190266927083
 20
149.3951877170138
 30
0.0
 11
79.74190266927083
 21
122.264027235243
 31
0.0
  0
LINE
  5
FE
330
A
100
AcDbEntity
  8
0
 62
     7
100
AcDbLine
 10
79.74190266927083
 20
242.2520521375867
 30
0.0
 11
79.74190266927083
 21
148.0615912543402
 31
0.0
  0
LINE
  5
FD
330
A
100
AcDbEntity
  8
0
 62
     7
100
AcDbLine
 10
79.09680853949652
 20
149.0248399522569
 30
0.0
 11
79.09680853949652
 21
122.264027235243
 31
0.0
  0
LINE
  5
FC
330
A
100
AcDbEntity
  8
0
 62
     7
100
AcDbLine
 10
79.09680853949652
 20
242.2520521375867
 30
0.0
 11
79.09680853949652
 21
147.6912434895833
 31
0.0
  0
POLYLINE
  5
F6
330
A
100
AcDbEntity
  8
0
 62
   189
100
AcDb2dPolyline
 66
     1
 10
0.0
 20
0.0
 30
0.0
  0
VERTEX
  5
F7
330
F6
100
AcDbEntity
  8
0
 62
   189
100
AcDbVertex
100
AcDb2dVertex
 10
155.7269287109375
 20
139.1729003906249
 30
0.0
  0
VERTEX
  5
F8
330
F6
100
AcDbEntity
  8
0
 62
   189
100
AcDbVertex
100
AcDb2dVertex
 10
155.7269287109375
 20
242.2520521375867
 30
0.0
  0
VERTEX
  5
F9
330
F6
100
AcDbEntity
  8
0
 62
   189
100
AcDbVertex
100
AcDb2dVertex
 10
171.3270100911458
 20
242.2520521375867
 30
0.0
  0
VERTEX
  5
FA
330
F6
100
AcDbEntity
  8
0
 62
   189
100
AcDbVertex
100
AcDb2dVertex
 10
171.3270100911458
 20
148.2471096462673
 30
0.0
  0
SEQEND
  5
FB
330
F6
100
AcDbEntity
  8
0
 62
   189
  0
POLYLINE
  5
F0
330
A
100
AcDbEntity
  8
0
 62
   189
100
AcDb2dPolyline
 66
     1
 10
0.0
 20
0.0
 30
0.0
  0
VERTEX
  5
F1
330
F0
100
AcDbEntity
  8
0
 62
   189
100
AcDbVertex
100
AcDb2dVertex
 10
171.3270100911458
 20
149.5433268229166
 30
0.0
  0
VERTEX
  5
F2
330
F0
100
AcDbEntity
  8
0
 62
   189
100
AcDbVertex
100
AcDb2dVertex
 10
171.3270100911458
 20
122.2633382161458
 30
0.0
  0
VERTEX
  5
F3
330
F0
100
AcDbEntity
  8
0
 62
   189
100
AcDbVertex
100
AcDb2dVertex
 10
155.7269287109375
 20
122.2633382161458
 30
0.0
  0
VERTEX
  5
F4
330
F0
100
AcDbEntity
  8
0
 62
   189
100
AcDbVertex
100
AcDb2dVertex
 10
155.7269287109375
 20
140.5437038845485
 30
0.0
  0
SEQEND
  5
F5
330
F0
100
AcDbEntity
  8
0
 62
   189
  0
LINE
  5
EF
330
A
100
AcDbEntity
  8
0
 62
   189
100
AcDbLine
 10
156.6812201605902
 20
141.0997422960069
 30
0.0
 11
156.6812201605902
 21
122.264027235243
 31
0.0
  0
LINE
  5
EE
330
A
100
AcDbEntity
  8
0
 62
   189
100
AcDbLine
 10
156.6812201605902
 20
242.2520521375867
 30
0.0
 11
156.6812201605902
 21
139.7282497829861
 31
0.0
  0
LINE
  5
ED
330
A
100
AcDbEntity
  8
0
 62
   189
100
AcDbLine
 10
155.954994032118
 20
140.6918429904513
 30
0.0
 11
155.954994032118
 21
122.264027235243
 31
0.0
  0
LINE
  5
EC
330
A
100
AcDbEntity
  8
0
 62
   189
100
AcDbLine
 10
155.954994032118
 20
242.2520521375867
 30
0.0
 11
155.954994032118
 21
139.3210394965277
 31
0.0
  0
LINE
  5
EB
330
A
100
AcDbEntity
  8
0
 62
   189
100
AcDbLine
 10
171.0369330512152
 20
149.3951877170138
 30
0.0
 11
171.0369330512152
 21
122.264027235243
 31
0.0
  0
LINE
  5
EA
330
A
100
AcDbEntity
  8
0
 62
   189
100
AcDbLine
 10
171.0369330512152
 20
242.2520521375867
 30
0.0
 11
171.0369330512152
 21
148.0615912543402
 31
0.0
  0
LINE
  5
E9
330
A
100
AcDbEntity
  8
0
 62
   189
100
AcDbLine
 10
170.3920111762152
 20
149.0248399522569
 30
0.0
 11
170.3920111762152
 21
122.264027235243
 31
0.0
  0
LINE
  5
E8
330
A
100
AcDbEntity
  8
0
 62
   189
100
AcDbLine
 10
170.3920111762152
 20
242.2520521375867
 30
0.0
 11
170.3920111762152
 21
147.6912434895833
 31
0.0
  0
POLYLINE
  5
E3
330
A
100
AcDbEntity
  8
0
 62
     7
100
AcDb2dPolyline
 66
     1
 10
0.0
 20
0.0
 30
0.0
  0
VERTEX
  5
E4
330
E3
100
AcDbEntity
  8
0
 62
     7
100
AcDbVertex
100
AcDb2dVertex
 10
132.1996826171874
 20
159.7018798828124
 30
0.0
  0
VERTEX
  5
E5
330
E3
100
AcDbEntity
  8
0
 62
     7
100
AcDbVertex
100
AcDb2dVertex
 10
131.0631456163194
 20
159.7018798828124
 30
0.0
  0
VERTEX
  5
E6
330
E3
100
AcDbEntity
  8
0
 62
     7
100
AcDbVertex
100
AcDb2dVertex
 10
131.0631456163194
 20
157.9471204969618
 30
0.0
  0
SEQEND
  5
E7
330
E3
100
AcDbEntity
  8
0
 62
     7
  0
INSERT
  5
DB
330
A
100
AcDbEntity
  8
0
 62
     7
100
AcDbBlockReference
  2
AI9-BLK15
 10
99.90311821831596
 20
221.9816270616319
 30
0.0
  0
SPLINE
  5
D9
330
A
100
AcDbEntity
  8
0
 62
     7
100
AcDbSpline
210
0.0
220
0.0
230
1.0
 70
     9
 71
     3
 72
    20
 73
    16
 74
     0
 42
0.0000000001
 43
0.0000000001
 40
0.0
 40
0.0
 40
0.0
 40
0.0
 40
1.0
 40
1.0
 40
1.0
 40
2.0
 40
2.0
 40
2.0
 40
3.0
 40
3.0
 40
3.0
 40
4.0
 40
4.0
 40
4.0
 40
5.0
 40
5.0
 40
5.0
 40
5.0
 10
69.58886176215277
 20
81.74901529947915
 30
0.0
 10
69.58886176215277
 20
81.74901529947915
 30
0.0
 10
69.59385715060763
 20
82.00912000868056
 30
0.0
 10
69.608154296875
 20
82.19067654079861
 30
0.0
 10
69.69152560763888
 20
83.24935438368056
 30
0.0
 10
69.56336805555555
 20
84.69767252604166
 30
0.0
 10
68.81371527777777
 20
84.98051486545138
 30
0.0
 10
68.06371799045138
 20
85.2630126953125
 30
0.0
 10
67.24636908637151
 20
84.27874891493054
 30
0.0
 10
67.00572916666665
 20
83.2386745876736
 30
0.0
 10
66.88256700303819
 20
82.70640733506944
 30
0.0
 10
66.81056450737847
 20
82.1937771267361
 30
0.0
 10
66.86017388237846
 20
81.74901529947915
 30
0.0
 10
66.86017388237846
 20
81.74901529947915
 30
0.0
 10
69.58886176215277
 20
81.74901529947915
 30
0.0
 10
69.58886176215277
 20
81.74901529947915
 30
0.0
  0
SPLINE
  5
D8
330
A
100
AcDbEntity
  8
0
 62
     7
100
AcDbSpline
210
0.0
220
0.0
230
1.0
 70
     9
 71
     3
 72
    20
 73
    16
 74
     0
 42
0.0000000001
 43
0.0000000001
 40
0.0
 40
0.0
 40
0.0
 40
0.0
 40
1.0
 40
1.0
 40
1.0
 40
2.0
 40
2.0
 40
2.0
 40
3.0
 40
3.0
 40
3.0
 40
4.0
 40
4.0
 40
4.0
 40
5.0
 40
5.0
 40
5.0
 40
5.0
 10
75.10928276909722
 20
81.74901529947915
 30
0.0
 10
75.10928276909722
 20
81.74901529947915
 30
0.0
 10
75.10428738064234
 20
82.00912000868056
 30
0.0
 10
75.089990234375
 20
82.19067654079861
 30
0.0
 10
75.0066189236111
 20
83.24935438368056
 30
0.0
 10
75.13477647569444
 20
84.69767252604166
 30
0.0
 10
75.88442925347222
 20
84.98051486545138
 30
0.0
 10
76.6344265407986
 20
85.2630126953125
 30
0.0
 10
77.45177544487846
 20
84.27874891493054
 30
0.0
 10
77.69241536458332
 20
83.2386745876736
 30
0.0
 10
77.8155775282118
 20
82.70640733506944
 30
0.0
 10
77.88758002387152
 20
82.1937771267361
 30
0.0
 10
77.83797064887152
 20
81.74901529947915
 30
0.0
 10
77.83797064887152
 20
81.74901529947915
 30
0.0
 10
75.10928276909722
 20
81.74901529947915
 30
0.0
 10
75.10928276909722
 20
81.74901529947915
 30
0.0
  0
SPLINE
  5
D7
330
A
100
AcDbEntity
  8
0
 62
     7
100
AcDbSpline
210
0.0
220
0.0
230
1.0
 70
     8
 71
     3
 72
    32
 73
    28
 74
     0
 42
0.0000000001
 43
0.0000000001
 40
0.0
 40
0.0
 40
0.0
 40
0.0
 40
1.0
 40
1.0
 40
1.0
 40
2.0
 40
2.0
 40
2.0
 40
3.0
 40
3.0
 40
3.0
 40
4.0
 40
4.0
 40
4.0
 40
5.0
 40
5.0
 40
5.0
 40
6.0
 40
6.0
 40
6.0
 40
7.0
 40
7.0
 40
7.0
 40
8.0
 40
8.0
 40
8.0
 40
9.0
 40
9.0
 40
9.0
 40
9.0
 10
83.71530354817707
 20
89.89632161458333
 30
0.0
 10
80.48328721788193
 20
92.12013075086805
 30
0.0
 10
76.57207031249999
 20
93.42685546874999
 30
0.0
 10
72.3523451063368
 20
93.42685546874999
 30
0.0
 10
68.04132486979167
 20
93.42685546874999
 30
0.0
 10
64.05155978732638
 20
92.06397569444444
 30
0.0
 10
60.77940809461805
 20
89.75231662326388
 30
0.0
 10
59.4540798611111
 20
88.83488769531249
 30
0.0
 10
58.07604166666666
 20
87.30423177083332
 30
0.0
 10
58.07604166666666
 20
85.18722059461806
 30
0.0
 10
58.07604166666666
 20
85.18722059461806
 30
0.0
 10
58.07604166666666
 20
61.6089870876736
 30
0.0
 10
58.07604166666666
 20
61.6089870876736
 30
0.0
 10
58.07604166666666
 20
59.2277370876736
 30
0.0
 10
59.50713433159721
 20
57.7022488064236
 30
0.0
 10
60.83745795355902
 20
56.87783745659722
 30
0.0
 10
64.0985853407118
 20
54.59098307291666
 30
0.0
 10
68.06699083116318
 20
53.24463975694444
 30
0.0
 10
72.3523451063368
 20
53.24463975694444
 30
0.0
 10
76.58119981553818
 20
53.24463975694444
 30
0.0
 10
80.49999593098958
 20
54.55722113715277
 30
0.0
 10
83.73614637586804
 20
56.78964301215277
 30
0.0
 10
84.85752495659722
 20
57.54963107638888
 30
0.0
 10
86.39076470269095
 20
59.2866482204861
 30
0.0
 10
86.39076470269095
 20
61.58039279513888
 30
0.0
 10
86.39076470269095
 20
61.58039279513888
 30
0.0
 10
86.39076470269095
 20
85.185498046875
 30
0.0
 10
86.39076470269095
 20
85.185498046875
 30
0.0
  0
SPLINE
  5
D6
330
A
100
AcDbEntity
  8
0
 62
     7
100
AcDbSpline
210
0.0
220
0.0
230
1.0
 70
     8
 71
     3
 72
    11
 73
     7
 74
     0
 42
0.0000000001
 43
0.0000000001
 40
0.0
 40
0.0
 40
0.0
 40
0.0
 40
1.0
 40
1.0
 40
1.0
 40
2.0
 40
2.0
 40
2.0
 40
2.0
 10
86.39076470269095
 20
85.185498046875
 30
0.0
 10
86.44054633246527
 20
87.26116807725693
 30
0.0
 10
85.15673149956596
 20
89.01885579427082
 30
0.0
 10
83.71530354817707
 20
89.89632161458333
 30
0.0
 10
80.48328721788193
 20
92.12013075086805
 30
0.0
 10
76.57207031249999
 20
93.42685546874999
 30
0.0
 10
72.3523451063368
 20
93.42685546874999
 30
0.0
  0
LINE
  5
D5
330
A
100
AcDbEntity
  8
0
  6
AI9-LType1
 62
     7
100
AcDbLine
 10
163.3757297092013
 20
49.62728949652777
 30
0.0
 11
163.3757297092013
 21
95.89388834635416
 31
0.0
  0
SPLINE
  5
D4
330
A
100
AcDbEntity
  8
0
 62
     7
100
AcDbSpline
210
0.0
220
0.0
230
1.0
 70
     9
 71
     3
 72
    47
 73
    43
 74
     0
 42
0.0000000001
 43
0.0000000001
 40
0.0
 40
0.0
 40
0.0
 40
0.0
 40
1.0
 40
1.0
 40
1.0
 40
2.0
 40
2.0
 40
2.0
 40
3.0
 40
3.0
 40
3.0
 40
4.0
 40
4.0
 40
4.0
 40
5.0
 40
5.0
 40
5.0
 40
6.0
 40
6.0
 40
6.0
 40
7.0
 40
7.0
 40
7.0
 40
8.0
 40
8.0
 40
8.0
 40
9.0
 40
9.0
 40
9.0
 40
10.0
 40
10.0
 40
10.0
 40
11.0
 40
11.0
 40
11.0
 40
12.0
 40
12.0
 40
12.0
 40
13.0
 40
13.0
 40
13.0
 40
14.0
 40
14.0
 40
14.0
 40
14.0
 10
162.7339084201388
 20
78.09411349826388
 30
0.0
 10
162.7380425347222
 20
78.00557454427083
 30
0.0
 10
162.7414876302083
 20
77.91669108072916
 30
0.0
 10
162.7414876302083
 20
77.82746310763887
 30
0.0
 10
162.7414876302083
 20
75.43553331163194
 30
0.0
 10
161.3000596788194
 20
72.86514756944443
 30
0.0
 10
158.0099934895833
 20
72.58919542100693
 30
0.0
 10
157.7185384114583
 20
72.56473524305555
 30
0.0
 10
157.2248562282986
 20
72.37973361545138
 30
0.0
 10
157.2248562282986
 20
71.84195421006943
 30
0.0
 10
157.2248562282986
 20
71.44128960503471
 30
0.0
 10
157.4983968098958
 20
71.10263671874999
 30
0.0
 10
157.8218912760416
 20
71.10263671874999
 30
0.0
 10
157.8218912760416
 20
71.10263671874999
 30
0.0
 10
157.8718451605902
 20
71.10194769965277
 30
0.0
 10
157.8718451605902
 20
71.10194769965277
 30
0.0
 10
157.8718451605902
 20
71.10194769965277
 30
0.0
 10
163.396400282118
 20
70.97930230034721
 30
0.0
 10
163.4976860894097
 20
70.97723524305554
 30
0.0
 10
163.5986273871527
 20
70.97964680989583
 30
0.0
 10
168.8213921440972
 20
71.10263671874999
 30
0.0
 10
168.8213921440972
 20
71.10263671874999
 30
0.0
 10
168.8213921440972
 20
71.10263671874999
 30
0.0
 10
168.8479193793402
 20
71.10263671874999
 30
0.0
 10
168.8479193793402
 20
71.10263671874999
 30
0.0
 10
169.171413845486
 20
71.10263671874999
 30
0.0
 10
169.4446099175347
 20
71.44128960503471
 30
0.0
 10
169.4446099175347
 20
71.84195421006943
 30
0.0
 10
169.4446099175347
 20
72.48928765190972
 30
0.0
 10
168.7025363498263
 20
72.58437228732638
 30
0.0
 10
168.617787000868
 20
72.59298502604166
 30
0.0
 10
165.3401231553819
 20
72.9292263454861
 30
0.0
 10
163.9138536241319
 20
75.45344780815971
 30
0.0
 10
163.9138536241319
 20
77.79749077690971
 30
0.0
 10
163.9138536241319
 20
77.89705403645832
 30
0.0
 10
163.9186767578124
 20
77.99592827690971
 30
0.0
 10
163.9238444010416
 20
78.0948025173611
 30
0.0
 10
163.9183322482638
 20
78.48995496961805
 30
0.0
 10
163.6492702907986
 20
78.82240668402777
 30
0.0
 10
163.3288764105902
 20
78.82240668402777
 30
0.0
 10
163.0084825303819
 20
78.82240668402777
 30
0.0
 10
162.739076063368
 20
78.48961046006944
 30
0.0
 10
162.7339084201388
 20
78.09411349826388
 30
0.0
  0
LINE
  5
D3
330
A
100
AcDbEntity
  8
0
 62
     7
100
AcDbLine
 10
135.7040337456597
 20
62.29903971354166
 30
0.0
 11
141.0229166666666
 21
62.29903971354166
 31
0.0
  0
LINE
  5
D2
330
A
100
AcDbEntity
  8
0
 62
     7
100
AcDbLine
 10
135.7040337456597
 20
84.68458116319444
 30
0.0
 11
141.0229166666666
 21
84.68458116319444
 31
0.0
  0
LINE
  5
D1
330
A
100
AcDbEntity
  8
0
 62
     7
100
AcDbLine
 10
135.7040337456597
 20
84.68458116319444
 30
0.0
 11
135.7040337456597
 21
62.22703721788193
 31
0.0
  0
HATCH
  5
D0
330
A
100
AcDbEntity
  8
0
 62
     7
100
AcDbHatch
 10
0.0
 20
0.0
 30
0.0
210
0.0
220
0.0
230
1.0
  2
SOLID
 70
     1
 71
     0
 91
        1
 92
        1
 93
        1
 72
     4
 94
        3
 73
     0
 74
     0
 95
       17
 96
       13
 40
0.0
 40
0.0
 40
0.0
 40
0.0
 40
1.0
 40
1.0
 40
1.0
 40
2.0
 40
2.0
 40
2.0
 40
3.0
 40
3.0
 40
3.0
 40
4.0
 40
4.0
 40
4.0
 40
4.0
 10
135.7112684461805
 20
84.94675292968748
 10
135.8159993489583
 20
84.94675292968748
 10
135.9007486979166
 20
84.86200358072917
 10
135.9007486979166
 20
84.75727267795138
 10
135.9007486979166
 20
84.6525417751736
 10
135.8159993489583
 20
84.56779242621527
 10
135.7112684461805
 20
84.56779242621527
 10
135.6065375434027
 20
84.56779242621527
 10
135.5217881944444
 20
84.6525417751736
 10
135.5217881944444
 20
84.75727267795138
 10
135.5217881944444
 20
84.86200358072917
 10
135.6065375434027
 20
84.94675292968748
 10
135.7112684461805
 20
84.94675292968748
 97
        0
 75
     0
 76
     1
 98
        1
 10
0.0
 20
0.0
  0
HATCH
  5
CF
330
A
100
AcDbEntity
  8
0
 62
     7
100
AcDbHatch
 10
0.0
 20
0.0
 30
0.0
210
0.0
220
0.0
230
1.0
  2
SOLID
 70
     1
 71
     0
 91
        1
 92
        1
 93
        1
 72
     4
 94
        3
 73
     0
 74
     0
 95
       17
 96
       13
 40
0.0
 40
0.0
 40
0.0
 40
0.0
 40
1.0
 40
1.0
 40
1.0
 40
2.0
 40
2.0
 40
2.0
 40
3.0
 40
3.0
 40
3.0
 40
4.0
 40
4.0
 40
4.0
 40
4.0
 10
135.7112684461805
 20
62.41892903645833
 10
135.8159993489583
 20
62.41892903645833
 10
135.9007486979166
 20
62.3341796875
 10
135.9007486979166
 20
62.22944878472222
 10
135.9007486979166
 20
62.12471788194444
 10
135.8159993489583
 20
62.03996853298611
 10
135.7112684461805
 20
62.03996853298611
 10
135.6065375434027
 20
62.03996853298611
 10
135.5217881944444
 20
62.12471788194444
 10
135.5217881944444
 20
62.22944878472222
 10
135.5217881944444
 20
62.3341796875
 10
135.6065375434027
 20
62.41892903645833
 10
135.7112684461805
 20
62.41892903645833
 97
        0
 75
     0
 76
     1
 98
        1
 10
0.0
 20
0.0
  0
INSERT
  5
B1
330
A
100
AcDbEntity
  8
0
  6
AI9-LType1
 62
     7
100
AcDbBlockReference
  2
AI9-BLK8
 10
133.5601508246527
 20
74.56668023003472
 30
0.0
  0
LINE
  5
AF
330
A
100
AcDbEntity
  8
0
  6
AI9-LType1
 62
     7
100
AcDbLine
 10
146.2584282769097
 20
62.29903971354166
 30
0.0
 11
181.1434651692708
 21
62.29903971354166
 31
0.0
  0
LINE
  5
AE
330
A
100
AcDbEntity
  8
0
 62
     7
100
AcDbLine
 10
154.6282877604166
 20
96.89951171875
 30
0.0
 11
154.6282877604166
 21
102.2183946397569
 31
0.0
  0
LINE
  5
AD
330
A
100
AcDbEntity
  8
0
 62
     7
100
AcDbLine
 10
171.9326578776041
 20
96.89951171875
 30
0.0
 11
171.9326578776041
 21
102.2183946397569
 31
0.0
  0
LINE
  5
AC
330
A
100
AcDbEntity
  8
0
 62
     7
100
AcDbLine
 10
154.5397488064236
 20
102.2183946397569
 30
0.0
 11
172.0046603732638
 21
102.2183946397569
 31
0.0
  0
HATCH
  5
AB
330
A
100
AcDbEntity
  8
0
 62
     7
100
AcDbHatch
 10
0.0
 20
0.0
 30
0.0
210
0.0
220
0.0
230
1.0
  2
SOLID
 70
     1
 71
     0
 91
        1
 92
        1
 93
        1
 72
     4
 94
        3
 73
     0
 74
     0
 95
       17
 96
       13
 40
0.0
 40
0.0
 40
0.0
 40
0.0
 40
1.0
 40
1.0
 40
1.0
 40
2.0
 40
2.0
 40
2.0
 40
3.0
 40
3.0
 40
3.0
 40
4.0
 40
4.0
 40
4.0
 40
4.0
 10
154.4384629991319
 20
102.2097819010416
 10
154.4384629991319
 20
102.3145128038194
 10
154.5232123480902
 20
102.3992621527777
 10
154.627943250868
 20
102.3992621527777
 10
154.7326741536458
 20
102.3992621527777
 10
154.8174235026041
 20
102.3145128038194
 10
154.8174235026041
 20
102.2097819010416
 10
154.8174235026041
 20
102.1050509982638
 10
154.7326741536458
 20
102.0203016493055
 10
154.627943250868
 20
102.0203016493055
 10
154.5232123480902
 20
102.0203016493055
 10
154.4384629991319
 20
102.1050509982638
 10
154.4384629991319
 20
102.2097819010416
 97
        0
 75
     0
 76
     1
 98
        1
 10
0.0
 20
0.0
  0
HATCH
  5
AA
330
A
100
AcDbEntity
  8
0
 62
     7
100
AcDbHatch
 10
0.0
 20
0.0
 30
0.0
210
0.0
220
0.0
230
1.0
  2
SOLID
 70
     1
 71
     0
 91
        1
 92
        1
 93
        1
 72
     4
 94
        3
 73
     0
 74
     0
 95
       17
 96
       13
 40
0.0
 40
0.0
 40
0.0
 40
0.0
 40
1.0
 40
1.0
 40
1.0
 40
2.0
 40
2.0
 40
2.0
 40
3.0
 40
3.0
 40
3.0
 40
4.0
 40
4.0
 40
4.0
 40
4.0
 10
171.7442111545138
 20
102.2256293402777
 10
171.7442111545138
 20
102.3303602430555
 10
171.8289605034722
 20
102.4151095920138
 10
171.9336914062499
 20
102.4151095920138
 10
172.0384223090277
 20
102.4151095920138
 10
172.123171657986
 20
102.3303602430555
 10
172.123171657986
 20
102.2256293402777
 10
172.123171657986
 20
102.1208984374999
 10
172.0384223090277
 20
102.0361490885416
 10
171.9336914062499
 20
102.0361490885416
 10
171.8289605034722
 20
102.0361490885416
 10
171.7442111545138
 20
102.1208984374999
 10
171.7442111545138
 20
102.2256293402777
 97
        0
 75
     0
 76
     1
 98
        1
 10
0.0
 20
0.0
  0
INSERT
  5
8C
330
A
100
AcDbEntity
  8
0
  6
AI9-LType1
 62
     7
100
AcDbBlockReference
  2
AI9-BLK1
 10
163.4411865234374
 20
104.0970052083333
 30
0.0
  0
LINE
  5
8A
330
A
100
AcDbEntity
  8
0
  6
AI9-LType1
 62
     7
100
AcDbLine
 10
171.9326578776041
 20
59.79307725694443
 30
0.0
 11
171.9326578776041
 21
95.77193196614583
 31
0.0
  0
LINE
  5
89
330
A
100
AcDbEntity
  8
0
  6
AI9-LType1
 62
     7
100
AcDbLine
 10
154.6282877604166
 20
59.79307725694443
 30
0.0
 11
154.6282877604166
 21
95.77193196614583
 31
0.0
  0
LINE
  5
88
330
A
100
AcDbEntity
  8
0
  6
AI9-LType1
 62
     7
100
AcDbLine
 10
146.2908121744791
 20
84.68458116319444
 30
0.0
 11
179.2707112630208
 21
84.68458116319444
 31
0.0
  0
POLYLINE
  5
81
330
A
100
AcDbEntity
  8
0
 62
     7
100
AcDb2dPolyline
 66
     1
 10
0.0
 20
0.0
 30
0.0
 70
     1
  0
VERTEX
  5
82
330
81
100
AcDbEntity
  8
0
 62
     7
100
AcDbVertex
100
AcDb2dVertex
 10
131.0069905598958
 20
152.358314344618
 30
0.0
  0
VERTEX
  5
83
330
81
100
AcDbEntity
  8
0
 62
     7
100
AcDbVertex
100
AcDb2dVertex
 10
125.0070122612847
 20
152.358314344618
 30
0.0
  0
VERTEX
  5
84
330
81
100
AcDbEntity
  8
0
 62
     7
100
AcDbVertex
100
AcDb2dVertex
 10
125.0070122612847
 20
155.0082817925347
 30
0.0
  0
VERTEX
  5
85
330
81
100
AcDbEntity
  8
0
 62
     7
100
AcDbVertex
100
AcDb2dVertex
 10
131.0069905598958
 20
155.0082817925347
 30
0.0
  0
SEQEND
  5
86
330
81
100
AcDbEntity
  8
0
 62
     7
  0
POLYLINE
  5
7B
330
A
100
AcDbEntity
  8
0
 62
     7
100
AcDb2dPolyline
 66
     1
 10
0.0
 20
0.0
 30
0.0
 70
     1
  0
VERTEX
  5
7C
330
7B
100
AcDbEntity
  8
0
 62
     7
100
AcDbVertex
100
AcDb2dVertex
 10
132.1738444010416
 20
151.8834079318576
 30
0.0
  0
VERTEX
  5
7D
330
7B
100
AcDbEntity
  8
0
 62
     7
100
AcDbVertex
100
AcDb2dVertex
 10
131.013880750868
 20
151.8834079318576
 30
0.0
  0
VERTEX
  5
7E
330
7B
100
AcDbEntity
  8
0
 62
     7
100
AcDbVertex
100
AcDb2dVertex
 10
131.013880750868
 20
155.4833604600694
 30
0.0
  0
VERTEX
  5
7F
330
7B
100
AcDbEntity
  8
0
 62
     7
100
AcDbVertex
100
AcDb2dVertex
 10
132.1738444010416
 20
155.4833604600694
 30
0.0
  0
SEQEND
  5
80
330
7B
100
AcDbEntity
  8
0
 62
     7
  0
LINE
  5
7A
330
A
100
AcDbEntity
  8
0
 62
     7
100
AcDbLine
 10
163.6933675130208
 20
68.57738172743054
 30
0.0
 11
165.5433837890624
 21
68.57738172743054
 31
0.0
  0
SPLINE
  5
79
330
A
100
AcDbEntity
  8
0
 62
     7
100
AcDbSpline
210
0.0
220
0.0
230
1.0
 70
     9
 71
     3
 72
    41
 73
    37
 74
     0
 42
0.0000000001
 43
0.0000000001
 40
0.0
 40
0.0
 40
0.0
 40
0.0
 40
1.0
 40
1.0
 40
1.0
 40
2.0
 40
2.0
 40
2.0
 40
3.0
 40
3.0
 40
3.0
 40
4.0
 40
4.0
 40
4.0
 40
5.0
 40
5.0
 40
5.0
 40
6.0
 40
6.0
 40
6.0
 40
7.0
 40
7.0
 40
7.0
 40
8.0
 40
8.0
 40
8.0
 40
9.0
 40
9.0
 40
9.0
 40
10.0
 40
10.0
 40
10.0
 40
11.0
 40
11.0
 40
11.0
 40
12.0
 40
12.0
 40
12.0
 40
12.0
 10
177.4355088975694
 20
62.6724880642361
 30
0.0
 10
177.4355088975694
 20
62.74104546440971
 30
0.0
 10
177.4355088975694
 20
84.92194824218749
 30
0.0
 10
177.4355088975694
 20
84.92194824218749
 30
0.0
 10
177.4355088975694
 20
86.61555718315971
 30
0.0
 10
177.156800672743
 20
87.90643446180554
 30
0.0
 10
175.7684271918402
 20
89.10532769097221
 30
0.0
 10
174.392800564236
 20
90.29354112413193
 30
0.0
 10
169.498353407118
 20
93.37690158420137
 30
0.0
 10
163.4535888671874
 20
93.37690158420137
 30
0.0
 10
156.9299560546874
 20
93.37690158420137
 30
0.0
 10
152.4261827256944
 20
90.22877332899303
 30
0.0
 10
150.7925184461805
 20
88.87519531249999
 30
0.0
 10
149.3090603298611
 20
87.64598524305554
 30
0.0
 10
149.0555013020833
 20
85.58133951822915
 30
0.0
 10
149.0555013020833
 20
84.31354437934027
 30
0.0
 10
149.0555013020833
 20
83.74441460503472
 30
0.0
 10
149.1051106770833
 20
83.3502956814236
 30
0.0
 10
149.1188910590277
 20
83.25004340277777
 30
0.0
 10
149.1188910590277
 20
83.19974500868054
 30
0.0
 10
149.1188910590277
 20
62.81442599826388
 30
0.0
 10
149.1188910590277
 20
62.81442599826388
 30
0.0
 10
149.1188910590277
 20
58.90045301649305
 30
0.0
 10
150.6333550347221
 20
57.83626302083333
 30
0.0
 10
150.9416910807291
 20
57.66021864149305
 30
0.0
 10
153.4235378689236
 20
55.22867024739582
 30
0.0
 10
159.0965766059027
 20
53.18331705729166
 30
0.0
 10
163.3950222439235
 20
53.18331705729166
 30
0.0
 10
167.7334309895833
 20
53.18331705729166
 30
0.0
 10
173.1618679470486
 20
55.08225368923611
 30
0.0
 10
175.4959201388888
 20
57.41630588107638
 30
0.0
 10
177.212611219618
 20
59.13299696180555
 30
0.0
 10
177.4885633680555
 20
60.96337619357638
 30
0.0
 10
177.4885633680555
 20
61.96245388454861
 30
0.0
 10
177.4885633680555
 20
62.33280164930555
 30
0.0
 10
177.4520453559027
 20
62.57878146701388
 30
0.0
 10
177.4355088975694
 20
62.6724880642361
 30
0.0
  0
SPLINE
  5
78
330
A
100
AcDbEntity
  8
0
 62
     7
100
AcDbSpline
210
0.0
220
0.0
230
1.0
 70
     9
 71
     3
 72
    26
 73
    22
 74
     0
 42
0.0000000001
 43
0.0000000001
 40
0.0
 40
0.0
 40
0.0
 40
0.0
 40
1.0
 40
1.0
 40
1.0
 40
2.0
 40
2.0
 40
2.0
 40
3.0
 40
3.0
 40
3.0
 40
4.0
 40
4.0
 40
4.0
 40
5.0
 40
5.0
 40
5.0
 40
6.0
 40
6.0
 40
6.0
 40
7.0
 40
7.0
 40
7.0
 40
7.0
 10
175.2454616970485
 20
88.49967990451387
 30
0.0
 10
176.4140380859374
 20
87.49061143663194
 30
0.0
 10
176.6355577256944
 20
86.46362847222221
 30
0.0
 10
176.6355577256944
 20
84.92194824218749
 30
0.0
 10
176.6355577256944
 20
84.92194824218749
 30
0.0
 10
176.6355577256944
 20
84.50957031249998
 30
0.0
 10
176.6355577256944
 20
84.50957031249998
 30
0.0
 10
176.6355577256944
 20
84.50957031249998
 30
0.0
 10
175.4156494140624
 20
83.33685980902776
 30
0.0
 10
175.4156494140624
 20
83.33685980902776
 30
0.0
 10
175.5634440104166
 20
83.73476833767361
 30
0.0
 10
175.6481933593749
 20
84.16299370659722
 30
0.0
 10
175.6481933593749
 20
84.61223415798611
 30
0.0
 10
175.6481933593749
 20
85.79838053385415
 30
0.0
 10
175.0859537760416
 20
86.85154622395833
 30
0.0
 10
174.21572265625
 20
87.52850748697916
 30
0.0
 10
174.21572265625
 20
87.52850748697916
 30
0.0
 10
175.0335883246527
 20
88.67262369791665
 30
0.0
 10
175.0335883246527
 20
88.67262369791665
 30
0.0
 10
175.1090359157985
 20
88.61267903645833
 30
0.0
 10
175.1844835069444
 20
88.55238986545137
 30
0.0
 10
175.2454616970485
 20
88.49967990451387
 30
0.0
  0
SPLINE
  5
77
330
A
100
AcDbEntity
  8
0
 62
     7
100
AcDbSpline
210
0.0
220
0.0
230
1.0
 70
     9
 71
     3
 72
    29
 73
    25
 74
     0
 42
0.0000000001
 43
0.0000000001
 40
0.0
 40
0.0
 40
0.0
 40
0.0
 40
1.0
 40
1.0
 40
1.0
 40
2.0
 40
2.0
 40
2.0
 40
3.0
 40
3.0
 40
3.0
 40
4.0
 40
4.0
 40
4.0
 40
5.0
 40
5.0
 40
5.0
 40
6.0
 40
6.0
 40
6.0
 40
7.0
 40
7.0
 40
7.0
 40
8.0
 40
8.0
 40
8.0
 40
8.0
 10
166.0467122395833
 20
79.07803276909722
 30
0.0
 10
166.0029595269097
 20
79.20825737847221
 30
0.0
 10
165.9502495659721
 20
79.33400336371526
 30
0.0
 10
165.8903049045138
 20
79.45492621527776
 30
0.0
 10
165.8903049045138
 20
79.45492621527776
 30
0.0
 10
166.4866509331597
 20
80.81677246093748
 30
0.0
 10
166.4866509331597
 20
80.81677246093748
 30
0.0
 10
166.4866509331597
 20
80.81677246093748
 30
0.0
 10
169.9210666232638
 20
78.05380588107638
 30
0.0
 10
169.9210666232638
 20
78.05380588107638
 30
0.0
 10
169.9210666232638
 20
78.05380588107638
 30
0.0
 10
167.2211452907986
 20
75.45758192274305
 30
0.0
 10
167.2211452907986
 20
75.45758192274305
 30
0.0
 10
166.7415879991319
 20
75.84274359809026
 30
0.0
 10
166.4842393663194
 20
76.34331597222221
 30
0.0
 10
166.3488471137152
 20
76.80461425781249
 30
0.0
 10
166.3316216362846
 20
76.94827473958333
 30
0.0
 10
166.3195638020833
 20
77.09882541232637
 30
0.0
 10
166.318874782986
 20
77.26453450520833
 30
0.0
 10
166.3223198784722
 20
77.32206759982638
 30
0.0
 10
166.3254204644097
 20
77.39510362413193
 30
0.0
 10
166.3254204644097
 20
77.49673394097222
 30
0.0
 10
166.3254204644097
 20
77.85881347656249
 30
0.0
 10
166.2802897135416
 20
78.46652832031249
 30
0.0
 10
166.0467122395833
 20
79.07803276909722
 30
0.0
  0
SPLINE
  5
76
330
A
100
AcDbEntity
  8
0
 62
     7
100
AcDbSpline
210
0.0
220
0.0
230
1.0
 70
     9
 71
     3
 72
    23
 73
    19
 74
     0
 42
0.0000000001
 43
0.0000000001
 40
0.0
 40
0.0
 40
0.0
 40
0.0
 40
1.0
 40
1.0
 40
1.0
 40
2.0
 40
2.0
 40
2.0
 40
3.0
 40
3.0
 40
3.0
 40
4.0
 40
4.0
 40
4.0
 40
5.0
 40
5.0
 40
5.0
 40
6.0
 40
6.0
 40
6.0
 40
6.0
 10
171.9395480685763
 20
80.91151258680554
 30
0.0
 10
172.3440022786458
 20
80.91151258680554
 30
0.0
 10
172.7298529730902
 20
80.98351508246528
 30
0.0
 10
173.0936550564235
 20
81.10409342447916
 30
0.0
 10
173.0936550564235
 20
81.10409342447916
 30
0.0
 10
170.3568712022569
 20
78.4727294921875
 30
0.0
 10
170.3568712022569
 20
78.4727294921875
 30
0.0
 10
170.3568712022569
 20
78.4727294921875
 30
0.0
 10
166.7357313368055
 20
81.38590223524305
 30
0.0
 10
166.7357313368055
 20
81.38590223524305
 30
0.0
 10
166.7357313368055
 20
81.38590223524305
 30
0.0
 10
168.2426161024305
 20
84.82686360677083
 30
0.0
 10
168.2426161024305
 20
84.82686360677083
 30
0.0
 10
168.2384819878471
 20
84.75555013020832
 30
0.0
 10
168.2315917968749
 20
84.68458116319444
 30
0.0
 10
168.2315917968749
 20
84.61223415798611
 30
0.0
 10
168.2315917968749
 20
82.56860351562499
 30
0.0
 10
169.8917833116319
 20
80.91151258680554
 30
0.0
 10
171.9395480685763
 20
80.91151258680554
 30
0.0
  0
SPLINE
  5
75
330
A
100
AcDbEntity
  8
0
 62
     7
100
AcDbSpline
210
0.0
220
0.0
230
1.0
 70
     9
 71
     3
 72
    17
 73
    13
 74
     0
 42
0.0000000001
 43
0.0000000001
 40
0.0
 40
0.0
 40
0.0
 40
0.0
 40
1.0
 40
1.0
 40
1.0
 40
2.0
 40
2.0
 40
2.0
 40
3.0
 40
3.0
 40
3.0
 40
4.0
 40
4.0
 40
4.0
 40
4.0
 10
173.5012098524305
 20
84.98017035590278
 30
0.0
 10
173.3534152560763
 20
85.60132107204861
 30
0.0
 10
172.8456081814235
 20
86.08122287326388
 30
0.0
 10
172.2089545355902
 20
86.18905436197916
 30
0.0
 10
172.2089545355902
 20
86.18905436197916
 30
0.0
 10
172.2089545355902
 20
87.69766167534722
 30
0.0
 10
172.2089545355902
 20
87.69766167534722
 30
0.0
 10
173.6738091362847
 20
87.57157118055555
 30
0.0
 10
174.849964735243
 20
86.42814398871527
 30
0.0
 10
175.0229085286458
 20
84.98017035590278
 30
0.0
 10
175.0229085286458
 20
84.98017035590278
 30
0.0
 10
173.5012098524305
 20
84.98017035590278
 30
0.0
 10
173.5012098524305
 20
84.98017035590278
 30
0.0
  0
SPLINE
  5
74
330
A
100
AcDbEntity
  8
0
 62
     7
100
AcDbSpline
210
0.0
220
0.0
230
1.0
 70
     9
 71
     3
 72
    17
 73
    13
 74
     0
 42
0.0000000001
 43
0.0000000001
 40
0.0
 40
0.0
 40
0.0
 40
0.0
 40
1.0
 40
1.0
 40
1.0
 40
2.0
 40
2.0
 40
2.0
 40
3.0
 40
3.0
 40
3.0
 40
4.0
 40
4.0
 40
4.0
 40
4.0
 10
175.0349663628472
 20
84.38003472222222
 30
0.0
 10
174.9216227213541
 20
82.86798231336804
 30
0.0
 10
173.7192843967013
 20
81.65565321180555
 30
0.0
 10
172.2089545355902
 20
81.52542860243055
 30
0.0
 10
172.2089545355902
 20
81.52542860243055
 30
0.0
 10
172.2089545355902
 20
83.0340359157986
 30
0.0
 10
172.2089545355902
 20
83.0340359157986
 30
0.0
 10
172.8914279513888
 20
83.14979112413194
 30
0.0
 10
173.423695203993
 20
83.69377170138887
 30
0.0
 10
173.5246365017361
 20
84.38003472222222
 30
0.0
 10
173.5246365017361
 20
84.38003472222222
 30
0.0
 10
175.0349663628472
 20
84.38003472222222
 30
0.0
 10
175.0349663628472
 20
84.38003472222222
 30
0.0
  0
CIRCLE
  5
73
330
A
100
AcDbEntity
  8
0
 62
     7
100
AcDbCircle
 10
171.9398925781249
 20
84.61154513888889
 30
0.0
 40
1.006656901041666
  0
SPLINE
  5
72
330
A
100
AcDbEntity
  8
0
 62
     7
100
AcDbSpline
210
0.0
220
0.0
230
1.0
 70
     9
 71
     3
 72
    17
 73
    13
 74
     0
 42
0.0000000001
 43
0.0000000001
 40
0.0
 40
0.0
 40
0.0
 40
0.0
 40
1.0
 40
1.0
 40
1.0
 40
2.0
 40
2.0
 40
2.0
 40
3.0
 40
3.0
 40
3.0
 40
4.0
 40
4.0
 40
4.0
 40
4.0
 10
171.6074408637152
 20
86.18078613281248
 30
0.0
 10
171.0000705295138
 20
86.05262858072917
 30
0.0
 10
170.521546766493
 20
85.58099500868054
 30
0.0
 10
170.3785753038194
 20
84.98017035590278
 30
0.0
 10
170.3785753038194
 20
84.98017035590278
 30
0.0
 10
168.8568766276041
 20
84.98017035590278
 30
0.0
 10
168.8568766276041
 20
84.98017035590278
 30
0.0
 10
169.0274088541666
 20
86.40712890625
 30
0.0
 10
170.1718695746527
 20
87.54022081163194
 30
0.0
 10
171.6074408637152
 20
87.69318305121528
 30
0.0
 10
171.6074408637152
 20
87.69318305121528
 30
0.0
 10
171.6074408637152
 20
86.18078613281248
 30
0.0
 10
171.6074408637152
 20
86.18078613281248
 30
0.0
  0
SPLINE
  5
71
330
A
100
AcDbEntity
  8
0
 62
     7
100
AcDbSpline
210
0.0
220
0.0
230
1.0
 70
     9
 71
     3
 72
    17
 73
    13
 74
     0
 42
0.0000000001
 43
0.0000000001
 40
0.0
 40
0.0
 40
0.0
 40
0.0
 40
1.0
 40
1.0
 40
1.0
 40
2.0
 40
2.0
 40
2.0
 40
3.0
 40
3.0
 40
3.0
 40
4.0
 40
4.0
 40
4.0
 40
4.0
 10
170.3551486545138
 20
84.38003472222222
 30
0.0
 10
170.4529893663194
 20
83.71513129340277
 30
0.0
 10
170.9545952690972
 20
83.1797634548611
 30
0.0
 10
171.6074408637152
 20
83.04230414496528
 30
0.0
 10
171.6074408637152
 20
83.04230414496528
 30
0.0
 10
171.6074408637152
 20
81.52990722656248
 30
0.0
 10
171.6074408637152
 20
81.52990722656248
 30
0.0
 10
170.1263943142361
 20
81.68803710937499
 30
0.0
 10
168.9564398871527
 20
82.88899739583333
 30
0.0
 10
168.8448187934027
 20
84.38003472222222
 30
0.0
 10
168.8448187934027
 20
84.38003472222222
 30
0.0
 10
170.3551486545138
 20
84.38003472222222
 30
0.0
 10
170.3551486545138
 20
84.38003472222222
 30
0.0
  0
POLYLINE
  5
6C
330
A
100
AcDbEntity
  8
0
 62
     7
100
AcDb2dPolyline
 66
     1
 10
0.0
 20
0.0
 30
0.0
 70
     1
  0
VERTEX
  5
6D
330
6C
100
AcDbEntity
  8
0
 62
     7
100
AcDbVertex
100
AcDb2dVertex
 10
173.8784478081597
 20
81.09513617621528
 30
0.0
  0
VERTEX
  5
6E
330
6C
100
AcDbEntity
  8
0
 62
     7
100
AcDbVertex
100
AcDb2dVertex
 10
173.8784478081597
 20
75.63948296440971
 30
0.0
  0
VERTEX
  5
6F
330
6C
100
AcDbEntity
  8
0
 62
     7
100
AcDbVertex
100
AcDb2dVertex
 10
170.7892306857638
 20
78.12477484809027
 30
0.0
  0
SEQEND
  5
70
330
6C
100
AcDbEntity
  8
0
 62
     7
  0
SPLINE
  5
6B
330
A
100
AcDbEntity
  8
0
 62
     7
100
AcDbSpline
210
0.0
220
0.0
230
1.0
 70
     9
 71
     3
 72
    23
 73
    19
 74
     0
 42
0.0000000001
 43
0.0000000001
 40
0.0
 40
0.0
 40
0.0
 40
0.0
 40
1.0
 40
1.0
 40
1.0
 40
2.0
 40
2.0
 40
2.0
 40
3.0
 40
3.0
 40
3.0
 40
4.0
 40
4.0
 40
4.0
 40
5.0
 40
5.0
 40
5.0
 40
6.0
 40
6.0
 40
6.0
 40
6.0
 10
170.3534261067708
 20
77.70585123697916
 30
0.0
 10
170.3534261067708
 20
77.70585123697916
 30
0.0
 10
173.8784478081597
 20
74.86984863281249
 30
0.0
 10
173.8784478081597
 20
74.86984863281249
 30
0.0
 10
173.8784478081597
 20
74.86984863281249
 30
0.0
 10
173.8784478081597
 20
72.13961046006943
 30
0.0
 10
173.8784478081597
 20
72.13961046006943
 30
0.0
 10
173.8784478081597
 20
72.13961046006943
 30
0.0
 10
171.7231960720486
 20
72.13961046006943
 30
0.0
 10
171.7231960720486
 20
72.13961046006943
 30
0.0
 10
171.5785020616319
 20
73.63202582465277
 30
0.0
 10
170.3610053168402
 20
74.68036838107638
 30
0.0
 10
168.8896050347221
 20
74.83126356336805
 30
0.0
 10
168.4138373480902
 20
74.8798394097222
 30
0.0
 10
168.0238525390624
 20
74.99628363715277
 30
0.0
 10
167.7010470920138
 20
75.15510253906249
 30
0.0
 10
167.7010470920138
 20
75.15510253906249
 30
0.0
 10
170.3534261067708
 20
77.70585123697916
 30
0.0
 10
170.3534261067708
 20
77.70585123697916
 30
0.0
  0
SPLINE
  5
6A
330
A
100
AcDbEntity
  8
0
 62
     7
100
AcDbSpline
210
0.0
220
0.0
230
1.0
 70
     9
 71
     3
 72
    17
 73
    13
 74
     0
 42
0.0000000001
 43
0.0000000001
 40
0.0
 40
0.0
 40
0.0
 40
0.0
 40
1.0
 40
1.0
 40
1.0
 40
2.0
 40
2.0
 40
2.0
 40
3.0
 40
3.0
 40
3.0
 40
4.0
 40
4.0
 40
4.0
 40
4.0
 10
166.3746853298611
 20
66.34185926649305
 30
0.0
 10
165.4562228732638
 20
66.20371093749999
 30
0.0
 10
164.5598090277777
 20
66.14411078559027
 30
0.0
 10
163.6950900607638
 20
66.13790961371527
 30
0.0
 10
163.6950900607638
 20
66.13790961371527
 30
0.0
 10
163.6950900607638
 20
68.73034396701388
 30
0.0
 10
163.6950900607638
 20
68.73034396701388
 30
0.0
 10
163.6950900607638
 20
68.73034396701388
 30
0.0
 10
165.6205539279513
 20
68.77581922743054
 30
0.0
 10
165.6205539279513
 20
68.77581922743054
 30
0.0
 10
165.6205539279513
 20
68.77581922743054
 30
0.0
 10
166.3746853298611
 20
66.34185926649305
 30
0.0
 10
166.3746853298611
 20
66.34185926649305
 30
0.0
  0
SPLINE
  5
69
330
A
100
AcDbEntity
  8
0
 62
     7
100
AcDbSpline
210
0.0
220
0.0
230
1.0
 70
     9
 71
     3
 72
    29
 73
    25
 74
     0
 42
0.0000000001
 43
0.0000000001
 40
0.0
 40
0.0
 40
0.0
 40
0.0
 40
1.0
 40
1.0
 40
1.0
 40
2.0
 40
2.0
 40
2.0
 40
3.0
 40
3.0
 40
3.0
 40
4.0
 40
4.0
 40
4.0
 40
5.0
 40
5.0
 40
5.0
 40
6.0
 40
6.0
 40
6.0
 40
7.0
 40
7.0
 40
7.0
 40
8.0
 40
8.0
 40
8.0
 40
8.0
 10
166.2441162109374
 20
68.79028862847221
 30
0.0
 10
166.2441162109374
 20
68.79028862847221
 30
0.0
 10
167.879847547743
 20
68.82887369791666
 30
0.0
 10
167.879847547743
 20
68.82887369791666
 30
0.0
 10
167.879847547743
 20
68.82887369791666
 30
0.0
 10
168.8041666666666
 20
68.82887369791666
 30
0.0
 10
168.8041666666666
 20
68.82887369791666
 30
0.0
 10
168.8393066406249
 20
68.82887369791666
 30
0.0
 10
168.8747911241319
 20
68.83059624565972
 30
0.0
 10
168.9099310980902
 20
68.83404134114582
 30
0.0
 10
168.9781439887152
 20
68.84058702256943
 30
0.0
 10
169.0515245225694
 20
68.85126681857638
 30
0.0
 10
169.1273166232638
 20
68.86435818142361
 30
0.0
 10
169.5486518012152
 20
68.90087619357638
 30
0.0
 10
169.9420817057291
 20
69.03626844618054
 30
0.0
 10
170.2910698784721
 20
69.24400770399305
 30
0.0
 10
170.2910698784721
 20
69.24400770399305
 30
0.0
 10
171.4241617838541
 20
67.9307373046875
 30
0.0
 10
171.4241617838541
 20
67.9307373046875
 30
0.0
 10
169.9348470052083
 20
67.18763020833333
 30
0.0
 10
168.4327853732638
 20
66.71530761718749
 30
0.0
 10
166.9710313585069
 20
66.44452311197916
 30
0.0
 10
166.9710313585069
 20
66.44452311197916
 30
0.0
 10
166.2441162109374
 20
68.79028862847221
 30
0.0
 10
166.2441162109374
 20
68.79028862847221
 30
0.0
  0
SPLINE
  5
68
330
A
100
AcDbEntity
  8
0
 62
     7
100
AcDbSpline
210
0.0
220
0.0
230
1.0
 70
     9
 71
     3
 72
    17
 73
    13
 74
     0
 42
0.0000000001
 43
0.0000000001
 40
0.0
 40
0.0
 40
0.0
 40
0.0
 40
1.0
 40
1.0
 40
1.0
 40
2.0
 40
2.0
 40
2.0
 40
3.0
 40
3.0
 40
3.0
 40
4.0
 40
4.0
 40
4.0
 40
4.0
 10
166.5531412760416
 20
65.76446126302084
 30
0.0
 10
166.5531412760416
 20
65.76446126302084
 30
0.0
 10
167.5670328776041
 20
62.49196506076388
 30
0.0
 10
167.5670328776041
 20
62.49196506076388
 30
0.0
 10
166.1528211805555
 20
62.05340440538194
 30
0.0
 10
164.8471299913194
 20
61.87012532552082
 30
0.0
 10
163.6950900607638
 20
61.82981770833333
 30
0.0
 10
163.6950900607638
 20
61.82981770833333
 30
0.0
 10
163.6950900607638
 20
65.54190809461805
 30
0.0
 10
163.6950900607638
 20
65.54190809461805
 30
0.0
 10
164.6163085937499
 20
65.54810926649304
 30
0.0
 10
165.5726671006944
 20
65.61253255208332
 30
0.0
 10
166.5531412760416
 20
65.76446126302084
 30
0.0
  0
SPLINE
  5
67
330
A
100
AcDbEntity
  8
0
 62
     7
100
AcDbSpline
210
0.0
220
0.0
230
1.0
 70
     9
 71
     3
 72
    17
 73
    13
 74
     0
 42
0.0000000001
 43
0.0000000001
 40
0.0
 40
0.0
 40
0.0
 40
0.0
 40
1.0
 40
1.0
 40
1.0
 40
2.0
 40
2.0
 40
2.0
 40
3.0
 40
3.0
 40
3.0
 40
4.0
 40
4.0
 40
4.0
 40
4.0
 10
167.7444552951388
 20
61.91870117187499
 30
0.0
 10
167.7444552951388
 20
61.91870117187499
 30
0.0
 10
168.8255262586805
 20
58.42950846354166
 30
0.0
 10
168.8255262586805
 20
58.42950846354166
 30
0.0
 10
166.968275282118
 20
57.90792100694444
 30
0.0
 10
165.2316026475694
 20
57.6988037109375
 30
0.0
 10
163.6950900607638
 20
57.6588406032986
 30
0.0
 10
163.6950900607638
 20
57.6588406032986
 30
0.0
 10
163.6950900607638
 20
61.22038031684027
 30
0.0
 10
163.6950900607638
 20
61.22038031684027
 30
0.0
 10
164.8960503472222
 20
61.26378851996527
 30
0.0
 10
166.2592746310763
 20
61.45740288628472
 30
0.0
 10
167.7444552951388
 20
61.91870117187499
 30
0.0
  0
SPLINE
  5
66
330
A
100
AcDbEntity
  8
0
 62
     7
100
AcDbSpline
210
0.0
220
0.0
230
1.0
 70
     9
 71
     3
 72
    20
 73
    16
 74
     0
 42
0.0000000001
 43
0.0000000001
 40
0.0
 40
0.0
 40
0.0
 40
0.0
 40
1.0
 40
1.0
 40
1.0
 40
2.0
 40
2.0
 40
2.0
 40
3.0
 40
3.0
 40
3.0
 40
4.0
 40
4.0
 40
4.0
 40
5.0
 40
5.0
 40
5.0
 40
5.0
 10
168.2388264973958
 20
62.35278320312499
 30
0.0
 10
168.2388264973958
 20
62.35278320312499
 30
0.0
 10
167.1498318142361
 20
65.86781412760416
 30
0.0
 10
167.1498318142361
 20
65.86781412760416
 30
0.0
 10
168.6856553819444
 20
66.15823567708332
 30
0.0
 10
170.2645426432291
 20
66.66363118489583
 30
0.0
 10
171.8286159939236
 20
67.46151529947916
 30
0.0
 10
171.8286159939236
 20
67.46151529947916
 30
0.0
 10
173.4453993055555
 20
65.58772786458333
 30
0.0
 10
173.4453993055555
 20
65.58772786458333
 30
0.0
 10
172.985134548611
 20
65.79374457465277
 30
0.0
 10
172.476638454861
 20
65.91018880208332
 30
0.0
 10
171.9395480685763
 20
65.91018880208332
 30
0.0
 10
169.9396701388888
 20
65.91018880208332
 30
0.0
 10
168.313929578993
 20
64.32923448350694
 30
0.0
 10
168.2388264973958
 20
62.35278320312499
 30
0.0
  0
SPLINE
  5
65
330
A
100
AcDbEntity
  8
0
 62
     7
100
AcDbSpline
210
0.0
220
0.0
230
1.0
 70
     9
 71
     3
 72
    17
 73
    13
 74
     0
 42
0.0000000001
 43
0.0000000001
 40
0.0
 40
0.0
 40
0.0
 40
0.0
 40
1.0
 40
1.0
 40
1.0
 40
2.0
 40
2.0
 40
2.0
 40
3.0
 40
3.0
 40
3.0
 40
4.0
 40
4.0
 40
4.0
 40
4.0
 10
175.0229085286458
 20
62.57878146701388
 30
0.0
 10
175.0229085286458
 20
62.57878146701388
 30
0.0
 10
173.5012098524305
 20
62.57878146701388
 30
0.0
 10
173.5012098524305
 20
62.57878146701388
 30
0.0
 10
173.3534152560763
 20
63.19993218315971
 30
0.0
 10
172.8456081814235
 20
63.67983398437499
 30
0.0
 10
172.2089545355902
 20
63.78766547309027
 30
0.0
 10
172.2089545355902
 20
63.78766547309027
 30
0.0
 10
172.2089545355902
 20
65.29627278645833
 30
0.0
 10
172.2089545355902
 20
65.29627278645833
 30
0.0
 10
173.6738091362847
 20
65.17018229166666
 30
0.0
 10
174.849964735243
 20
64.02675509982639
 30
0.0
 10
175.0229085286458
 20
62.57878146701388
 30
0.0
  0
SPLINE
  5
64
330
A
100
AcDbEntity
  8
0
 62
     7
100
AcDbSpline
210
0.0
220
0.0
230
1.0
 70
     9
 71
     3
 72
    17
 73
    13
 74
     0
 42
0.0000000001
 43
0.0000000001
 40
0.0
 40
0.0
 40
0.0
 40
0.0
 40
1.0
 40
1.0
 40
1.0
 40
2.0
 40
2.0
 40
2.0
 40
3.0
 40
3.0
 40
3.0
 40
4.0
 40
4.0
 40
4.0
 40
4.0
 10
171.6074408637152
 20
65.29179416232638
 30
0.0
 10
171.6074408637152
 20
65.29179416232638
 30
0.0
 10
171.6074408637152
 20
63.7793972439236
 30
0.0
 10
171.6074408637152
 20
63.7793972439236
 30
0.0
 10
171.0000705295138
 20
63.65123969184027
 30
0.0
 10
170.521546766493
 20
63.17960611979167
 30
0.0
 10
170.3785753038194
 20
62.57878146701388
 30
0.0
 10
170.3785753038194
 20
62.57878146701388
 30
0.0
 10
168.8568766276041
 20
62.57878146701388
 30
0.0
 10
168.8568766276041
 20
62.57878146701388
 30
0.0
 10
169.0274088541666
 20
64.0057400173611
 30
0.0
 10
170.1718695746527
 20
65.13883192274305
 30
0.0
 10
171.6074408637152
 20
65.29179416232638
 30
0.0
  0
SPLINE
  5
63
330
A
100
AcDbEntity
  8
0
 62
     7
100
AcDbSpline
210
0.0
220
0.0
230
1.0
 70
     9
 71
     3
 72
    17
 73
    13
 74
     0
 42
0.0000000001
 43
0.0000000001
 40
0.0
 40
0.0
 40
0.0
 40
0.0
 40
1.0
 40
1.0
 40
1.0
 40
2.0
 40
2.0
 40
2.0
 40
3.0
 40
3.0
 40
3.0
 40
4.0
 40
4.0
 40
4.0
 40
4.0
 10
170.3551486545138
 20
61.97864583333332
 30
0.0
 10
170.4529893663194
 20
61.31374240451388
 30
0.0
 10
170.9545952690972
 20
60.77837456597221
 30
0.0
 10
171.6074408637152
 20
60.64091525607638
 30
0.0
 10
171.6074408637152
 20
60.64091525607638
 30
0.0
 10
171.6074408637152
 20
59.1285183376736
 30
0.0
 10
171.6074408637152
 20
59.1285183376736
 30
0.0
 10
170.1263943142361
 20
59.2866482204861
 30
0.0
 10
168.9564398871527
 20
60.48760850694444
 30
0.0
 10
168.8448187934027
 20
61.97864583333332
 30
0.0
 10
168.8448187934027
 20
61.97864583333332
 30
0.0
 10
170.3551486545138
 20
61.97864583333332
 30
0.0
 10
170.3551486545138
 20
61.97864583333332
 30
0.0
  0
CIRCLE
  5
62
330
A
100
AcDbEntity
  8
0
 62
     7
100
AcDbCircle
 10
171.9398925781249
 20
62.21015624999999
 30
0.0
 40
1.006656901041666
  0
SPLINE
  5
61
330
A
100
AcDbEntity
  8
0
 62
     7
100
AcDbSpline
210
0.0
220
0.0
230
1.0
 70
     9
 71
     3
 72
    26
 73
    22
 74
     0
 42
0.0000000001
 43
0.0000000001
 40
0.0
 40
0.0
 40
0.0
 40
0.0
 40
1.0
 40
1.0
 40
1.0
 40
2.0
 40
2.0
 40
2.0
 40
3.0
 40
3.0
 40
3.0
 40
4.0
 40
4.0
 40
4.0
 40
5.0
 40
5.0
 40
5.0
 40
6.0
 40
6.0
 40
6.0
 40
7.0
 40
7.0
 40
7.0
 40
7.0
 10
172.2089545355902
 20
60.63264702690972
 30
0.0
 10
172.8914279513888
 20
60.74840223524304
 30
0.0
 10
173.423695203993
 20
61.2923828125
 30
0.0
 10
173.5246365017361
 20
61.97864583333332
 30
0.0
 10
173.5246365017361
 20
61.97864583333332
 30
0.0
 10
175.0349663628472
 20
61.97864583333332
 30
0.0
 10
175.0349663628472
 20
61.97864583333332
 30
0.0
 10
174.9608968098958
 20
60.99128146701389
 30
0.0
 10
174.4207058376736
 20
60.13379720052082
 30
0.0
 10
173.6355685763888
 20
59.62013346354166
 30
0.0
 10
173.6355685763888
 20
59.62013346354166
 30
0.0
 10
173.6348795572916
 20
59.62082248263889
 30
0.0
 10
173.6348795572916
 20
59.62082248263889
 30
0.0
 10
173.6348795572916
 20
59.62082248263889
 30
0.0
 10
173.617654079861
 20
59.60842013888888
 30
0.0
 10
173.617654079861
 20
59.60842013888888
 30
0.0
 10
173.2042426215277
 20
59.34211425781249
 30
0.0
 10
172.7253743489583
 20
59.16848144531249
 30
0.0
 10
172.2089545355902
 20
59.12403971354166
 30
0.0
 10
172.2089545355902
 20
59.12403971354166
 30
0.0
 10
172.2089545355902
 20
60.63264702690972
 30
0.0
 10
172.2089545355902
 20
60.63264702690972
 30
0.0
  0
POLYLINE
  5
5A
330
A
100
AcDbEntity
  8
0
 62
     7
100
AcDb2dPolyline
 66
     1
 10
0.0
 20
0.0
 30
0.0
  0
VERTEX
  5
5B
330
5A
100
AcDbEntity
  8
0
 62
     7
100
AcDbVertex
100
AcDb2dVertex
 10
174.4761718749999
 20
71.53947482638888
 30
0.0
  0
VERTEX
  5
5C
330
5A
100
AcDbEntity
  8
0
 62
     7
100
AcDbVertex
100
AcDb2dVertex
 10
176.6355577256944
 20
71.53947482638888
 30
0.0
  0
VERTEX
  5
5D
330
5A
100
AcDbEntity
  8
0
 62
     7
100
AcDbVertex
100
AcDb2dVertex
 10
176.6355577256944
 20
62.80925835503471
 30
0.0
  0
VERTEX
  5
5E
330
5A
100
AcDbEntity
  8
0
 62
     7
100
AcDbVertex
100
AcDb2dVertex
 10
174.4799614800347
 20
65.30764160156249
 30
0.0
  0
VERTEX
  5
5F
330
5A
100
AcDbEntity
  8
0
 62
     7
100
AcDbVertex
100
AcDb2dVertex
 10
174.4799614800347
 20
71.47574055989583
 30
0.0
  0
SEQEND
  5
60
330
5A
100
AcDbEntity
  8
0
 62
     7
  0
SPLINE
  5
59
330
A
100
AcDbEntity
  8
0
 62
     7
100
AcDbSpline
210
0.0
220
0.0
230
1.0
 70
     8
 71
     3
 72
    29
 73
    25
 74
     0
 42
0.0000000001
 43
0.0000000001
 40
0.0
 40
0.0
 40
0.0
 40
0.0
 40
1.0
 40
1.0
 40
1.0
 40
2.0
 40
2.0
 40
2.0
 40
3.0
 40
3.0
 40
3.0
 40
4.0
 40
4.0
 40
4.0
 40
5.0
 40
5.0
 40
5.0
 40
6.0
 40
6.0
 40
6.0
 40
7.0
 40
7.0
 40
7.0
 40
8.0
 40
8.0
 40
8.0
 40
8.0
 10
173.8784478081597
 20
71.47574055989583
 30
0.0
 10
173.8784478081597
 20
71.47574055989583
 30
0.0
 10
173.8784478081597
 20
66.00492892795138
 30
0.0
 10
173.8784478081597
 20
66.00492892795138
 30
0.0
 10
173.8784478081597
 20
66.00492892795138
 30
0.0
 10
170.7733832465277
 20
69.60367567274305
 30
0.0
 10
170.7733832465277
 20
69.60367567274305
 30
0.0
 10
170.8546874999999
 20
69.67912326388888
 30
0.0
 10
170.9328911675347
 20
69.75732693142361
 30
0.0
 10
171.0055826822916
 20
69.84173177083332
 30
0.0
 10
171.3662841796874
 20
70.22620442708333
 30
0.0
 10
171.6381022135416
 20
70.73642306857639
 30
0.0
 10
171.7076931423611
 20
71.40614963107639
 30
0.0
 10
171.7111382378472
 20
71.42957628038193
 30
0.0
 10
171.7163058810763
 20
71.45231391059027
 30
0.0
 10
171.7190619574652
 20
71.47574055989583
 30
0.0
 10
171.7190619574652
 20
71.47574055989583
 30
0.0
 10
171.7118272569444
 20
71.47574055989583
 30
0.0
 10
171.7118272569444
 20
71.47574055989583
 30
0.0
 10
171.7135498046874
 20
71.4964111328125
 30
0.0
 10
171.713894314236
 20
71.5184597439236
 30
0.0
 10
171.7152723524305
 20
71.53947482638888
 30
0.0
 10
171.7152723524305
 20
71.53947482638888
 30
0.0
 10
173.8863715277777
 20
71.53947482638888
 30
0.0
 10
173.8863715277777
 20
71.53947482638888
 30
0.0
  0
POLYLINE
  5
53
330
A
100
AcDbEntity
  8
0
 62
     7
100
AcDb2dPolyline
 66
     1
 10
0.0
 20
0.0
 30
0.0
 70
     1
  0
VERTEX
  5
54
330
53
100
AcDbEntity
  8
0
 62
     7
100
AcDbVertex
100
AcDb2dVertex
 10
174.4799614800347
 20
72.13961046006943
 30
0.0
  0
VERTEX
  5
55
330
53
100
AcDbEntity
  8
0
 62
     7
100
AcDbVertex
100
AcDb2dVertex
 10
174.4799614800347
 20
81.67356770833333
 30
0.0
  0
VERTEX
  5
56
330
53
100
AcDbEntity
  8
0
 62
     7
100
AcDbVertex
100
AcDb2dVertex
 10
176.6355577256944
 20
83.74613715277778
 30
0.0
  0
VERTEX
  5
57
330
53
100
AcDbEntity
  8
0
 62
     7
100
AcDbVertex
100
AcDb2dVertex
 10
176.6355577256944
 20
72.13961046006943
 30
0.0
  0
SEQEND
  5
58
330
53
100
AcDbEntity
  8
0
 62
     7
  0
SPLINE
  5
52
330
A
100
AcDbEntity
  8
0
 62
     7
100
AcDbSpline
210
0.0
220
0.0
230
1.0
 70
     9
 71
     3
 72
    20
 73
    16
 74
     0
 42
0.0000000001
 43
0.0000000001
 40
0.0
 40
0.0
 40
0.0
 40
0.0
 40
1.0
 40
1.0
 40
1.0
 40
2.0
 40
2.0
 40
2.0
 40
3.0
 40
3.0
 40
3.0
 40
4.0
 40
4.0
 40
4.0
 40
5.0
 40
5.0
 40
5.0
 40
5.0
 10
174.5529975043402
 20
89.03263617621526
 30
0.0
 10
174.5529975043402
 20
89.03263617621526
 30
0.0
 10
173.715150282118
 20
87.86027018229166
 30
0.0
 10
173.715150282118
 20
87.86027018229166
 30
0.0
 10
173.1877061631944
 20
88.14793565538193
 30
0.0
 10
172.5827473958332
 20
88.31157769097222
 30
0.0
 10
171.9395480685763
 20
88.31157769097222
 30
0.0
 10
170.8912055121527
 20
88.31157769097222
 30
0.0
 10
169.9462158203124
 20
87.87577311197916
 30
0.0
 10
169.2716661241319
 20
87.17779676649305
 30
0.0
 10
169.2716661241319
 20
87.17779676649305
 30
0.0
 10
170.944949001736
 20
90.99875217013888
 30
0.0
 10
170.944949001736
 20
90.99875217013888
 30
0.0
 10
172.5010986328124
 20
90.34349500868055
 30
0.0
 10
173.7423665364583
 20
89.60590006510415
 30
0.0
 10
174.5529975043402
 20
89.03263617621526
 30
0.0
  0
SPLINE
  5
51
330
A
100
AcDbEntity
  8
0
 62
     7
100
AcDbSpline
210
0.0
220
0.0
230
1.0
 70
     9
 71
     3
 72
    17
 73
    13
 74
     0
 42
0.0000000001
 43
0.0000000001
 40
0.0
 40
0.0
 40
0.0
 40
0.0
 40
1.0
 40
1.0
 40
1.0
 40
2.0
 40
2.0
 40
2.0
 40
3.0
 40
3.0
 40
3.0
 40
4.0
 40
4.0
 40
4.0
 40
4.0
 10
163.6950900607638
 20
92.57006022135415
 30
0.0
 10
166.2310248480902
 20
92.53423122829861
 30
0.0
 10
168.5413058810763
 20
91.94580891927083
 30
0.0
 10
170.440931532118
 20
91.20201280381944
 30
0.0
 10
170.440931532118
 20
91.20201280381944
 30
0.0
 10
169.4893961588541
 20
89.02884657118056
 30
0.0
 10
169.4893961588541
 20
89.02884657118056
 30
0.0
 10
167.3861653645833
 20
89.76506347656249
 30
0.0
 10
165.4207383897569
 20
90.04790581597221
 30
0.0
 10
163.6950900607638
 20
90.08166775173611
 30
0.0
 10
163.6950900607638
 20
90.08166775173611
 30
0.0
 10
163.6950900607638
 20
92.57006022135415
 30
0.0
 10
163.6950900607638
 20
92.57006022135415
 30
0.0
  0
SPLINE
  5
50
330
A
100
AcDbEntity
  8
0
 62
     7
100
AcDbSpline
210
0.0
220
0.0
230
1.0
 70
     9
 71
     3
 72
    17
 73
    13
 74
     0
 42
0.0000000001
 43
0.0000000001
 40
0.0
 40
0.0
 40
0.0
 40
0.0
 40
1.0
 40
1.0
 40
1.0
 40
2.0
 40
2.0
 40
2.0
 40
3.0
 40
3.0
 40
3.0
 40
4.0
 40
4.0
 40
4.0
 40
4.0
 10
163.6950900607638
 20
89.46602918836806
 30
0.0
 10
165.3573486328124
 20
89.4367458767361
 30
0.0
 10
167.2438829210069
 20
89.17216254340276
 30
0.0
 10
169.2478949652777
 20
88.47694227430555
 30
0.0
 10
169.2478949652777
 20
88.47694227430555
 30
0.0
 10
167.8161132812499
 20
85.20720214843748
 30
0.0
 10
167.8161132812499
 20
85.20720214843748
 30
0.0
 10
166.3860541449652
 20
85.52552897135416
 30
0.0
 10
164.9742540147569
 20
85.64438476562498
 30
0.0
 10
163.6950900607638
 20
85.65885416666665
 30
0.0
 10
163.6950900607638
 20
85.65885416666665
 30
0.0
 10
163.6950900607638
 20
89.46602918836806
 30
0.0
 10
163.6950900607638
 20
89.46602918836806
 30
0.0
  0
SPLINE
  5
4F
330
A
100
AcDbEntity
  8
0
 62
     7
100
AcDbSpline
210
0.0
220
0.0
230
1.0
 70
     9
 71
     3
 72
    17
 73
    13
 74
     0
 42
0.0000000001
 43
0.0000000001
 40
0.0
 40
0.0
 40
0.0
 40
0.0
 40
1.0
 40
1.0
 40
1.0
 40
2.0
 40
2.0
 40
2.0
 40
3.0
 40
3.0
 40
3.0
 40
4.0
 40
4.0
 40
4.0
 40
4.0
 10
163.6950900607638
 20
85.05320638020831
 30
0.0
 10
164.9063856336805
 20
85.04114854600693
 30
0.0
 10
166.2358479817708
 20
84.93366156684027
 30
0.0
 10
167.5711669921874
 20
84.64737413194443
 30
0.0
 10
167.5711669921874
 20
84.64737413194443
 30
0.0
 10
165.5361490885416
 20
79.99959581163193
 30
0.0
 10
165.5361490885416
 20
79.99959581163193
 30
0.0
 10
165.0813964843749
 20
80.56665852864583
 30
0.0
 10
164.4344075520833
 20
80.95871039496527
 30
0.0
 10
163.6950900607638
 20
81.04966091579859
 30
0.0
 10
163.6950900607638
 20
81.04966091579859
 30
0.0
 10
163.6950900607638
 20
85.05320638020831
 30
0.0
 10
163.6950900607638
 20
85.05320638020831
 30
0.0
  0
SPLINE
  5
4E
330
A
100
AcDbEntity
  8
0
 62
     7
100
AcDbSpline
210
0.0
220
0.0
230
1.0
 70
     9
 71
     3
 72
    17
 73
    13
 74
     0
 42
0.0000000001
 43
0.0000000001
 40
0.0
 40
0.0
 40
0.0
 40
0.0
 40
1.0
 40
1.0
 40
1.0
 40
2.0
 40
2.0
 40
2.0
 40
3.0
 40
3.0
 40
3.0
 40
4.0
 40
4.0
 40
4.0
 40
4.0
 10
153.1530978732638
 20
61.98484700520833
 30
0.0
 10
153.2509385850694
 20
61.31994357638888
 30
0.0
 10
153.7525444878472
 20
60.78457573784722
 30
0.0
 10
154.4053900824652
 20
60.64711642795138
 30
0.0
 10
154.4053900824652
 20
60.64711642795138
 30
0.0
 10
154.4053900824652
 20
59.13471950954861
 30
0.0
 10
154.4053900824652
 20
59.13471950954861
 30
0.0
 10
152.9246880425347
 20
59.29284939236111
 30
0.0
 10
151.7547336154513
 20
60.49380967881944
 30
0.0
 10
151.6431125217013
 20
61.98484700520833
 30
0.0
 10
151.6431125217013
 20
61.98484700520833
 30
0.0
 10
153.1530978732638
 20
61.98484700520833
 30
0.0
 10
153.1530978732638
 20
61.98484700520833
 30
0.0
  0
SPLINE
  5
4D
330
A
100
AcDbEntity
  8
0
 62
     7
100
AcDbSpline
210
0.0
220
0.0
230
1.0
 70
     9
 71
     3
 72
    17
 73
    13
 74
     0
 42
0.0000000001
 43
0.0000000001
 40
0.0
 40
0.0
 40
0.0
 40
0.0
 40
1.0
 40
1.0
 40
1.0
 40
2.0
 40
2.0
 40
2.0
 40
3.0
 40
3.0
 40
3.0
 40
4.0
 40
4.0
 40
4.0
 40
4.0
 10
151.6551703559027
 20
62.58498263888888
 30
0.0
 10
151.8257025824652
 20
64.01194118923611
 30
0.0
 10
152.9698187934027
 20
65.14503309461805
 30
0.0
 10
154.4053900824652
 20
65.29799533420138
 30
0.0
 10
154.4053900824652
 20
65.29799533420138
 30
0.0
 10
154.4053900824652
 20
63.78559841579861
 30
0.0
 10
154.4053900824652
 20
63.78559841579861
 30
0.0
 10
153.7983642578125
 20
63.65744086371527
 30
0.0
 10
153.3198404947916
 20
63.18580729166666
 30
0.0
 10
153.176869032118
 20
62.58498263888888
 30
0.0
 10
153.176869032118
 20
62.58498263888888
 30
0.0
 10
151.6551703559027
 20
62.58498263888888
 30
0.0
 10
151.6551703559027
 20
62.58498263888888
 30
0.0
  0
CIRCLE
  5
4C
330
A
100
AcDbEntity
  8
0
 62
     7
100
AcDbCircle
 10
154.7380140516492
 20
62.21635742187499
 30
0.0
 40
1.006829155815972
  0
SPLINE
  5
4B
330
A
100
AcDbEntity
  8
0
 62
     7
100
AcDbSpline
210
0.0
220
0.0
230
1.0
 70
     9
 71
     3
 72
    17
 73
    13
 74
     0
 42
0.0000000001
 43
0.0000000001
 40
0.0
 40
0.0
 40
0.0
 40
0.0
 40
1.0
 40
1.0
 40
1.0
 40
2.0
 40
2.0
 40
2.0
 40
3.0
 40
3.0
 40
3.0
 40
4.0
 40
4.0
 40
4.0
 40
4.0
 10
155.0069037543402
 20
63.79386664496527
 30
0.0
 10
155.0069037543402
 20
63.79386664496527
 30
0.0
 10
155.0069037543402
 20
65.30247395833332
 30
0.0
 10
155.0069037543402
 20
65.30247395833332
 30
0.0
 10
156.4721028645833
 20
65.17638346354165
 30
0.0
 10
157.647913953993
 20
64.03295627170138
 30
0.0
 10
157.8208577473958
 20
62.58498263888888
 30
0.0
 10
157.8208577473958
 20
62.58498263888888
 30
0.0
 10
156.2991590711805
 20
62.58498263888888
 30
0.0
 10
156.2991590711805
 20
62.58498263888888
 30
0.0
 10
156.1517089843749
 20
63.20613335503471
 30
0.0
 10
155.6435574001735
 20
63.68603515624999
 30
0.0
 10
155.0069037543402
 20
63.79386664496527
 30
0.0
  0
SPLINE
  5
4A
330
A
100
AcDbEntity
  8
0
 62
     7
100
AcDbSpline
210
0.0
220
0.0
230
1.0
 70
     9
 71
     3
 72
    17
 73
    13
 74
     0
 42
0.0000000001
 43
0.0000000001
 40
0.0
 40
0.0
 40
0.0
 40
0.0
 40
1.0
 40
1.0
 40
1.0
 40
2.0
 40
2.0
 40
2.0
 40
3.0
 40
3.0
 40
3.0
 40
4.0
 40
4.0
 40
4.0
 40
4.0
 10
155.0069037543402
 20
60.63884819878471
 30
0.0
 10
155.6897216796874
 20
60.75460340711805
 30
0.0
 10
156.2219889322916
 20
61.29858398437499
 30
0.0
 10
156.3229302300347
 20
61.98484700520833
 30
0.0
 10
156.3229302300347
 20
61.98484700520833
 30
0.0
 10
157.8329155815971
 20
61.98484700520833
 30
0.0
 10
157.8329155815971
 20
61.98484700520833
 30
0.0
 10
157.7199164496527
 20
60.47279459635416
 30
0.0
 10
156.5175781249999
 20
59.26046549479166
 30
0.0
 10
155.0069037543402
 20
59.13024088541666
 30
0.0
 10
155.0069037543402
 20
59.13024088541666
 30
0.0
 10
155.0069037543402
 20
60.63884819878471
 30
0.0
 10
155.0069037543402
 20
60.63884819878471
 30
0.0
  0
SPLINE
  5
49
330
A
100
AcDbEntity
  8
0
 62
     7
100
AcDbSpline
210
0.0
220
0.0
230
1.0
 70
     9
 71
     3
 72
    20
 73
    16
 74
     0
 42
0.0000000001
 43
0.0000000001
 40
0.0
 40
0.0
 40
0.0
 40
0.0
 40
1.0
 40
1.0
 40
1.0
 40
2.0
 40
2.0
 40
2.0
 40
3.0
 40
3.0
 40
3.0
 40
4.0
 40
4.0
 40
4.0
 40
5.0
 40
5.0
 40
5.0
 40
5.0
 10
154.7378417968749
 20
65.91638997395833
 30
0.0
 10
154.1280598958333
 20
65.91638997395833
 30
0.0
 10
153.5544514973958
 20
65.76618381076388
 30
0.0
 10
153.0473334418402
 20
65.50539008246527
 30
0.0
 10
153.0473334418402
 20
65.50539008246527
 30
0.0
 10
154.6468912760416
 20
67.35919596354166
 30
0.0
 10
154.6468912760416
 20
67.35919596354166
 30
0.0
 10
155.1509087456597
 20
67.13492024739583
 30
0.0
 10
156.97646484375
 20
66.37562120225694
 30
0.0
 10
159.5244574652777
 20
65.91053331163194
 30
0.0
 10
159.5244574652777
 20
65.91053331163194
 30
0.0
 10
158.4296061197916
 20
62.5422634548611
 30
0.0
 10
158.4296061197916
 20
62.5422634548611
 30
0.0
 10
158.2642415364583
 20
64.43258734809027
 30
0.0
 10
156.6753634982638
 20
65.91638997395833
 30
0.0
 10
154.7378417968749
 20
65.91638997395833
 30
0.0
  0
SPLINE
  5
48
330
A
100
AcDbEntity
  8
0
 62
     7
100
AcDbSpline
210
0.0
220
0.0
230
1.0
 70
     9
 71
     3
 72
    26
 73
    22
 74
     0
 42
0.0000000001
 43
0.0000000001
 40
0.0
 40
0.0
 40
0.0
 40
0.0
 40
1.0
 40
1.0
 40
1.0
 40
2.0
 40
2.0
 40
2.0
 40
3.0
 40
3.0
 40
3.0
 40
4.0
 40
4.0
 40
4.0
 40
5.0
 40
5.0
 40
5.0
 40
6.0
 40
6.0
 40
6.0
 40
7.0
 40
7.0
 40
7.0
 40
7.0
 10
155.0572021484374
 20
67.8349636501736
 30
0.0
 10
155.0572021484374
 20
67.8349636501736
 30
0.0
 10
156.3301649305555
 20
69.31015353732639
 30
0.0
 10
156.3301649305555
 20
69.31015353732639
 30
0.0
 10
156.3487684461805
 20
69.298095703125
 30
0.0
 10
156.3656494140625
 20
69.28362630208332
 30
0.0
 10
156.3845974392361
 20
69.27191297743054
 30
0.0
 10
156.7635579427083
 20
69.00457356770832
 30
0.0
 10
157.2331244574652
 20
68.82887369791666
 30
0.0
 10
157.809144422743
 20
68.82887369791666
 30
0.0
 10
157.809144422743
 20
68.82887369791666
 30
0.0
 10
158.9119194878471
 20
68.82887369791666
 30
0.0
 10
158.9119194878471
 20
68.82887369791666
 30
0.0
 10
158.9119194878471
 20
68.82887369791666
 30
0.0
 10
160.4618679470485
 20
68.79442274305555
 30
0.0
 10
160.4618679470485
 20
68.79442274305555
 30
0.0
 10
160.4618679470485
 20
68.79442274305555
 30
0.0
 10
159.7108371310763
 20
66.48345269097221
 30
0.0
 10
159.7108371310763
 20
66.48345269097221
 30
0.0
 10
157.412269422743
 20
66.89583062065972
 30
0.0
 10
155.7079806857638
 20
67.55763346354166
 30
0.0
 10
155.0572021484374
 20
67.8349636501736
 30
0.0
  0
SPLINE
  5
47
330
A
100
AcDbEntity
  8
0
 62
     7
100
AcDbSpline
210
0.0
220
0.0
230
1.0
 70
     9
 71
     3
 72
    26
 73
    22
 74
     0
 42
0.0000000001
 43
0.0000000001
 40
0.0
 40
0.0
 40
0.0
 40
0.0
 40
1.0
 40
1.0
 40
1.0
 40
2.0
 40
2.0
 40
2.0
 40
3.0
 40
3.0
 40
3.0
 40
4.0
 40
4.0
 40
4.0
 40
5.0
 40
5.0
 40
5.0
 40
6.0
 40
6.0
 40
6.0
 40
7.0
 40
7.0
 40
7.0
 40
7.0
 10
155.0048366970486
 20
72.13961046006943
 30
0.0
 10
155.0048366970486
 20
72.13961046006943
 30
0.0
 10
152.717982313368
 20
72.13961046006943
 30
0.0
 10
152.717982313368
 20
72.13961046006943
 30
0.0
 10
152.717982313368
 20
72.13961046006943
 30
0.0
 10
152.717982313368
 20
74.86261393229167
 30
0.0
 10
152.717982313368
 20
74.86261393229167
 30
0.0
 10
152.717982313368
 20
74.86261393229167
 30
0.0
 10
156.2071750217013
 20
77.669677734375
 30
0.0
 10
156.2071750217013
 20
77.669677734375
 30
0.0
 10
156.2071750217013
 20
77.669677734375
 30
0.0
 10
158.8960720486111
 20
75.0841335720486
 30
0.0
 10
158.8960720486111
 20
75.0841335720486
 30
0.0
 10
158.6104736328124
 20
74.96217719184027
 30
0.0
 10
158.2759548611111
 20
74.87467176649305
 30
0.0
 10
157.8814914279513
 20
74.83746473524305
 30
0.0
 10
157.8053548177083
 20
74.83057454427083
 30
0.0
 10
157.7199164496527
 20
74.81955023871527
 30
0.0
 10
157.6289659288194
 20
74.80473632812499
 30
0.0
 10
156.2512722439236
 20
74.60147569444443
 30
0.0
 10
155.142640516493
 20
73.56381293402776
 30
0.0
 10
155.0048366970486
 20
72.13961046006943
 30
0.0
  0
SPLINE
  5
46
330
A
100
AcDbEntity
  8
0
 62
     7
100
AcDbSpline
210
0.0
220
0.0
230
1.0
 70
     9
 71
     3
 72
    17
 73
    13
 74
     0
 42
0.0000000001
 43
0.0000000001
 40
0.0
 40
0.0
 40
0.0
 40
0.0
 40
1.0
 40
1.0
 40
1.0
 40
2.0
 40
2.0
 40
2.0
 40
3.0
 40
3.0
 40
3.0
 40
4.0
 40
4.0
 40
4.0
 40
4.0
 10
163.0422444661458
 20
85.65713161892359
 30
0.0
 10
160.977943250868
 20
85.62302517361109
 30
0.0
 10
159.3528917100694
 20
85.33329264322915
 30
0.0
 10
158.7520670572916
 20
85.20892469618054
 30
0.0
 10
158.7520670572916
 20
85.20892469618054
 30
0.0
 10
157.3605929904513
 20
88.39977213541665
 30
0.0
 10
157.3605929904513
 20
88.39977213541665
 30
0.0
 10
158.0516791449652
 20
88.67572428385415
 30
0.0
 10
160.1586995442708
 20
89.40952962239583
 30
0.0
 10
163.0422444661458
 20
89.464306640625
 30
0.0
 10
163.0422444661458
 20
89.464306640625
 30
0.0
 10
163.0422444661458
 20
85.65713161892359
 30
0.0
 10
163.0422444661458
 20
85.65713161892359
 30
0.0
  0
SPLINE
  5
45
330
A
100
AcDbEntity
  8
0
 62
     7
100
AcDbSpline
210
0.0
220
0.0
230
1.0
 70
     9
 71
     3
 72
    20
 73
    16
 74
     0
 42
0.0000000001
 43
0.0000000001
 40
0.0
 40
0.0
 40
0.0
 40
0.0
 40
1.0
 40
1.0
 40
1.0
 40
2.0
 40
2.0
 40
2.0
 40
3.0
 40
3.0
 40
3.0
 40
4.0
 40
4.0
 40
4.0
 40
5.0
 40
5.0
 40
5.0
 40
5.0
 10
153.4321506076388
 20
81.10168185763887
 30
0.0
 10
153.8300591362847
 20
80.95492078993055
 30
0.0
 10
154.2596625434027
 20
80.87327202690971
 30
0.0
 10
154.7089029947916
 20
80.87327202690971
 30
0.0
 10
156.7266954210069
 20
80.87327202690971
 30
0.0
 10
158.3651828342013
 20
82.48282063802083
 30
0.0
 10
158.4130696614583
 20
84.4851101345486
 30
0.0
 10
158.4130696614583
 20
84.4851101345486
 30
0.0
 10
159.791796875
 20
81.32354600694444
 30
0.0
 10
159.791796875
 20
81.32354600694444
 30
0.0
 10
159.791796875
 20
81.32354600694444
 30
0.0
 10
156.2037299262152
 20
78.43690049913194
 30
0.0
 10
156.2037299262152
 20
78.43690049913194
 30
0.0
 10
156.2037299262152
 20
78.43690049913194
 30
0.0
 10
153.4321506076388
 20
81.10168185763887
 30
0.0
 10
153.4321506076388
 20
81.10168185763887
 30
0.0
  0
POLYLINE
  5
40
330
A
100
AcDbEntity
  8
0
 62
     7
100
AcDb2dPolyline
 66
     1
 10
0.0
 20
0.0
 30
0.0
 70
     1
  0
VERTEX
  5
41
330
40
100
AcDbEntity
  8
0
 62
     7
100
AcDbVertex
100
AcDb2dVertex
 10
155.7713704427083
 20
78.08894585503471
 30
0.0
  0
VERTEX
  5
42
330
40
100
AcDbEntity
  8
0
 62
     7
100
AcDbVertex
100
AcDb2dVertex
 10
152.717982313368
 20
75.63224826388888
 30
0.0
  0
VERTEX
  5
43
330
40
100
AcDbEntity
  8
0
 62
     7
100
AcDbVertex
100
AcDb2dVertex
 10
152.717982313368
 20
81.0248562282986
 30
0.0
  0
SEQEND
  5
44
330
40
100
AcDbEntity
  8
0
 62
     7
  0
SPLINE
  5
3F
330
A
100
AcDbEntity
  8
0
 62
     7
100
AcDbSpline
210
0.0
220
0.0
230
1.0
 70
     9
 71
     3
 72
    17
 73
    13
 74
     0
 42
0.0000000001
 43
0.0000000001
 40
0.0
 40
0.0
 40
0.0
 40
0.0
 40
1.0
 40
1.0
 40
1.0
 40
2.0
 40
2.0
 40
2.0
 40
3.0
 40
3.0
 40
3.0
 40
4.0
 40
4.0
 40
4.0
 40
4.0
 10
154.9783094618055
 20
81.48718804253471
 30
0.0
 10
154.9783094618055
 20
81.48718804253471
 30
0.0
 10
154.9783094618055
 20
82.99579535590277
 30
0.0
 10
154.9783094618055
 20
82.99579535590277
 30
0.0
 10
155.6607828776041
 20
83.1115505642361
 30
0.0
 10
156.1933946397569
 20
83.65553114149305
 30
0.0
 10
156.2939914279513
 20
84.34179416232638
 30
0.0
 10
156.2939914279513
 20
84.34179416232638
 30
0.0
 10
157.8043212890624
 20
84.34179416232638
 30
0.0
 10
157.8043212890624
 20
84.34179416232638
 30
0.0
 10
157.6909776475694
 20
82.82974175347222
 30
0.0
 10
156.4889838324652
 20
81.61741265190972
 30
0.0
 10
154.9783094618055
 20
81.48718804253471
 30
0.0
  0
SPLINE
  5
3E
330
A
100
AcDbEntity
  8
0
 62
     7
100
AcDbSpline
210
0.0
220
0.0
230
1.0
 70
     9
 71
     3
 72
    17
 73
    13
 74
     0
 42
0.0000000001
 43
0.0000000001
 40
0.0
 40
0.0
 40
0.0
 40
0.0
 40
1.0
 40
1.0
 40
1.0
 40
2.0
 40
2.0
 40
2.0
 40
3.0
 40
3.0
 40
3.0
 40
4.0
 40
4.0
 40
4.0
 40
4.0
 10
157.792263454861
 20
84.94192979600693
 30
0.0
 10
157.792263454861
 20
84.94192979600693
 30
0.0
 10
156.2705647786458
 20
84.94192979600693
 30
0.0
 10
156.2705647786458
 20
84.94192979600693
 30
0.0
 10
156.1227701822916
 20
85.56308051215276
 30
0.0
 10
155.6149631076388
 20
86.04298231336803
 30
0.0
 10
154.9783094618055
 20
86.15081380208332
 30
0.0
 10
154.9783094618055
 20
86.15081380208332
 30
0.0
 10
154.9783094618055
 20
87.65942111545138
 30
0.0
 10
154.9783094618055
 20
87.65942111545138
 30
0.0
 10
156.4431640624999
 20
87.53333062065971
 30
0.0
 10
157.6193196614583
 20
86.38990342881944
 30
0.0
 10
157.792263454861
 20
84.94192979600693
 30
0.0
  0
CIRCLE
  5
3D
330
A
100
AcDbEntity
  8
0
 62
     7
100
AcDbCircle
 10
154.7094197591145
 20
84.57330457899304
 30
0.0
 40
1.006829155815972
  0
SPLINE
  5
3C
330
A
100
AcDbEntity
  8
0
 62
     7
100
AcDbSpline
210
0.0
220
0.0
230
1.0
 70
     9
 71
     3
 72
    17
 73
    13
 74
     0
 42
0.0000000001
 43
0.0000000001
 40
0.0
 40
0.0
 40
0.0
 40
0.0
 40
1.0
 40
1.0
 40
1.0
 40
2.0
 40
2.0
 40
2.0
 40
3.0
 40
3.0
 40
3.0
 40
4.0
 40
4.0
 40
4.0
 40
4.0
 10
154.3767957899305
 20
86.14254557291666
 30
0.0
 10
153.7694254557291
 20
86.01438802083333
 30
0.0
 10
153.2909016927083
 20
85.54275444878472
 30
0.0
 10
153.1479302300347
 20
84.94192979600693
 30
0.0
 10
153.1479302300347
 20
84.94192979600693
 30
0.0
 10
151.626576063368
 20
84.94192979600693
 30
0.0
 10
151.626576063368
 20
84.94192979600693
 30
0.0
 10
151.7971082899305
 20
86.36888834635415
 30
0.0
 10
152.941224500868
 20
87.5019802517361
 30
0.0
 10
154.3767957899305
 20
87.65494249131943
 30
0.0
 10
154.3767957899305
 20
87.65494249131943
 30
0.0
 10
154.3767957899305
 20
86.14254557291666
 30
0.0
 10
154.3767957899305
 20
86.14254557291666
 30
0.0
  0
SPLINE
  5
3B
330
A
100
AcDbEntity
  8
0
 62
     7
100
AcDbSpline
210
0.0
220
0.0
230
1.0
 70
     9
 71
     3
 72
    17
 73
    13
 74
     0
 42
0.0000000001
 43
0.0000000001
 40
0.0
 40
0.0
 40
0.0
 40
0.0
 40
1.0
 40
1.0
 40
1.0
 40
2.0
 40
2.0
 40
2.0
 40
3.0
 40
3.0
 40
3.0
 40
4.0
 40
4.0
 40
4.0
 40
4.0
 10
153.1245035807291
 20
84.34179416232638
 30
0.0
 10
153.2223442925347
 20
83.67689073350694
 30
0.0
 10
153.7239501953124
 20
83.14152289496528
 30
0.0
 10
154.3767957899305
 20
83.00406358506943
 30
0.0
 10
154.3767957899305
 20
83.00406358506943
 30
0.0
 10
154.3767957899305
 20
81.49166666666666
 30
0.0
 10
154.3767957899305
 20
81.49166666666666
 30
0.0
 10
152.8960937499999
 20
81.64979654947916
 30
0.0
 10
151.725794813368
 20
82.85075683593749
 30
0.0
 10
151.6145182291666
 20
84.34179416232638
 30
0.0
 10
151.6145182291666
 20
84.34179416232638
 30
0.0
 10
153.1245035807291
 20
84.34179416232638
 30
0.0
 10
153.1245035807291
 20
84.34179416232638
 30
0.0
  0
SPLINE
  5
3A
330
A
100
AcDbEntity
  8
0
 62
     7
100
AcDbSpline
210
0.0
220
0.0
230
1.0
 70
     9
 71
     3
 72
    26
 73
    22
 74
     0
 42
0.0000000001
 43
0.0000000001
 40
0.0
 40
0.0
 40
0.0
 40
0.0
 40
1.0
 40
1.0
 40
1.0
 40
2.0
 40
2.0
 40
2.0
 40
3.0
 40
3.0
 40
3.0
 40
4.0
 40
4.0
 40
4.0
 40
5.0
 40
5.0
 40
5.0
 40
6.0
 40
6.0
 40
6.0
 40
7.0
 40
7.0
 40
7.0
 40
7.0
 10
156.6395345052083
 20
78.01763237847222
 30
0.0
 10
156.6395345052083
 20
78.01763237847222
 30
0.0
 10
160.0405327690972
 20
80.75372721354167
 30
0.0
 10
160.0405327690972
 20
80.75372721354167
 30
0.0
 10
160.0405327690972
 20
80.75372721354167
 30
0.0
 10
160.7171495225694
 20
79.20205620659722
 30
0.0
 10
160.7171495225694
 20
79.20205620659722
 30
0.0
 10
160.6351562499999
 20
78.98949381510416
 30
0.0
 10
160.5741780598958
 20
78.76521809895833
 30
0.0
 10
160.5404161241319
 20
78.53164062499999
 30
0.0
 10
160.4618679470485
 20
78.21055772569444
 30
0.0
 10
160.4132921006944
 20
77.85605740017359
 30
0.0
 10
160.4132921006944
 20
77.45470377604165
 30
0.0
 10
160.4119140624999
 20
77.32034505208332
 30
0.0
 10
160.3981336805555
 20
77.01614312065972
 30
0.0
 10
160.3178629557291
 20
76.66095377604166
 30
0.0
 10
160.1628336588541
 20
76.20206705729166
 30
0.0
 10
159.8858479817708
 20
75.72182074652777
 30
0.0
 10
159.3969889322916
 20
75.3662868923611
 30
0.0
 10
159.3969889322916
 20
75.3662868923611
 30
0.0
 10
156.6395345052083
 20
78.01763237847222
 30
0.0
 10
156.6395345052083
 20
78.01763237847222
 30
0.0
  0
SPLINE
  5
39
330
A
100
AcDbEntity
  8
0
 62
     7
100
AcDbSpline
210
0.0
220
0.0
230
1.0
 70
     9
 71
     3
 72
    17
 73
    13
 74
     0
 42
0.0000000001
 43
0.0000000001
 40
0.0
 40
0.0
 40
0.0
 40
0.0
 40
1.0
 40
1.0
 40
1.0
 40
2.0
 40
2.0
 40
2.0
 40
3.0
 40
3.0
 40
3.0
 40
4.0
 40
4.0
 40
4.0
 40
4.0
 10
158.9983913845486
 20
84.64496256510416
 30
0.0
 10
159.6546820746527
 20
84.77139756944444
 30
0.0
 10
161.1667344835069
 20
85.01703287760417
 30
0.0
 10
163.0422444661458
 20
85.05079481336805
 30
0.0
 10
163.0422444661458
 20
85.05079481336805
 30
0.0
 10
163.0422444661458
 20
81.05034993489582
 30
0.0
 10
163.0422444661458
 20
81.05034993489582
 30
0.0
 10
162.2398817274305
 20
80.95733235677082
 30
0.0
 10
161.5384602864583
 20
80.51773817274305
 30
0.0
 10
161.0785400390625
 20
79.87488335503471
 30
0.0
 10
161.0785400390625
 20
79.87488335503471
 30
0.0
 10
158.9983913845486
 20
84.64496256510416
 30
0.0
 10
158.9983913845486
 20
84.64496256510416
 30
0.0
  0
SPLINE
  5
38
330
A
100
AcDbEntity
  8
0
 62
     7
100
AcDbSpline
210
0.0
220
0.0
230
1.0
 70
     9
 71
     3
 72
    17
 73
    13
 74
     0
 42
0.0000000001
 43
0.0000000001
 40
0.0
 40
0.0
 40
0.0
 40
0.0
 40
1.0
 40
1.0
 40
1.0
 40
2.0
 40
2.0
 40
2.0
 40
3.0
 40
3.0
 40
3.0
 40
4.0
 40
4.0
 40
4.0
 40
4.0
 10
163.0422444661458
 20
92.564892578125
 30
0.0
 10
163.0422444661458
 20
92.564892578125
 30
0.0
 10
163.0422444661458
 20
90.08201226128472
 30
0.0
 10
163.0422444661458
 20
90.08201226128472
 30
0.0
 10
160.0295084635416
 20
90.03343641493055
 30
0.0
 10
157.8494520399305
 20
89.25312228732638
 30
0.0
 10
157.1197808159721
 20
88.95236545138889
 30
0.0
 10
157.1197808159721
 20
88.95236545138889
 30
0.0
 10
156.1675564236111
 20
91.1355224609375
 30
0.0
 10
156.1675564236111
 20
91.1355224609375
 30
0.0
 10
158.0444444444444
 20
91.9051567925347
 30
0.0
 10
160.3581705729166
 20
92.50735948350692
 30
0.0
 10
163.0422444661458
 20
92.564892578125
 30
0.0
  0
SPLINE
  5
37
330
A
100
AcDbEntity
  8
0
 62
     7
100
AcDbSpline
210
0.0
220
0.0
230
1.0
 70
     9
 71
     3
 72
    20
 73
    16
 74
     0
 42
0.0000000001
 43
0.0000000001
 40
0.0
 40
0.0
 40
0.0
 40
0.0
 40
1.0
 40
1.0
 40
1.0
 40
2.0
 40
2.0
 40
2.0
 40
3.0
 40
3.0
 40
3.0
 40
4.0
 40
4.0
 40
4.0
 40
5.0
 40
5.0
 40
5.0
 40
5.0
 10
155.613929578993
 20
90.9033230251736
 30
0.0
 10
155.613929578993
 20
90.9033230251736
 30
0.0
 10
157.1697347005208
 20
87.33627115885417
 30
0.0
 10
157.1697347005208
 20
87.33627115885417
 30
0.0
 10
156.5144775390624
 20
87.9174587673611
 30
0.0
 10
155.6542371961805
 20
88.27333713107638
 30
0.0
 10
154.7089029947916
 20
88.27333713107638
 30
0.0
 10
154.0129937065971
 20
88.27333713107638
 30
0.0
 10
153.3642822265624
 20
88.07834472656249
 30
0.0
 10
152.8075547960069
 20
87.74554850260416
 30
0.0
 10
152.8075547960069
 20
87.74554850260416
 30
0.0
 10
152.0337863498263
 20
88.8286865234375
 30
0.0
 10
152.0337863498263
 20
88.8286865234375
 30
0.0
 10
152.8733561197916
 20
89.44673665364582
 30
0.0
 10
154.0801730685763
 20
90.21981608072916
 30
0.0
 10
155.613929578993
 20
90.9033230251736
 30
0.0
  0
SPLINE
  5
36
330
A
100
AcDbEntity
  8
0
 62
     7
100
AcDbSpline
210
0.0
220
0.0
230
1.0
 70
     9
 71
     3
 72
    23
 73
    19
 74
     0
 42
0.0000000001
 43
0.0000000001
 40
0.0
 40
0.0
 40
0.0
 40
0.0
 40
1.0
 40
1.0
 40
1.0
 40
2.0
 40
2.0
 40
2.0
 40
3.0
 40
3.0
 40
3.0
 40
4.0
 40
4.0
 40
4.0
 40
5.0
 40
5.0
 40
5.0
 40
6.0
 40
6.0
 40
6.0
 40
6.0
 10
151.3030815972222
 20
88.25921223958332
 30
0.0
 10
151.3792182074652
 20
88.32225748697915
 30
0.0
 10
151.4674126519097
 20
88.39253743489583
 30
0.0
 10
151.556640625
 20
88.46350640190971
 30
0.0
 10
151.556640625
 20
88.46350640190971
 30
0.0
 10
152.3180067274305
 20
87.39897189670138
 30
0.0
 10
152.3180067274305
 20
87.39897189670138
 30
0.0
 10
151.5132324218749
 20
86.72028808593749
 30
0.0
 10
151.0012912326388
 20
85.70743001302082
 30
0.0
 10
151.0012912326388
 20
84.57399359809027
 30
0.0
 10
151.0012912326388
 20
84.07652180989583
 30
0.0
 10
151.1022325303819
 20
83.60316569010416
 30
0.0
 10
151.281032986111
 20
83.1701171875
 30
0.0
 10
151.281032986111
 20
83.1701171875
 30
0.0
 10
149.8637207031249
 20
84.53265245225694
 30
0.0
 10
149.8637207031249
 20
84.53265245225694
 30
0.0
 10
149.8933485243055
 20
85.65816514756944
 30
0.0
 10
150.1527642144097
 20
87.30629882812499
 30
0.0
 10
151.3030815972222
 20
88.25921223958332
 30
0.0
  0
SPLINE
  5
35
330
A
100
AcDbEntity
  8
0
 62
     7
100
AcDbSpline
210
0.0
220
0.0
230
1.0
 70
     9
 71
     3
 72
    23
 73
    19
 74
     0
 42
0.0000000001
 43
0.0000000001
 40
0.0
 40
0.0
 40
0.0
 40
0.0
 40
1.0
 40
1.0
 40
1.0
 40
2.0
 40
2.0
 40
2.0
 40
3.0
 40
3.0
 40
3.0
 40
4.0
 40
4.0
 40
4.0
 40
5.0
 40
5.0
 40
5.0
 40
6.0
 40
6.0
 40
6.0
 40
6.0
 10
149.8768120659722
 20
83.7564724392361
 30
0.0
 10
149.8768120659722
 20
83.7564724392361
 30
0.0
 10
152.116468641493
 20
81.60294325086805
 30
0.0
 10
152.116468641493
 20
81.60294325086805
 30
0.0
 10
152.116468641493
 20
81.60294325086805
 30
0.0
 10
152.116468641493
 20
72.13961046006943
 30
0.0
 10
152.116468641493
 20
72.13961046006943
 30
0.0
 10
152.116468641493
 20
72.13961046006943
 30
0.0
 10
149.9188422309027
 20
72.13961046006943
 30
0.0
 10
149.9188422309027
 20
72.13961046006943
 30
0.0
 10
149.9188422309027
 20
72.13961046006943
 30
0.0
 10
149.9188422309027
 20
83.27553710937499
 30
0.0
 10
149.9188422309027
 20
83.27553710937499
 30
0.0
 10
149.9188422309027
 20
83.29482964409722
 30
0.0
 10
149.9174641927083
 20
83.31446668836804
 30
0.0
 10
149.9147081163194
 20
83.33341471354165
 30
0.0
 10
149.9136745876735
 20
83.3406494140625
 30
0.0
 10
149.8926595052083
 20
83.50187988281248
 30
0.0
 10
149.8768120659722
 20
83.7564724392361
 30
0.0
  0
SPLINE
  5
34
330
A
100
AcDbEntity
  8
0
 62
     7
100
AcDbSpline
210
0.0
220
0.0
230
1.0
 70
     8
 71
     3
 72
    20
 73
    16
 74
     0
 42
0.0000000001
 43
0.0000000001
 40
0.0
 40
0.0
 40
0.0
 40
0.0
 40
1.0
 40
1.0
 40
1.0
 40
2.0
 40
2.0
 40
2.0
 40
3.0
 40
3.0
 40
3.0
 40
4.0
 40
4.0
 40
4.0
 40
5.0
 40
5.0
 40
5.0
 40
5.0
 10
152.6866319444444
 20
71.53947482638888
 30
0.0
 10
152.6866319444444
 20
71.53947482638888
 30
0.0
 10
155.0709825303819
 20
71.53947482638888
 30
0.0
 10
155.0709825303819
 20
71.53947482638888
 30
0.0
 10
155.0733940972222
 20
71.51811523437499
 30
0.0
 10
155.0093153211805
 20
71.47574055989583
 30
0.0
 10
155.0093153211805
 20
71.47574055989583
 30
0.0
 10
155.0909640842013
 20
70.77638617621527
 30
0.0
 10
155.4034342447916
 20
70.15282389322916
 30
0.0
 10
155.8640435112847
 20
69.68876953124999
 30
0.0
 10
155.8640435112847
 20
69.68876953124999
 30
0.0
 10
152.717982313368
 20
66.04248046875
 30
0.0
 10
152.717982313368
 20
66.04248046875
 30
0.0
 10
152.717982313368
 20
66.04248046875
 30
0.0
 10
152.717982313368
 20
71.47574055989583
 30
0.0
 10
152.717982313368
 20
71.47574055989583
 30
0.0
  0
SPLINE
  5
33
330
A
100
AcDbEntity
  8
0
 62
     7
100
AcDbSpline
210
0.0
220
0.0
230
1.0
 70
     8
 71
     3
 72
    23
 73
    19
 74
     0
 42
0.0000000001
 43
0.0000000001
 40
0.0
 40
0.0
 40
0.0
 40
0.0
 40
1.0
 40
1.0
 40
1.0
 40
2.0
 40
2.0
 40
2.0
 40
3.0
 40
3.0
 40
3.0
 40
4.0
 40
4.0
 40
4.0
 40
5.0
 40
5.0
 40
5.0
 40
6.0
 40
6.0
 40
6.0
 40
6.0
 10
152.116468641493
 20
71.47574055989583
 30
0.0
 10
152.116468641493
 20
71.47574055989583
 30
0.0
 10
152.116468641493
 20
65.34519314236111
 30
0.0
 10
152.116468641493
 20
65.34519314236111
 30
0.0
 10
152.116468641493
 20
65.34519314236111
 30
0.0
 10
149.9191867404513
 20
62.79857855902777
 30
0.0
 10
149.9191867404513
 20
62.79857855902777
 30
0.0
 10
149.9191867404513
 20
62.80409071180555
 30
0.0
 10
149.9188422309027
 20
62.8089138454861
 30
0.0
 10
149.9188422309027
 20
62.81442599826388
 30
0.0
 10
149.9188422309027
 20
62.81442599826388
 30
0.0
 10
149.9188422309027
 20
71.53947482638888
 30
0.0
 10
149.9188422309027
 20
71.53947482638888
 30
0.0
 10
149.9188422309027
 20
71.53947482638888
 30
0.0
 10
152.0575575086805
 20
71.53947482638888
 30
0.0
 10
152.0575575086805
 20
71.53947482638888
 30
0.0
 10
152.0575575086805
 20
71.53947482638888
 30
0.0
 10
152.110267469618
 20
71.53947482638888
 30
0.0
 10
152.110267469618
 20
71.53947482638888
 30
0.0
  0
SPLINE
  5
32
330
A
100
AcDbEntity
  8
0
 62
     7
100
AcDbSpline
210
0.0
220
0.0
230
1.0
 70
     9
 71
     3
 72
    26
 73
    22
 74
     0
 42
0.0000000001
 43
0.0000000001
 40
0.0
 40
0.0
 40
0.0
 40
0.0
 40
1.0
 40
1.0
 40
1.0
 40
2.0
 40
2.0
 40
2.0
 40
3.0
 40
3.0
 40
3.0
 40
4.0
 40
4.0
 40
4.0
 40
5.0
 40
5.0
 40
5.0
 40
6.0
 40
6.0
 40
6.0
 40
7.0
 40
7.0
 40
7.0
 40
7.0
 10
151.4481201171875
 20
58.2758572048611
 30
0.0
 10
151.4188368055555
 20
58.30514051649305
 30
0.0
 10
151.3778401692708
 20
58.33339029947916
 30
0.0
 10
151.3409776475694
 20
58.35233832465277
 30
0.0
 10
151.3282307942708
 20
58.35888400607638
 30
0.0
 10
150.1582763671874
 20
59.00656195746527
 30
0.0
 10
149.9526041666666
 20
61.91870117187499
 30
0.0
 10
149.9526041666666
 20
61.91870117187499
 30
0.0
 10
151.2245334201388
 20
63.39251302083333
 30
0.0
 10
151.2245334201388
 20
63.39251302083333
 30
0.0
 10
151.1001654730902
 20
63.02285427517361
 30
0.0
 10
151.0298855251735
 20
62.62839084201388
 30
0.0
 10
151.0298855251735
 20
62.21704644097222
 30
0.0
 10
151.0298855251735
 20
61.05122612847221
 30
0.0
 10
151.5711100260416
 20
60.01287434895832
 30
0.0
 10
152.4155029296874
 20
59.33453504774305
 30
0.0
 10
152.4155029296874
 20
59.33453504774305
 30
0.0
 10
151.5904025607638
 20
58.14494357638888
 30
0.0
 10
151.5904025607638
 20
58.14494357638888
 30
0.0
 10
151.5438937717013
 20
58.18869628906249
 30
0.0
 10
151.4922173394097
 20
58.23175998263888
 30
0.0
 10
151.4481201171875
 20
58.2758572048611
 30
0.0
  0
SPLINE
  5
31
330
A
100
AcDbEntity
  8
0
 62
     7
100
AcDbSpline
210
0.0
220
0.0
230
1.0
 70
     9
 71
     3
 72
    20
 73
    16
 74
     0
 42
0.0000000001
 43
0.0000000001
 40
0.0
 40
0.0
 40
0.0
 40
0.0
 40
1.0
 40
1.0
 40
1.0
 40
2.0
 40
2.0
 40
2.0
 40
3.0
 40
3.0
 40
3.0
 40
4.0
 40
4.0
 40
4.0
 40
5.0
 40
5.0
 40
5.0
 40
5.0
 10
152.0451551649305
 20
57.74737955729166
 30
0.0
 10
152.0451551649305
 20
57.74737955729166
 30
0.0
 10
152.9126302083333
 20
58.99794921874999
 30
0.0
 10
152.9126302083333
 20
58.99794921874999
 30
0.0
 10
153.4517876519097
 20
58.69271375868055
 30
0.0
 10
154.0736273871527
 20
58.51632486979166
 30
0.0
 10
154.7378417968749
 20
58.51632486979166
 30
0.0
 10
155.8561197916666
 20
58.51632486979166
 30
0.0
 10
156.8565755208333
 20
59.01276312934027
 30
0.0
 10
157.536292860243
 20
59.79411078559027
 30
0.0
 10
157.536292860243
 20
59.79411078559027
 30
0.0
 10
156.1362060546874
 20
55.48636338975693
 30
0.0
 10
156.1362060546874
 20
55.48636338975693
 30
0.0
 10
154.533203125
 20
56.11474880642361
 30
0.0
 10
153.0934977213541
 20
56.89678548177083
 30
0.0
 10
152.0451551649305
 20
57.74737955729166
 30
0.0
  0
SPLINE
  5
30
330
A
100
AcDbEntity
  8
0
 62
     7
100
AcDbSpline
210
0.0
220
0.0
230
1.0
 70
     9
 71
     3
 72
    17
 73
    13
 74
     0
 42
0.0000000001
 43
0.0000000001
 40
0.0
 40
0.0
 40
0.0
 40
0.0
 40
1.0
 40
1.0
 40
1.0
 40
2.0
 40
2.0
 40
2.0
 40
3.0
 40
3.0
 40
3.0
 40
4.0
 40
4.0
 40
4.0
 40
4.0
 10
163.0422444661458
 20
53.99325900607639
 30
0.0
 10
161.0368543836805
 20
54.04493543836805
 30
0.0
 10
158.7648139105902
 20
54.52518174913194
 30
0.0
 10
156.6977566189236
 20
55.27242296006944
 30
0.0
 10
156.6977566189236
 20
55.27242296006944
 30
0.0
 10
157.5259575737846
 20
57.82041558159722
 30
0.0
 10
157.5259575737846
 20
57.82041558159722
 30
0.0
 10
158.3265977647569
 20
57.55445421006943
 30
0.0
 10
160.3230305989583
 20
57.02011990017361
 30
0.0
 10
163.0422444661458
 20
57.01529676649305
 30
0.0
 10
163.0422444661458
 20
57.01529676649305
 30
0.0
 10
163.0422444661458
 20
53.99325900607639
 30
0.0
 10
163.0422444661458
 20
53.99325900607639
 30
0.0
  0
SPLINE
  5
2F
330
A
100
AcDbEntity
  8
0
 62
     7
100
AcDbSpline
210
0.0
220
0.0
230
1.0
 70
     9
 71
     3
 72
    17
 73
    13
 74
     0
 42
0.0000000001
 43
0.0000000001
 40
0.0
 40
0.0
 40
0.0
 40
0.0
 40
1.0
 40
1.0
 40
1.0
 40
2.0
 40
2.0
 40
2.0
 40
3.0
 40
3.0
 40
3.0
 40
4.0
 40
4.0
 40
4.0
 40
4.0
 10
163.0422444661458
 20
57.64988335503471
 30
0.0
 10
160.376429578993
 20
57.66297471788194
 30
0.0
 10
158.4209933810763
 20
58.17560492621527
 30
0.0
 10
157.7130262586805
 20
58.39574652777777
 30
0.0
 10
157.7130262586805
 20
58.39574652777777
 30
0.0
 10
158.8574869791666
 20
61.91628960503472
 30
0.0
 10
158.8574869791666
 20
61.91628960503472
 30
0.0
 10
159.4738145616319
 20
61.68615722656249
 30
0.0
 10
160.9689860026041
 20
61.22899305555555
 30
0.0
 10
163.0422444661458
 20
61.21107855902778
 30
0.0
 10
163.0422444661458
 20
61.21107855902778
 30
0.0
 10
163.0422444661458
 20
57.64988335503471
 30
0.0
 10
163.0422444661458
 20
57.64988335503471
 30
0.0
  0
SPLINE
  5
2E
330
A
100
AcDbEntity
  8
0
 62
     7
100
AcDbSpline
210
0.0
220
0.0
230
1.0
 70
     9
 71
     3
 72
    17
 73
    13
 74
     0
 42
0.0000000001
 43
0.0000000001
 40
0.0
 40
0.0
 40
0.0
 40
0.0
 40
1.0
 40
1.0
 40
1.0
 40
2.0
 40
2.0
 40
2.0
 40
3.0
 40
3.0
 40
3.0
 40
4.0
 40
4.0
 40
4.0
 40
4.0
 10
163.0422444661458
 20
61.82189398871527
 30
0.0
 10
161.0361653645833
 20
61.84428710937499
 30
0.0
 10
159.5926703559027
 20
62.28767089843749
 30
0.0
 10
159.0438666449652
 20
62.48989800347222
 30
0.0
 10
159.0438666449652
 20
62.48989800347222
 30
0.0
 10
160.1228705512152
 20
65.8099365234375
 30
0.0
 10
160.1228705512152
 20
65.8099365234375
 30
0.0
 10
161.0258300781249
 20
65.66868760850694
 30
0.0
 10
162.0076822916666
 20
65.57119140624999
 30
0.0
 10
163.0422444661458
 20
65.54604220920139
 30
0.0
 10
163.0422444661458
 20
65.54604220920139
 30
0.0
 10
163.0422444661458
 20
61.82189398871527
 30
0.0
 10
163.0422444661458
 20
61.82189398871527
 30
0.0
  0
SPLINE
  5
2D
330
A
100
AcDbEntity
  8
0
 62
     7
100
AcDbSpline
210
0.0
220
0.0
230
1.0
 70
     9
 71
     3
 72
    17
 73
    13
 74
     0
 42
0.0000000001
 43
0.0000000001
 40
0.0
 40
0.0
 40
0.0
 40
0.0
 40
1.0
 40
1.0
 40
1.0
 40
2.0
 40
2.0
 40
2.0
 40
3.0
 40
3.0
 40
3.0
 40
4.0
 40
4.0
 40
4.0
 40
4.0
 10
163.0422444661458
 20
66.14273274739582
 30
0.0
 10
162.0765842013888
 20
66.16650390625
 30
0.0
 10
161.1581217447916
 20
66.25538736979166
 30
0.0
 10
160.3095947265624
 20
66.38423394097222
 30
0.0
 10
160.3095947265624
 20
66.38423394097222
 30
0.0
 10
161.0885308159722
 20
68.78064236111111
 30
0.0
 10
161.0885308159722
 20
68.78064236111111
 30
0.0
 10
161.0885308159722
 20
68.78064236111111
 30
0.0
 10
163.0422444661458
 20
68.73723415798611
 30
0.0
 10
163.0422444661458
 20
68.73723415798611
 30
0.0
 10
163.0422444661458
 20
68.73723415798611
 30
0.0
 10
163.0422444661458
 20
66.14273274739582
 30
0.0
 10
163.0422444661458
 20
66.14273274739582
 30
0.0
  0
SPLINE
  5
2C
330
A
100
AcDbEntity
  8
0
 62
     7
100
AcDbSpline
210
0.0
220
0.0
230
1.0
 70
     9
 71
     3
 72
    23
 73
    19
 74
     0
 42
0.0000000001
 43
0.0000000001
 40
0.0
 40
0.0
 40
0.0
 40
0.0
 40
1.0
 40
1.0
 40
1.0
 40
2.0
 40
2.0
 40
2.0
 40
3.0
 40
3.0
 40
3.0
 40
4.0
 40
4.0
 40
4.0
 40
5.0
 40
5.0
 40
5.0
 40
6.0
 40
6.0
 40
6.0
 40
6.0
 10
163.6423800998263
 20
53.98981391059027
 30
0.0
 10
163.6423800998263
 20
53.98981391059027
 30
0.0
 10
163.6423800998263
 20
54.0435574001736
 30
0.0
 10
163.6423800998263
 20
54.0435574001736
 30
0.0
 10
163.6423800998263
 20
54.0435574001736
 30
0.0
 10
163.6950900607638
 20
54.04321289062499
 30
0.0
 10
163.6950900607638
 20
54.04321289062499
 30
0.0
 10
163.6950900607638
 20
54.04321289062499
 30
0.0
 10
163.6950900607638
 20
57.02597656249999
 30
0.0
 10
163.6950900607638
 20
57.02597656249999
 30
0.0
 10
165.2774224175346
 20
57.07248535156249
 30
0.0
 10
167.0702501085069
 20
57.29986165364582
 30
0.0
 10
169.0026041666666
 20
57.85796712239583
 30
0.0
 10
169.0026041666666
 20
57.85796712239583
 30
0.0
 10
169.8387288411458
 20
55.15976833767361
 30
0.0
 10
169.8387288411458
 20
55.15976833767361
 30
0.0
 10
167.8312717013888
 20
54.46730414496528
 30
0.0
 10
165.6129747178819
 20
54.02460937499999
 30
0.0
 10
163.6423800998263
 20
53.98981391059027
 30
0.0
  0
SPLINE
  5
2B
330
A
100
AcDbEntity
  8
0
 62
     7
100
AcDbSpline
210
0.0
220
0.0
230
1.0
 70
     9
 71
     3
 72
    20
 73
    16
 74
     0
 42
0.0000000001
 43
0.0000000001
 40
0.0
 40
0.0
 40
0.0
 40
0.0
 40
1.0
 40
1.0
 40
1.0
 40
2.0
 40
2.0
 40
2.0
 40
3.0
 40
3.0
 40
3.0
 40
4.0
 40
4.0
 40
4.0
 40
5.0
 40
5.0
 40
5.0
 40
5.0
 10
170.4040690104166
 20
55.36302897135416
 30
0.0
 10
170.4040690104166
 20
55.36302897135416
 30
0.0
 10
168.965052625868
 20
60.00805121527777
 30
0.0
 10
168.965052625868
 20
60.00805121527777
 30
0.0
 10
169.640980360243
 20
59.1006130642361
 30
0.0
 10
170.7196397569444
 20
58.51012369791666
 30
0.0
 10
171.9395480685763
 20
58.51012369791666
 30
0.0
 10
172.4807725694444
 20
58.51012369791666
 30
0.0
 10
172.9934027777777
 20
58.62863498263888
 30
0.0
 10
173.4571126302083
 20
58.83671875
 30
0.0
 10
173.4571126302083
 20
58.83671875
 30
0.0
 10
174.4031358506944
 20
57.51414659288194
 30
0.0
 10
174.4031358506944
 20
57.51414659288194
 30
0.0
 10
173.4030246310763
 20
56.70213758680555
 30
0.0
 10
171.986745876736
 20
55.95834147135416
 30
0.0
 10
170.4040690104166
 20
55.36302897135416
 30
0.0
  0
SPLINE
  5
2A
330
A
100
AcDbEntity
  8
0
 62
     7
100
AcDbSpline
210
0.0
220
0.0
230
1.0
 70
     9
 71
     3
 72
    23
 73
    19
 74
     0
 42
0.0000000001
 43
0.0000000001
 40
0.0
 40
0.0
 40
0.0
 40
0.0
 40
1.0
 40
1.0
 40
1.0
 40
2.0
 40
2.0
 40
2.0
 40
3.0
 40
3.0
 40
3.0
 40
4.0
 40
4.0
 40
4.0
 40
5.0
 40
5.0
 40
5.0
 40
6.0
 40
6.0
 40
6.0
 40
6.0
 10
174.9302354600694
 20
57.98199055989583
 30
0.0
 10
174.9071533203125
 20
57.95890842013888
 30
0.0
 10
174.8789035373263
 20
57.93651529947916
 30
0.0
 10
174.8551323784722
 20
57.91377766927083
 30
0.0
 10
174.8551323784722
 20
57.91377766927083
 30
0.0
 10
173.988001844618
 20
59.12714029947916
 30
0.0
 10
173.988001844618
 20
59.12714029947916
 30
0.0
 10
174.9881130642361
 20
59.78997667100694
 30
0.0
 10
175.6481933593749
 20
60.92306857638888
 30
0.0
 10
175.6481933593749
 20
62.21084526909722
 30
0.0
 10
175.6481933593749
 20
62.55259874131944
 30
0.0
 10
175.5968614366319
 20
62.88160536024305
 30
0.0
 10
175.5097005208333
 20
63.19545355902777
 30
0.0
 10
175.5097005208333
 20
63.19545355902777
 30
0.0
 10
176.6872341579861
 20
61.83050672743055
 30
0.0
 10
176.6872341579861
 20
61.83050672743055
 30
0.0
 10
176.6644965277777
 20
60.95820855034721
 30
0.0
 10
176.3837212456597
 20
59.43547634548611
 30
0.0
 10
174.9302354600694
 20
57.98199055989583
 30
0.0
  0
SPLINE
  5
29
330
A
100
AcDbEntity
  8
0
 62
     7
100
AcDbSpline
210
0.0
220
0.0
230
1.0
 70
     9
 71
     3
 72
    41
 73
    37
 74
     0
 42
0.0000000001
 43
0.0000000001
 40
0.0
 40
0.0
 40
0.0
 40
0.0
 40
1.0
 40
1.0
 40
1.0
 40
2.0
 40
2.0
 40
2.0
 40
3.0
 40
3.0
 40
3.0
 40
4.0
 40
4.0
 40
4.0
 40
5.0
 40
5.0
 40
5.0
 40
6.0
 40
6.0
 40
6.0
 40
7.0
 40
7.0
 40
7.0
 40
8.0
 40
8.0
 40
8.0
 40
9.0
 40
9.0
 40
9.0
 40
10.0
 40
10.0
 40
10.0
 40
11.0
 40
11.0
 40
11.0
 40
12.0
 40
12.0
 40
12.0
 40
12.0
 10
177.4355088975694
 20
62.6724880642361
 30
0.0
 10
177.4355088975694
 20
62.74104546440971
 30
0.0
 10
177.4355088975694
 20
84.92194824218749
 30
0.0
 10
177.4355088975694
 20
84.92194824218749
 30
0.0
 10
177.4355088975694
 20
86.61555718315971
 30
0.0
 10
177.156800672743
 20
87.90643446180554
 30
0.0
 10
175.7684271918402
 20
89.10532769097221
 30
0.0
 10
174.392800564236
 20
90.29354112413193
 30
0.0
 10
169.498353407118
 20
93.37690158420137
 30
0.0
 10
163.4535888671874
 20
93.37690158420137
 30
0.0
 10
156.9299560546874
 20
93.37690158420137
 30
0.0
 10
152.4261827256944
 20
90.22877332899303
 30
0.0
 10
150.7925184461805
 20
88.87519531249999
 30
0.0
 10
149.3090603298611
 20
87.64598524305554
 30
0.0
 10
149.0555013020833
 20
85.58133951822915
 30
0.0
 10
149.0555013020833
 20
84.31354437934027
 30
0.0
 10
149.0555013020833
 20
83.74441460503472
 30
0.0
 10
149.1051106770833
 20
83.3502956814236
 30
0.0
 10
149.1188910590277
 20
83.25004340277777
 30
0.0
 10
149.1188910590277
 20
83.19974500868054
 30
0.0
 10
149.1188910590277
 20
62.81442599826388
 30
0.0
 10
149.1188910590277
 20
62.81442599826388
 30
0.0
 10
149.1188910590277
 20
58.90045301649305
 30
0.0
 10
150.6333550347221
 20
57.83626302083333
 30
0.0
 10
150.9416910807291
 20
57.66021864149305
 30
0.0
 10
153.4235378689236
 20
55.22867024739582
 30
0.0
 10
159.0965766059027
 20
53.18331705729166
 30
0.0
 10
163.3950222439235
 20
53.18331705729166
 30
0.0
 10
167.7334309895833
 20
53.18331705729166
 30
0.0
 10
173.1618679470486
 20
55.08225368923611
 30
0.0
 10
175.4959201388888
 20
57.41630588107638
 30
0.0
 10
177.212611219618
 20
59.13299696180555
 30
0.0
 10
177.4885633680555
 20
60.96337619357638
 30
0.0
 10
177.4885633680555
 20
61.96245388454861
 30
0.0
 10
177.4885633680555
 20
62.33280164930555
 30
0.0
 10
177.4520453559027
 20
62.57878146701388
 30
0.0
 10
177.4355088975694
 20
62.6724880642361
 30
0.0
  0
ENDSEC
  0
SECTION
  2
OBJECTS
  0
DICTIONARY
  5
19
330
0
100
AcDbDictionary
281
     1
  3
ACAD_GROUP
350
1A
  3
ACAD_MLINESTYLE
350
1B
  3
ACAD_LAYOUT
350
1E
  3
ACAD_PLOTSETTINGS
350
22
  3
ACAD_PLOTSTYLENAME
350
1F
  3
ACAD_WIPEOUT_VARS
350
23
  0
DICTIONARY
  5
1A
102
{ACAD_REACTORS
330
19
102
}
330
19
100
AcDbDictionary
281
     1
  0
DICTIONARY
  5
1B
102
{ACAD_REACTORS
330
19
102
}
330
19
100
AcDbDictionary
281
     1
  3
Standard
350
1C
  0
DICTIONARY
  5
1E
102
{ACAD_REACTORS
330
19
102
}
330
19
100
AcDbDictionary
281
     1
  3
Layout1
350
21
  3
Model
350
20
  0
DICTIONARY
  5
22
102
{ACAD_REACTORS
330
19
102
}
330
19
100
AcDbDictionary
281
     1
  0
ACDBDICTIONARYWDFLT
  5
1F
102
{ACAD_REACTORS
330
19
102
}
330
19
100
AcDbDictionary
281
     1
  3
Normal
350
1D
100
AcDbDictionaryWithDefault
340
1D
  0
ACAD_PROXY_OBJECT
  5
23
330
19
100
AcDbProxyObject
 90
      499
 91
      521
 95
   393239
 70
     0
 93
       10
310
4044
 94
        0
  0
MLINESTYLE
  5
1C
102
{ACAD_REACTORS
330
1B
102
}
330
1B
100
AcDbMlineStyle
  2
STANDARD
 70
     0
  3

 62
     0
 51
90.00000000000019
 52
90.00000000000019
 71
     2
 49
0.5
 62
   256
  6
BYLAYER
 49
-0.5
 62
   256
  6
BYLAYER
  0
LAYOUT
  5
21
102
{ACAD_REACTORS
330
1E
102
}
330
1E
100
AcDbPlotSettings
  1

  2

  4

  6

 40
0.0
 41
0.0
 42
0.0
 43
0.0
 44
0.0
 45
0.0
 46
0.0
 47
0.0
 48
0.0
 49
0.0
140
0.0
141
0.0
142
1.0
143
1.0
 70
     0
 72
     0
 73
     0
 74
     0
  7

 75
     0
147
1.0
148
0.0
149
0.0
100
AcDbLayout
  1
Layout1
 70
     0
 71
     1
 10
0.0
 20
0.0
 11
12.0
 21
9.0
 12
0.0
 22
0.0
 32
0.0
 14
1.000000000000000E+20
 24
1.000000000000000E+20
 34
1.000000000000000E+20
 15
-1.000000000000000E+20
 25
-1.000000000000000E+20
 35
-1.000000000000000E+20
146
0.0
 13
0.0
 23
0.0
 33
0.0
 16
1.0
 26
0.0
 36
0.0
 17
0.0
 27
1.0
 37
0.0
 76
     0
330
B
  0
LAYOUT
  5
20
102
{ACAD_REACTORS
330
1E
102
}
330
1E
100
AcDbPlotSettings
  1

  2

  4

  6

 40
0.0
 41
0.0
 42
0.0
 43
0.0
 44
0.0
 45
0.0
 46
0.0
 47
0.0
 48
0.0
 49
0.0
140
0.0
141
0.0
142
1.0
143
1.0
 70
  1024
 72
     0
 73
     0
 74
     0
  7

 75
     0
147
1.0
148
0.0
149
0.0
100
AcDbLayout
  1
Model
 70
     0
 71
     0
 10
0.0
 20
0.0
 11
0.0
 21
0.0
 12
0.0
 22
0.0
 32
0.0
 14
0.0
 24
0.0
 34
0.0
 15
0.0
 25
0.0
 35
0.0
146
0.0
 13
0.0
 23
0.0
 33
0.0
 16
0.0
 26
0.0
 36
0.0
 17
0.0
 27
0.0
 37
0.0
 76
     0
330
A
  0
ACDBPLACEHOLDER
  5
1D
102
{ACAD_REACTORS
330
1F
102
}
330
1F
  0
ENDSEC
  0
EOF
