  0
SECTION
  2
HEADER
  9
$ACADVER
  1
AC1009
  9
$INSBASE
 10
0
 20
0
 30
0
  9
$EXTMIN
 10
0
 20
0
  9
$EXTMAX
 10
1782
 20
1260
  9
$LIMMIN
 10
0
 20
0
  9
$LIMMAX
 10
1782
 20
1260
  9
$LTSCALE
 40
6
  0
ENDSEC
  0
SECTION
  2
TABLES
  0
TABLE
  2
LTYPE
 70
     9
  0
LTYPE
  2
CONTINUOUS
 70
    64
  3
実線
 72
    65
 73
     0
 40
0.0
  0
LTYPE
  2
DASHED1
 70
    64
  3
--  --  --  --  --  --  --  --  
 72
    65
 73
     2
 40
2.5
 49
1.25
 49
-1.25
  0
LTYPE
  2
DASHED2
 70
    64
  3
----    ----    ----    ----    
 72
    65
 73
     2
 40
5.0
 49
2.5
 49
-2.5
  0
LTYPE
  2
DASHED3
 70
    64
  3
------  ------  ------  ------  
 72
    65
 73
     2
 40
5.0
 49
3.75
 49
-1.25
  0
LTYPE
  2
CENTER1
 70
    64
  3
----- - ----- - ----- - ----- - 
 72
    65
 73
     4
 40
10.0
 49
6.25
 49
-1.25
 49
1.25
 49
-1.25
  0
LTYPE
  2
CENTER2
 70
    64
  3
----------  --  ----------  --  
 72
    65
 73
     4
 40
20.0
 49
12.5
 49
-2.5
 49
2.5
 49
-2.5
  0
LTYPE
  2
PHANTOM1
 70
    64
  3
--- - - --- - - --- - - --- - - 
 72
    65
 73
     6
 40
10.0
 49
3.25
 49
-1.25
 49
1.25
 49
-1.25
 49
1.25
 49
-1.25
  0
LTYPE
  2
PHANTOM2
 70
    64
  3
--------  -  -  --------  -  -  
 72
    65
 73
     6
 40
20.0
 49
10.0
 49
-2.5
 49
1.25
 49
-2.5
 49
1.25
 49
-2.5
  0
LTYPE
  2
DOT
 70
    64
  3
-   -   -   -   -   -   -   -   
 72
    65
 73
     2
 40
2.5
 49
0.625
 49
-1.875
  0
LTYPE
  2
DUMMY
 70
    64
  3
ダミー
 72
    65
 73
     0
 40
0.0
  0
LTYPE
  2
RAND1
 70
    64
  3
ランダム線1
 72
    65
 73
     4
 40
10.0
 49
1.0
 49
-2.0
 49
3.0
 49
-4.0
  0
LTYPE
  2
RAND2
 70
    64
  3
ランダム線2
 72
    65
 73
     4
 40
14.0
 49
2.0
 49
-3.0
 49
4.0
 49
-5.0
  0
LTYPE
  2
RAND3
 70
    64
  3
ランダム線3
 72
    65
 73
     4
 40
18.0
 49
3.0
 49
-4.0
 49
5.0
 49
-6.0
  0
LTYPE
  2
RAND4
 70
    64
  3
ランダム線4
 72
    65
 73
     4
 40
22.0
 49
4.0
 49
-5.0
 49
6.0
 49
-7.0
  0
LTYPE
  2
RAND5
 70
    64
  3
ランダム線5
 72
    65
 73
     4
 40
26.0
 49
5.0
 49
-6.0
 49
7.0
 49
-8.0
  0
LTYPE
  2
LONG1
 70
    64
  3
----------  --  ----------  --  
 72
    65
 73
     4
 40
40.0
 49
32.5
 49
-2.5
 49
2.5
 49
-2.5
  0
LTYPE
  2
LONG2
 70
    64
  3
--------  -  -  --------  -  -  
 72
    65
 73
     6
 40
40.0
 49
30.0
 49
-2.5
 49
1.25
 49
-2.5
 49
1.25
 49
-2.5
  0
LTYPE
  2
LONG3
 70
    64
  3
+++++++++++++++..+++++++++++++++
 72
    65
 73
     2
 40
40.0
 49
37.5
 49
-2.5
  0
LTYPE
  2
LONG4
 70
    64
  3
+++++++++++++++..+++++++++++++++
 72
    65
 73
     2
 40
80.0
 49
75.0
 49
-5.0
  0
LTYPE
  2
LONG5
 70
    64
  3
----------  --  ----------  --  
 72
    65
 73
     4
 40
60.0
 49
37.5
 49
-7.5
 49
7.5
 49
-7.5
  0
LTYPE
  2
dashed
 70
   64
  3
-------   -------------   ------
 72
   65
 73
    2
 40
7.5
 49
6
 49
-1.5
  0
LTYPE
  2
dashed_spaced
 70
   64
  3
----        --------        ----
 72
   65
 73
    2
 40
12
 49
6
 49
-6
  0
LTYPE
  2
long_dashed_dotted
 70
   64
  3
------------- --- --------------
 72
   65
 73
    4
 40
15.25
 49
12
 49
-1.5
 49
0.25
 49
-1.5
  0
LTYPE
  2
long_dashed_double-dotted
 70
   64
  3
----------- --- --- ------------
 72
   65
 73
    6
 40
17
 49
12
 49
-1.5
 49
0.25
 49
-1.5
 49
0.25
 49
-1.5
  0
LTYPE
  2
long_dashed_triplicate-dotted
 70
   64
  3
--------- --- --- --- ----------
 72
   65
 73
    8
 40
18.75
 49
12
 49
-1.5
 49
0.25
 49
-1.5
 49
0.25
 49
-1.5
 49
0.25
 49
-1.5
  0
LTYPE
  2
dotted
 70
   64
  3
   -       -       -       -    
 72
   65
 73
    2
 40
1.75
 49
0.25
 49
-1.5
  0
LTYPE
  2
chain
 70
   64
  3
-------------- -- --------------
 72
   65
 73
    4
 40
18.5
 49
12
 49
-1.5
 49
3.5
 49
-1.5
  0
LTYPE
  2
chain_double_dash
 70
   64
  3
------------ -- -- -------------
 72
   65
 73
    6
 40
23.5
 49
12
 49
-1.5
 49
3.5
 49
-1.5
 49
3.5
 49
-1.5
  0
LTYPE
  2
dashed_dotted
 70
   64
  3
-----------     -     ----------
 72
   65
 73
    4
 40
9.25
 49
6
 49
-1.5
 49
0.25
 49
-1.5
  0
LTYPE
  2
double-dashed_dotted
 70
   64
  3
------   -----------   -   -----
 72
   65
 73
    6
 40
16.75
 49
6
 49
-1.5
 49
6
 49
-1.5
 49
0.25
 49
-1.5
  0
LTYPE
  2
dashed_double-dotted
 70
   64
  3
---------    -    -    ---------
 72
   65
 73
    6
 40
11
 49
6
 49
-1.5
 49
0.25
 49
-1.5
 49
0.25
 49
-1.5
  0
LTYPE
  2
double-dashed_double-dotted
 70
   64
  3
-----   ---------   -   -   ----
 72
   65
 73
    8
 40
18.5
 49
6
 49
-1.5
 49
6
 49
-1.5
 49
0.25
 49
-1.5
 49
0.25
 49
-1.5
  0
LTYPE
  2
dashed_triplicate-dotted
 70
   64
  3
-------    -    -    -    ------
 72
   65
 73
    8
 40
12.75
 49
6
 49
-1.5
 49
0.25
 49
-1.5
 49
0.25
 49
-1.5
 49
0.25
 49
-1.5
  0
LTYPE
  2
double-dashed_triplicate-dotted
 70
   64
  3
-----  ---------  -  -  -  -----
 72
   65
 73
   10
 40
20.25
 49
6
 49
-1.5
 49
6
 49
-1.5
 49
0.25
 49
-1.5
 49
0.25
 49
-1.5
 49
0.25
 49
-1.5
  0
LTYPE
  2
undefined
 70
   64
  3
--------------------------------
 72
   65
 73
    0
 40
0
  0
LTYPE
  2
AI9-LType1
 70
   64
  3
-----------   -----   ----------
 72
   65
 73
    4
 40
1.909268638160492
 49
1.272857477929856
 49
-0.159102790057659
 49
0.318205580115318
 49
-0.159102790057659
  0
LTYPE
  2
AI9-LType3
 70
   64
  3
----        --------        ----
 72
   65
 73
    4
 40
3.9999355157216385
 49
0.9999838789304096
 49
-0.9999838789304096
 49
0.9999838789304096
 49
-0.9999838789304096
  0
LTYPE
  2
AI9-LType4
 70
   64
  3
-----------   -----   ----------
 72
   65
 73
    4
 40
9.8010483688778347
 49
6.5340441332923032
 49
-0.8167510588963825
 49
1.6335021177927651
 49
-0.8167510588963825
  0
LTYPE
  2
AI9-LType5
 70
   64
  3
-------   -------------   ------
 72
   65
 73
    2
 40
24.502673406071132
 49
19.6021317270067
 49
-4.9005416790644318
  0
LTYPE
  2
AI9-LType6
 70
   64
  3
-----------   -----   ----------
 72
   65
 73
    4
 40
5.8806294586923364
 49
3.9204197512732599
 49
-0.4900435954332351
 49
0.9801225165526068
 49
-0.4900435954332351
  0
LTYPE
  2
_
 70
   64
  3
                                
 72
   65
 73
    0
 40
0
  0
LTYPE
  2
__23
 70
   64
  3
                                
 72
   65
 73
    0
 40
0
  0
LTYPE
  2
__24
 70
   64
  3
                                
 72
   65
 73
    0
 40
0
  0
LTYPE
  2
__25
 70
   64
  3
                                
 72
   65
 73
    0
 40
0
  0
LTYPE
  2
__26
 70
   64
  3
                                
 72
   65
 73
    0
 40
0
  0
LTYPE
  2
__27
 70
   64
  3
                                
 72
   65
 73
    0
 40
0
  0
LTYPE
  2
__28
 70
   64
  3
                                
 72
   65
 73
    0
 40
0
  0
LTYPE
  2
__29
 70
   64
  3
                                
 72
   65
 73
    0
 40
0
  0
LTYPE
  2
__30
 70
   64
  3
                                
 72
   65
 73
    0
 40
0
  0
LTYPE
  2
__31
 70
   64
  3
                                
 72
   65
 73
    0
 40
0
  0
LTYPE
  2
__32
 70
   64
  3
                                
 72
   65
 73
    0
 40
0
  0
ENDTAB
  0
TABLE
  2
STYLE
  5
3
100
AcDbSymbolTable
 70
     1
  0
STYLE
  5
10
100
AcDbSymbolTableRecord
100
AcDbTextStyleTableRecord
  2
STANDARD
 70
     0
 40
0.0
 41
1.0
 50
0.0
 71
     0
 42
0.2
  3
txt
  4
bigfont.shx
  0
STYLE
  5
26
100
AcDbSymbolTableRecord
100
AcDbTextStyleTableRecord
  2
TATEGAKI
 70
    68
 40
0.0
 41
1.0
 50
0.0
 71
     0
 42
1.0
  3
txt
  4
bigfont.shx
  0
ENDTAB
  0
TABLE
  2
LAYER
 70
    5
  0
LAYER
  2
_0-0_0
 70
   64
 62
    7
  6
CONTINUOUS
  0
LAYER
  2
_0-3_D-STR-TXT
 70
   64
 62
    7
  6
CONTINUOUS
  0
LAYER
  2
_0-5_D-BYP-STR1
 70
   64
 62
    7
  6
CONTINUOUS
  0
LAYER
  2
_0-c_ADD_LINE
 70
   64
 62
    7
  6
CONTINUOUS
  0
LAYER
  2
ADD_LINE
 70
   64
 62
    7
  6
CONTINUOUS
  0
ENDTAB
  0
ENDSEC
  0
SECTION
  2
BLOCKS
  0
ENDSEC
  0
SECTION
  2
ENTITIES
  0
LINE
  8
_0-0_0
  6
CONTINUOUS
 62
    7
 10
1437.4024127156536
 20
48.305735107421782
 11
1437.4024127156536
 21
-18.360924892578026
  0
LINE
  8
_0-0_0
  6
CONTINUOUS
 62
    7
 10
1654.3834576375284
 20
48.305735107421782
 11
1654.3834576375284
 21
14.972405107421878
  0
LINE
  8
_0-0_0
  6
CONTINUOUS
 62
    7
 10
1754.3835325073198
 20
48.305735107421782
 11
1754.3835325073198
 21
14.972405107421878
  0
LINE
  8
_0-0_0
  6
CONTINUOUS
 62
    7
 10
1929.7564927937781
 20
-51.694393581814239
 11
987.40229900037593
 21
-51.694393581814239
  0
LINE
  8
_0-0_0
  6
CONTINUOUS
 62
    7
 10
987.40229900037593
 20
-51.694393581814239
 11
987.40229900037593
 21
1311.6943935818144
  0
LINE
  8
_0-0_0
  6
CONTINUOUS
 62
    7
 10
987.40229900037593
 20
1311.6943935818144
 11
1929.7564927937781
 21
1311.6943935818144
  0
LINE
  8
_0-0_0
  6
CONTINUOUS
 62
    7
 10
1929.7564927937781
 20
1311.6943935818144
 11
1929.7564927937781
 21
-51.694393581814239
  0
LINE
  8
_0-0_0
  6
CONTINUOUS
 62
    7
 10
1337.4023378458619
 20
14.972405107421878
 11
1929.7564927937781
 21
14.972405107421878
  0
LINE
  8
_0-0_0
  6
CONTINUOUS
 62
    7
 10
1337.4023378458619
 20
48.305735107421782
 11
1337.4023378458619
 21
-51.694393581814239
  0
LINE
  8
_0-0_0
  6
CONTINUOUS
 62
    7
 10
987.40229900037593
 20
48.305735107421782
 11
1928.996849239091
 21
48.305735107421782
  0
LINE
  8
_0-0_0
  6
CONTINUOUS
 62
    7
 10
1337.4023378458619
 20
-18.360924892578026
 11
1929.7564927937781
 21
-18.360924892578026
  0
TEXT
  8
_0-3_D-STR-TXT
 62
    7
 10
1062.4023184231189
 20
-11.694329237196257
 40
20
 41
1
 50
0
  1
保安道路企画株式会社
  0
TEXT
  8
_0-3_D-STR-TXT
 62
    7
 10
1364.902375280758
 20
24.139070107421873
 40
15
 41
1
 50
0
  1
品　名
  0
TEXT
  8
_0-3_D-STR-TXT
 62
    7
 10
1364.902375280758
 20
-9.1942598925781169
 40
15
 41
1
 50
0
  1
材　質
  0
TEXT
  8
_0-3_D-STR-TXT
 62
    7
 10
1473.5794527547159
 20
-9.1942598925781169
 40
15
 41
1
 50
0
  1
ポスト：ポリウレタン　　ベース・セットピン：スチレニクス
  0
TEXT
  8
_0-3_D-STR-TXT
 62
    7
 10
1681.8834950724242
 20
24.139070107421873
 40
15
 41
1
 50
0
  1
品　番
  0
LINE
  8
ADD_LINE
  6
DOT
 62
    9
 10
891.90621328500697
 20
-184.18049743203318
 11
2019.9062132850067
 21
-184.18049743203318
  0
LINE
  8
ADD_LINE
  6
DOT
 62
    9
 10
2019.9062132850067
 20
-184.18049743203318
 11
2019.9062132850067
 21
1431.819502567967
  0
LINE
  8
ADD_LINE
  6
DOT
 62
    9
 10
2019.9062132850067
 20
1431.819502567967
 11
891.90621328500697
 21
1431.819502567967
  0
LINE
  8
ADD_LINE
  6
DOT
 62
    9
 10
891.90621328500697
 20
1431.819502567967
 11
891.90621328500697
 21
-184.18049743203318
  0
TEXT
  8
_0-3_D-STR-TXT
 62
    7
 10
1493.392935176591
 20
24.139070107421702
 40
15
 41
1
 50
0
  1
ラウンドポスト
  0
TEXT
  8
_0-0_0
 62
    7
 10
1364.2235982575057
 20
-42.575231936908068
 40
15
 41
1
 50
0
  1
小径台座タイプ/腰みの付き防塵タイプ
  0
LINE
  8
_0-0_0
  6
CONTINUOUS
 62
    7
 10
1461.1575614056846
 20
441.47914453226042
 11
1461.1575614056846
 21
413.97914453226036
  0
LINE
  8
_0-0_0
  6
CONTINUOUS
 62
    7
 10
1471.1575614056846
 20
441.47914453226042
 11
1461.1575614056846
 21
441.47914453226042
  0
LINE
  8
_0-0_0
  6
CONTINUOUS
 62
    7
 10
1471.1575614056846
 20
413.97914453226036
 11
1471.1575614056846
 21
441.47914453226042
  0
LINE
  8
_0-5_D-BYP-STR1
  6
CONTINUOUS
 62
    7
 10
1308.24545632428
 20
509.97914453226042
 11
1363.3015272878215
 21
509.97914453226042
  0
LINE
  8
_0-5_D-BYP-STR1
  6
CONTINUOUS
 62
    7
 10
1363.3015272878215
 20
484.97914453226042
 11
1308.24545632428
 21
484.97914453226042
  0
LINE
  8
_0-0_0
  6
CONTINUOUS
 62
    7
 10
1426.1575614056846
 20
484.97914453226042
 11
1506.1575614056846
 21
484.97914453226042
  0
LINE
  8
_0-0_0
  6
CONTINUOUS
 62
    7
 10
1506.1575614056846
 20
509.97914453226042
 11
1426.1575614056846
 21
509.97914453226042
  0
LINE
  8
_0-0_0
  6
CONTINUOUS
 62
    7
 10
1426.1575614056846
 20
491.8817194779507
 11
1506.1575614056846
 21
491.8817194779507
  0
LINE
  8
_0-0_0
  6
CONTINUOUS
 62
    7
 10
1426.1575614056846
 20
497.8817194779507
 11
1506.1575614056846
 21
497.8817194779507
  0
LINE
  8
_0-0_0
  6
CONTINUOUS
 62
    7
 10
1426.1575614056846
 20
503.8817194779507
 11
1506.1575614056846
 21
503.8817194779507
  0
LINE
  8
_0-5_D-BYP-STR1
  6
CONTINUOUS
 62
    7
 10
1308.24545632428
 20
409.35483497984796
 11
1308.24545632428
 21
509.97914453226042
  0
TEXT
  8
_0-5_D-BYP-STR1
 62
    7
 10
1308.24545632428
 20
489.97914453226048
 40
15
 41
1
 50
90
  1
25
  0
LINE
  8
_0-0_0
  6
CONTINUOUS
 62
    7
 10
1464.0777734052049
 20
390.47478126451114
 11
1463.9075614056242
 21
409.97914453226042
  0
LINE
  8
_0-0_0
  6
CONTINUOUS
 62
    7
 10
1478.1575614049898
 20
367.97914517057416
 11
1454.1575614049898
 21
367.97914517057416
  0
LINE
  8
_0-0_0
  6
CONTINUOUS
 62
    7
 10
1478.1575614049898
 20
364.97914517057416
 11
1454.1575614049898
 21
364.97914517057416
  0
LINE
  8
_0-0_0
  6
CONTINUOUS
 62
    7
 10
1478.1575614049898
 20
370.97914517057416
 11
1454.1575614049898
 21
370.97914517057416
  0
LINE
  8
_0-0_0
  6
CONTINUOUS
 62
    7
 10
1478.1575614049898
 20
373.97914517057416
 11
1454.1575614049898
 21
373.97914517057416
  0
LINE
  8
_0-0_0
  6
CONTINUOUS
 62
    7
 10
1478.1575614049898
 20
376.97914517057416
 11
1454.1575614049898
 21
376.97914517057416
  0
LINE
  8
_0-0_0
  6
CONTINUOUS
 62
    7
 10
1478.1575614049898
 20
379.97914517057416
 11
1454.1575614049898
 21
379.97914517057416
  0
LINE
  8
_0-0_0
  6
CONTINUOUS
 62
    7
 10
1478.1575614049898
 20
382.97914517057416
 11
1454.1575614049898
 21
382.97914517057416
  0
LINE
  8
_0-0_0
  6
CONTINUOUS
 62
    7
 10
1478.1575614049898
 20
385.9791451705741
 11
1454.1575614049898
 21
385.9791451705741
  0
LINE
  8
_0-0_0
  6
CONTINUOUS
 62
    7
 10
1478.1575614049898
 20
388.9791451705741
 11
1454.1575614049898
 21
388.9791451705741
  0
LINE
  8
_0-0_0
  6
CONTINUOUS
 62
    7
 10
1478.1575614049898
 20
362.47914517057404
 11
1478.1575614049898
 21
389.97914517057421
  0
LINE
  8
_0-0_0
  6
CONTINUOUS
 62
    7
 10
1454.1575614049898
 20
362.47914517057404
 11
1454.1575614049898
 21
389.97914517057421
  0
LINE
  8
_0-0_0
  6
CONTINUOUS
 62
    7
 10
1478.1575614049898
 20
362.47914517057404
 11
1454.1575614049898
 21
362.47914517057404
  0
LINE
  8
_0-0_0
  6
CONTINUOUS
 62
    7
 10
1468.2373494060439
 20
390.47478126451114
 11
1468.4075614056242
 21
409.97914453226042
  0
LINE
  8
_0-0_0
  6
CONTINUOUS
 62
    7
 10
1477.1123494063709
 20
390.47478126451114
 11
1477.2825614059511
 21
409.97914453226042
  0
LINE
  8
_0-0_0
  6
CONTINUOUS
 62
    7
 10
1455.0325614053136
 20
409.97914453226059
 11
1455.2027734048938
 21
390.47478126451114
  0
LINE
  8
_0-0_0
  6
CONTINUOUS
 62
    7
 10
1483.6093003238002
 20
390.47478126451097
 11
1483.7795123233809
 21
409.97914453226042
  0
LINE
  8
_0-0_0
  6
CONTINUOUS
 62
    7
 10
1448.5356104879284
 20
409.97914453226059
 11
1448.7058224875086
 21
390.47478126451114
  0
LINE
  8
_0-0_0
  6
CONTINUOUS
 62
    7
 10
1485.9873494067419
 20
390.47478126451097
 11
1486.1575614063222
 21
409.97914453226042
  0
LINE
  8
_0-0_0
  6
CONTINUOUS
 62
    7
 10
1446.1575614050466
 20
409.97914453226059
 11
1446.3277734046274
 21
390.47478126451114
  0
LINE
  8
_0-0_0
  6
CONTINUOUS
 62
    7
 10
1485.48736844521
 20
389.97914453226019
 11
1446.8277543661598
 21
389.97914453226036
  0
ARC
  8
_0-0_0
  6
CONTINUOUS
 62
    7
 10
1467.7373684445115
 20
390.47914453226025
 40
0.5
 50
270
 51
359.50000000000188
  0
ARC
  8
_0-0_0
  6
CONTINUOUS
 62
    7
 10
1464.5777543667368
 20
390.47914453226025
 40
0.5
 50
180.4999999999981
 51
270
  0
ARC
  8
_0-0_0
  6
CONTINUOUS
 62
    7
 10
1476.6123684448385
 20
390.47914453226025
 40
0.5
 50
270
 51
359.49999999999858
  0
ARC
  8
_0-0_0
  6
CONTINUOUS
 62
    7
 10
1455.7027543664262
 20
390.47914453226025
 40
0.5
 50
180.4999999999981
 51
270
  0
ARC
  8
_0-0_0
  6
CONTINUOUS
 62
    7
 10
1483.1093193622678
 20
390.47914453226025
 40
0.5
 50
270
 51
359.50000000000188
  0
ARC
  8
_0-0_0
  6
CONTINUOUS
 62
    7
 10
1449.2058034490408
 20
390.47914453226025
 40
0.5
 50
180.4999999999981
 51
270
  0
ARC
  8
_0-0_0
  6
CONTINUOUS
 62
    7
 10
1485.48736844521
 20
390.47914453226025
 40
0.5
 50
270
 51
359.50000000000188
  0
ARC
  8
_0-0_0
  6
CONTINUOUS
 62
    7
 10
1446.8277543661598
 20
390.47914453226025
 40
0.5
 50
180.4999999999981
 51
270
  0
LINE
  8
_0-0_0
  6
CONTINUOUS
 62
    7
 10
1358.6344087626821
 20
346.99852215631631
 11
1580.2229503739518
 21
346.99852215631631
  0
LINE
  8
_0-0_0
  6
CONTINUOUS
 62
    7
 10
1372.8936589761315
 20
346.32328344120742
 11
1361.4283812012197
 21
340.59064455375187
  0
LINE
  8
_0-0_0
  6
CONTINUOUS
 62
    7
 10
1379.5082423078111
 20
346.32328344120742
 11
1359.2235200906603
 21
336.18092233263195
  0
LINE
  8
_0-0_0
  6
CONTINUOUS
 62
    7
 10
1386.1228256394907
 20
346.32328344120742
 11
1355.4752562027079
 21
331.49559247269224
  0
LINE
  8
_0-0_0
  6
CONTINUOUS
 62
    7
 10
1392.7374089711707
 20
346.32328344120742
 11
1362.0898395343879
 21
331.49559247269224
  0
LINE
  8
_0-0_0
  6
CONTINUOUS
 62
    7
 10
1399.35199230285
 20
346.32328344120742
 11
1368.7044228660675
 21
331.49559247269224
  0
LINE
  8
_0-0_0
  6
CONTINUOUS
 62
    7
 10
1405.9665756345298
 20
346.32328344120742
 11
1375.3190061977471
 21
331.49559247269224
  0
LINE
  8
_0-0_0
  6
CONTINUOUS
 62
    7
 10
1412.5811589662094
 20
346.32328344120742
 11
1381.9335895294271
 21
331.49559247269224
  0
LINE
  8
_0-0_0
  6
CONTINUOUS
 62
    7
 10
1419.195742297889
 20
346.32328344120742
 11
1388.5481728611067
 21
331.49559247269224
  0
LINE
  8
_0-0_0
  6
CONTINUOUS
 62
    7
 10
1425.810325629569
 20
346.32328344120742
 11
1395.1627561927862
 21
331.49559247269224
  0
LINE
  8
_0-0_0
  6
CONTINUOUS
 62
    7
 10
1432.4249089612485
 20
346.32328344120742
 11
1401.7773395244658
 21
331.49559247269224
  0
LINE
  8
_0-0_0
  6
CONTINUOUS
 62
    7
 10
1439.0394922929281
 20
346.32328344120742
 11
1408.3919228561458
 21
331.49559247269224
  0
LINE
  8
_0-0_0
  6
CONTINUOUS
 62
    7
 10
1445.6540756246077
 20
346.32328344120742
 11
1415.0065061878254
 21
331.49559247269224
  0
LINE
  8
_0-0_0
  6
CONTINUOUS
 62
    7
 10
1452.2686589562877
 20
346.32328344120742
 11
1421.6210895195049
 21
331.49559247269224
  0
LINE
  8
_0-0_0
  6
CONTINUOUS
 62
    7
 10
1458.8832422879673
 20
346.32328344120742
 11
1428.235672851185
 21
331.49559247269224
  0
LINE
  8
_0-0_0
  6
CONTINUOUS
 62
    7
 10
1465.4978256196468
 20
346.32328344120742
 11
1434.8502561828643
 21
331.49559247269224
  0
LINE
  8
_0-0_0
  6
CONTINUOUS
 62
    7
 10
1472.1124089513269
 20
346.32328344120742
 11
1441.4648395145441
 21
331.49559247269224
  0
LINE
  8
_0-0_0
  6
CONTINUOUS
 62
    7
 10
1478.7269922830064
 20
346.32328344120742
 11
1448.0794228462237
 21
331.49559247269224
  0
LINE
  8
_0-0_0
  6
CONTINUOUS
 62
    7
 10
1485.341575614686
 20
346.32328344120742
 11
1454.6940061779032
 21
331.49559247269224
  0
LINE
  8
_0-0_0
  6
CONTINUOUS
 62
    7
 10
1491.9561589463656
 20
346.32328344120742
 11
1461.3085895095833
 21
331.49559247269224
  0
LINE
  8
_0-0_0
  6
CONTINUOUS
 62
    7
 10
1498.5707422780456
 20
346.32328344120742
 11
1467.9231728412628
 21
331.49559247269224
  0
LINE
  8
_0-0_0
  6
CONTINUOUS
 62
    7
 10
1505.1853256097252
 20
346.32328344120742
 11
1474.5377561729429
 21
331.49559247269224
  0
LINE
  8
_0-0_0
  6
CONTINUOUS
 62
    7
 10
1511.7999089414047
 20
346.32328344120742
 11
1481.152339504622
 21
331.49559247269224
  0
LINE
  8
_0-0_0
  6
CONTINUOUS
 62
    7
 10
1518.4144922730848
 20
346.32328344120742
 11
1487.766922836302
 21
331.49559247269224
  0
LINE
  8
_0-0_0
  6
CONTINUOUS
 62
    7
 10
1525.0290756047639
 20
346.32328344120742
 11
1494.3815061679816
 21
331.49559247269224
  0
LINE
  8
_0-0_0
  6
CONTINUOUS
 62
    7
 10
1531.6436589364439
 20
346.32328344120742
 11
1500.9960894996616
 21
331.49559247269224
  0
LINE
  8
_0-0_0
  6
CONTINUOUS
 62
    7
 10
1538.2582422681235
 20
346.32328344120742
 11
1507.6106728313412
 21
331.49559247269224
  0
LINE
  8
_0-0_0
  6
CONTINUOUS
 62
    7
 10
1544.8728255998035
 20
346.32328344120742
 11
1514.2252561630207
 21
331.49559247269224
  0
LINE
  8
_0-0_0
  6
CONTINUOUS
 62
    7
 10
1551.4874089314831
 20
346.32328344120742
 11
1520.8398394947003
 21
331.49559247269224
  0
LINE
  8
_0-0_0
  6
CONTINUOUS
 62
    7
 10
1558.1019922631626
 20
346.32328344120742
 11
1527.4544228263799
 21
331.49559247269224
  0
LINE
  8
_0-0_0
  6
CONTINUOUS
 62
    7
 10
1564.7165755948422
 20
346.32328344120742
 11
1534.0690061580599
 21
331.49559247269224
  0
LINE
  8
_0-0_0
  6
CONTINUOUS
 62
    7
 10
1571.3311589265218
 20
346.32328344120742
 11
1540.6835894897395
 21
331.49559247269224
  0
LINE
  8
_0-0_0
  6
CONTINUOUS
 62
    7
 10
1489.6565577099614
 20
296.54509877483235
 11
1442.6585651001833
 21
296.54509877483235
  0
LINE
  8
_0-0_0
  6
CONTINUOUS
 62
    7
 10
1442.6585651001833
 20
296.54509877483235
 11
1442.6585651001833
 21
346.54549210000573
  0
LINE
  8
_0-0_0
  6
CONTINUOUS
 62
    7
 10
1442.6585651001833
 20
346.54549210000573
 11
1489.6565577099614
 21
346.54549210000573
  0
LINE
  8
_0-0_0
  6
CONTINUOUS
 62
    7
 10
1489.6565577099614
 20
346.54549210000573
 11
1489.6565577099614
 21
296.54509877483235
  0
LINE
  8
_0-0_0
  6
CONTINUOUS
 62
    7
 10
1446.4860661842959
 20
346.37840496897127
 11
1447.0235010799947
 21
327.42521215686941
  0
LINE
  8
_0-0_0
  6
CONTINUOUS
 62
    7
 10
1447.0235010799947
 20
327.42521215686941
 11
1485.6499116606155
 21
327.30463381488585
  0
LINE
  8
_0-0_0
  6
CONTINUOUS
 62
    7
 10
1485.6499116606155
 20
327.30463381488585
 11
1486.480179672561
 21
346.46280980835979
  0
LINE
  8
_0-0_0
  6
CONTINUOUS
 62
    7
 10
1453.6863157484681
 20
327.38731610653178
 11
1456.180564879789
 21
325.1014952520685
  0
LINE
  8
_0-0_0
  6
CONTINUOUS
 62
    7
 10
1456.180564879789
 20
325.1014952520685
 11
1456.6060341722173
 21
297.68370283270792
  0
LINE
  8
_0-0_0
  6
CONTINUOUS
 62
    7
 10
1456.6060341722173
 20
297.68370283270792
 11
1475.6298514417667
 21
297.62169111397304
  0
LINE
  8
_0-0_0
  6
CONTINUOUS
 62
    7
 10
1475.6298514417667
 20
297.62169111397304
 11
1476.6513222531435
 21
324.93096302554852
  0
LINE
  8
_0-0_0
  6
CONTINUOUS
 62
    7
 10
1476.6513222531435
 20
324.93096302554852
 11
1479.2472017012792
 21
327.43554744332528
  0
LINE
  8
_0-0_0
  6
CONTINUOUS
 62
    7
 10
1456.180564879789
 20
325.1014952520685
 11
1476.7805133338402
 21
325.1014952520685
  0
LINE
  8
_0-0_0
  6
CONTINUOUS
 62
    7
 10
1442.5035358033469
 20
319.79777075252628
 11
1489.5807656092857
 21
319.79777075252628
  0
LINE
  8
_0-0_0
  6
CONTINUOUS
 62
    7
 10
1443.9453082639238
 20
317.90985842660939
 11
1488.4197684307569
 21
317.90985842660939
  0
LINE
  8
_0-0_0
  6
CONTINUOUS
 62
    7
 10
1464.4660195218148
 20
317.93397409500631
 11
1464.4074528985652
 21
298.8584803931779
  0
LINE
  8
_0-0_0
  6
CONTINUOUS
 62
    7
 10
1467.9059473638367
 20
317.82028594399276
 11
1467.8491032883298
 21
298.9136019209418
  0
LINE
  8
_0-0_0
  6
CONTINUOUS
 62
    7
 10
1448.6392508625768
 20
316.07017743748594
 11
1483.4450505500563
 21
316.07017743748594
  0
LINE
  8
_0-0_0
  6
CONTINUOUS
 62
    7
 10
1489.4946382221547
 20
298.70689619182707
 11
1442.3657319839367
 21
298.70689619182707
  0
LINE
  8
_0-0_0
  6
CONTINUOUS
 62
    7
 10
1308.24545632428
 20
346.99852215631631
 11
1308.24545632428
 21
296.54509877483235
  0
LINE
  8
_0-0_0
  6
CONTINUOUS
 62
    7
 10
1346.9063178694187
 20
346.99852215631631
 11
1308.24545632428
 21
346.99852215631631
  0
LINE
  8
_0-0_0
  6
CONTINUOUS
 62
    7
 10
1346.9063178694187
 20
296.54509877483235
 11
1308.24545632428
 21
296.54509877483235
  0
LINE
  8
_0-0_0
  6
CONTINUOUS
 62
    7
 10
1442.6585651001833
 20
269.32815002790517
 11
1489.6565577099614
 21
269.32815002790517
  0
TEXT
  8
_0-0_0
 62
    7
 10
1447.4075614050726
 20
254.32815002790517
 40
15
 41
1
 50
0
  1
47±2
  0
TEXT
  8
_0-0_0
 62
    7
 10
1308.24545632428
 20
303.02181046557428
 40
15
 41
1
 50
90
  1
50±2
  0
LINE
  8
_0-0_0
  6
CONTINUOUS
 62
    7
 10
1466.3367063703051
 20
327.36492298587774
 11
1501.4766572033591
 21
292.22497215282374
  0
LINE
  8
_0-0_0
  6
CONTINUOUS
 62
    7
 10
1501.4766572033591
 20
292.22497215282374
 11
1722.2507036492023
 21
292.22497215282374
  0
TEXT
  8
_0-0_0
 62
    7
 10
1587.5077048024905
 20
294.57674498230563
 40
15
 41
1
 50
0
  1
アンカーナット
  0
LINE
  8
_0-0_0
  6
CONTINUOUS
 62
    7
 10
1442.6585651001833
 20
290.62951962666364
 11
1442.6585651001833
 21
269.32815002790517
  0
LINE
  8
_0-0_0
  6
CONTINUOUS
 62
    7
 10
1489.6565577099614
 20
290.62951962666364
 11
1489.6565577099614
 21
269.32815002790517
  0
LINE
  8
_0-0_0
  6
CONTINUOUS
 62
    7
 10
1466.1575614049898
 20
387.4791451705741
 11
1485.4612583175654
 21
368.17544825799848
  0
LINE
  8
_0-0_0
  6
CONTINUOUS
 62
    7
 10
1485.4612583175654
 20
368.17544825799848
 11
1722.2507036492023
 21
368.17544825799848
  0
TEXT
  8
_0-0_0
 62
    7
 10
1608.2409084706464
 20
369.79248818602264
 40
15
 41
1
 50
0
  1
M24ボルト
  0
LINE
  8
_0-5_D-BYP-STR1
  6
CONTINUOUS
 62
    7
 10
1363.3015272878215
 20
459.97914453226048
 11
1308.24545632428
 21
459.97914453226048
  0
TEXT
  8
_0-5_D-BYP-STR1
 62
    7
 10
1308.24545632428
 20
464.97914453226036
 40
15
 41
1
 50
90
  1
25
  0
TEXT
  8
_0-5_D-BYP-STR1
 62
    7
 10
1308.24545632428
 20
415.91698975605414
 40
15
 41
1
 50
90
  1
50±2
  0
LINE
  8
_0-0_0
  6
CONTINUOUS
 62
    7
 10
1419.6575614056844
 20
409.97914453226042
 11
1512.6575614056844
 21
409.97914453226042
  0
LINE
  8
_0-0_0
  6
CONTINUOUS
 62
    7
 10
1489.1575614056846
 20
413.97914453226036
 11
1489.1575614056846
 21
441.47914453226042
  0
LINE
  8
_0-0_0
  6
CONTINUOUS
 62
    7
 10
1489.1575614056846
 20
441.47914453226042
 11
1481.1575614056846
 21
441.47914453226042
  0
LINE
  8
_0-0_0
  6
CONTINUOUS
 62
    7
 10
1481.1575614056846
 20
441.47914453226042
 11
1481.1575614056846
 21
413.97914453226036
  0
LINE
  8
_0-0_0
  6
CONTINUOUS
 62
    7
 10
1502.1575614056846
 20
413.97914453226036
 11
1502.1575614056846
 21
441.47914453226042
  0
LINE
  8
_0-0_0
  6
CONTINUOUS
 62
    7
 10
1502.1575614056846
 20
441.47914453226042
 11
1496.1575614056846
 21
441.47914453226042
  0
LINE
  8
_0-0_0
  6
CONTINUOUS
 62
    7
 10
1496.1575614056846
 20
441.47914453226042
 11
1496.1575614056846
 21
413.97914453226036
  0
LINE
  8
_0-0_0
  6
CONTINUOUS
 62
    7
 10
1421.4075614056846
 20
459.97914453226048
 11
1421.4075614056846
 21
441.47914453226042
  0
LINE
  8
_0-0_0
  6
CONTINUOUS
 62
    7
 10
1511.1575614056844
 20
441.27713269589373
 11
1511.1575614056844
 21
459.97914453226048
  0
LINE
  8
_0-0_0
  6
CONTINUOUS
 62
    7
 10
1511.1575614056844
 20
459.97914453226048
 11
1421.4075614056846
 21
459.97914453226048
  0
LINE
  8
_0-0_0
  6
CONTINUOUS
 62
    7
 10
1507.6574735680351
 20
413.97914453226036
 11
1507.6574735680351
 21
441.47914453226042
  0
LINE
  8
_0-0_0
  6
CONTINUOUS
 62
    7
 10
1507.6574735680351
 20
441.47914453226042
 11
1512.6575614056844
 21
441.47914453226042
  0
LINE
  8
_0-0_0
  6
CONTINUOUS
 62
    7
 10
1512.6575614056844
 20
441.47914453226042
 11
1512.6575614056844
 21
409.97914453226042
  0
LINE
  8
_0-0_0
  6
CONTINUOUS
 62
    7
 10
1443.1575614056846
 20
413.97914453226036
 11
1443.1575614056846
 21
441.47914453226042
  0
LINE
  8
_0-0_0
  6
CONTINUOUS
 62
    7
 10
1443.1575614056846
 20
441.47914453226042
 11
1451.1575614056846
 21
441.47914453226042
  0
LINE
  8
_0-0_0
  6
CONTINUOUS
 62
    7
 10
1451.1575614056846
 20
441.47914453226042
 11
1451.1575614056846
 21
413.97914453226036
  0
LINE
  8
_0-0_0
  6
CONTINUOUS
 62
    7
 10
1430.1575614056846
 20
413.97914453226036
 11
1430.1575614056846
 21
441.47914453226042
  0
LINE
  8
_0-0_0
  6
CONTINUOUS
 62
    7
 10
1430.1575614056846
 20
441.47914453226042
 11
1436.1575614056846
 21
441.47914453226042
  0
LINE
  8
_0-0_0
  6
CONTINUOUS
 62
    7
 10
1436.1575614056846
 20
441.47914453226042
 11
1436.1575614056846
 21
413.97914453226036
  0
LINE
  8
_0-0_0
  6
CONTINUOUS
 62
    7
 10
1424.6576492433346
 20
413.97914453226036
 11
1424.6576492433346
 21
441.47914453226042
  0
LINE
  8
_0-0_0
  6
CONTINUOUS
 62
    7
 10
1424.6576492433346
 20
441.47914453226042
 11
1419.6575614056846
 21
441.47914453226042
  0
LINE
  8
_0-0_0
  6
CONTINUOUS
 62
    7
 10
1419.6575614056846
 20
441.47914453226042
 11
1419.6575614056846
 21
409.97914453226042
  0
LINE
  8
_0-0_0
  6
CONTINUOUS
 62
    7
 10
1451.1575614056846
 20
413.97914453226036
 11
1461.1575614056846
 21
413.97914453226036
  0
LINE
  8
_0-0_0
  6
CONTINUOUS
 62
    7
 10
1471.1575614056846
 20
413.97914453226036
 11
1481.1575614056846
 21
413.97914453226036
  0
LINE
  8
_0-0_0
  6
CONTINUOUS
 62
    7
 10
1489.1575614056846
 20
413.97914453226036
 11
1496.1575614056846
 21
413.97914453226036
  0
LINE
  8
_0-0_0
  6
CONTINUOUS
 62
    7
 10
1436.1575614056846
 20
413.97914453226036
 11
1443.1575614056846
 21
413.97914453226036
  0
LINE
  8
_0-0_0
  6
CONTINUOUS
 62
    7
 10
1424.6576492433346
 20
413.97914453226036
 11
1430.1575614056846
 21
413.97914453226036
  0
LINE
  8
_0-0_0
  6
CONTINUOUS
 62
    7
 10
1507.6574735680351
 20
413.97914453226036
 11
1502.1575614056846
 21
413.97914453226036
  0
LINE
  8
_0-0_0
  6
CONTINUOUS
 62
    7
 10
1462.6575614056846
 20
413.97914453226036
 11
1469.6575614056846
 21
413.97914453226036
  0
LINE
  8
_0-0_0
  6
CONTINUOUS
 62
    7
 10
1462.6575614056846
 20
413.97914453226036
 11
1462.1575614056846
 21
409.97914453226042
  0
LINE
  8
_0-0_0
  6
CONTINUOUS
 62
    7
 10
1469.6575614056846
 20
413.97914453226036
 11
1470.1575614056846
 21
409.97914453226042
  0
LINE
  8
_0-0_0
  6
CONTINUOUS
 62
    7
 10
1462.3325256518756
 20
411.37885850178901
 11
1469.9825971594935
 21
411.37885850178901
  0
LINE
  8
_0-0_0
  6
CONTINUOUS
 62
    7
 10
1462.4825256518757
 20
412.57885850178894
 11
1469.8325971594936
 21
412.57885850178894
  0
LINE
  8
_0-0_0
  6
AI9-LType4
 62
    7
 10
1466.1574735680349
 20
83.223331711443848
 11
1466.1574735680349
 21
223.40413164017713
  0
LINE
  8
_0-0_0
  6
CONTINUOUS
 62
    7
 10
1467.9652918771621
 20
182.7879513642701
 11
1474.8709054204915
 21
182.7879513642701
  0
LINE
  8
_0-0_0
  6
CONTINUOUS
 62
    7
 10
1457.4440417155624
 20
182.7879513642701
 11
1464.3496552589081
 21
182.7879513642701
  0
LINE
  8
_0-0_0
  6
CONTINUOUS
 62
    7
 10
1467.9470309723561
 20
181.58795136427
 11
1475.0031584874819
 21
181.58795136427
  0
LINE
  8
_0-0_0
  6
CONTINUOUS
 62
    7
 10
1457.3117886485879
 20
181.58795136427
 11
1464.3679161637137
 21
181.58795136427
  0
LINE
  8
_0-0_0
  6
CONTINUOUS
 62
    7
 10
1478.4160395601643
 20
180.38795136427007
 11
1480.9209402433623
 21
180.38795136427007
  0
LINE
  8
_0-0_0
  6
CONTINUOUS
 62
    7
 10
1467.9287700675507
 20
180.38795136427007
 11
1474.5869603031269
 21
180.38795136427007
  0
LINE
  8
_0-0_0
  6
CONTINUOUS
 62
    7
 10
1457.7279868329429
 20
180.38795136427007
 11
1464.3861770685191
 21
180.38795136427007
  0
LINE
  8
_0-0_0
  6
CONTINUOUS
 62
    7
 10
1451.3940068927129
 20
180.38795136427007
 11
1453.8989075759059
 21
180.38795136427007
  0
LINE
  8
_0-0_0
  6
CONTINUOUS
 62
    7
 10
1477.958480095044
 20
179.18795136426996
 11
1483.0292836394556
 21
179.18795136426996
  0
LINE
  8
_0-0_0
  6
CONTINUOUS
 62
    7
 10
1467.9105091627453
 20
179.18795136426996
 11
1474.1707621187716
 21
179.18795136426996
  0
LINE
  8
_0-0_0
  6
CONTINUOUS
 62
    7
 10
1458.1441850172982
 20
179.18795136426996
 11
1464.404437973325
 21
179.18795136426996
  0
LINE
  8
_0-0_0
  6
CONTINUOUS
 62
    7
 10
1449.2856634966115
 20
179.18795136426996
 11
1454.356467041026
 21
179.18795136426996
  0
LINE
  8
_0-0_0
  6
CONTINUOUS
 62
    7
 10
1477.5009206299237
 20
177.98795136427003
 11
1484.824985504521
 21
177.98795136427003
  0
LINE
  8
_0-0_0
  6
CONTINUOUS
 62
    7
 10
1467.8922482579392
 20
177.98795136427003
 11
1473.7545639344166
 21
177.98795136427003
  0
LINE
  8
_0-0_0
  6
CONTINUOUS
 62
    7
 10
1458.5603832016532
 20
177.98795136427003
 11
1464.4226988781306
 21
177.98795136427003
  0
LINE
  8
_0-0_0
  6
CONTINUOUS
 62
    7
 10
1447.4899616315518
 20
177.98795136427003
 11
1454.8140265061461
 21
177.98795136427003
  0
LINE
  8
_0-0_0
  6
CONTINUOUS
 62
    7
 10
1477.0433611648041
 20
176.78795136426993
 11
1484.5984565106285
 21
176.78795136426993
  0
LINE
  8
_0-0_0
  6
CONTINUOUS
 62
    7
 10
1467.8739873531338
 20
176.78795136426993
 11
1473.3383657500613
 21
176.78795136426993
  0
LINE
  8
_0-0_0
  6
CONTINUOUS
 62
    7
 10
1458.9765813860085
 20
176.78795136426993
 11
1464.440959782936
 21
176.78795136426993
  0
LINE
  8
_0-0_0
  6
CONTINUOUS
 62
    7
 10
1447.7164906254416
 20
176.78795136426993
 11
1455.2715859712662
 21
176.78795136426993
  0
LINE
  8
_0-0_0
  6
CONTINUOUS
 62
    7
 10
1476.5858016996838
 20
175.58795136427
 11
1483.6222628090864
 21
175.58795136427
  0
LINE
  8
_0-0_0
  6
CONTINUOUS
 62
    7
 10
1470.5701887780467
 20
175.58795136427
 11
1472.9221675657063
 21
175.58795136427
  0
LINE
  8
_0-0_0
  6
CONTINUOUS
 62
    7
 10
1459.3927795703635
 20
175.58795136427
 11
1461.7447583580231
 21
175.58795136427
  0
LINE
  8
_0-0_0
  6
CONTINUOUS
 62
    7
 10
1448.6926843269835
 20
175.58795136427
 11
1455.729145436386
 21
175.58795136427
  0
LINE
  8
_0-0_0
  6
CONTINUOUS
 62
    7
 10
1487.3046620173093
 20
174.3879513642699
 11
1489.0190151244879
 21
174.3879513642699
  0
LINE
  8
_0-0_0
  6
CONTINUOUS
 62
    7
 10
1476.1282422345635
 20
174.3879513642699
 11
1482.646069107544
 21
174.3879513642699
  0
LINE
  8
_0-0_0
  6
CONTINUOUS
 62
    7
 10
1449.6688780285263
 20
174.3879513642699
 11
1456.1867049015063
 21
174.3879513642699
  0
LINE
  8
_0-0_0
  6
CONTINUOUS
 62
    7
 10
1443.2959320115631
 20
174.3879513642699
 11
1445.0102851187607
 21
174.3879513642699
  0
LINE
  8
_0-0_0
  6
CONTINUOUS
 62
    7
 10
1486.2662217822681
 20
173.18795136426996
 11
1490.1355491611685
 21
173.18795136426996
  0
LINE
  8
_0-0_0
  6
CONTINUOUS
 62
    7
 10
1477.4245987182346
 20
173.18795136426996
 11
1481.6698754060017
 21
173.18795136426996
  0
LINE
  8
_0-0_0
  6
CONTINUOUS
 62
    7
 10
1450.6450717300684
 20
173.18795136426996
 11
1454.8903484178352
 21
173.18795136426996
  0
LINE
  8
_0-0_0
  6
CONTINUOUS
 62
    7
 10
1442.1793979748852
 20
173.18795136426996
 11
1446.048725353802
 21
173.18795136426996
  0
LINE
  8
_0-0_0
  6
CONTINUOUS
 62
    7
 10
1485.2277815472266
 20
171.98795136426986
 11
1491.1447930714012
 21
171.98795136426986
  0
LINE
  8
_0-0_0
  6
CONTINUOUS
 62
    7
 10
1479.4377648285169
 20
171.98795136426986
 11
1480.6936817044596
 21
171.98795136426986
  0
LINE
  8
_0-0_0
  6
CONTINUOUS
 62
    7
 10
1451.6212654316105
 20
171.98795136426986
 11
1452.8771823075529
 21
171.98795136426986
  0
LINE
  8
_0-0_0
  6
CONTINUOUS
 62
    7
 10
1441.1701540646711
 20
171.98795136426986
 11
1447.0871655888432
 21
171.98795136426986
  0
LINE
  8
_0-0_0
  6
CONTINUOUS
 62
    7
 10
1484.1893413121852
 20
170.78795136426993
 11
1492.0592913184428
 21
170.78795136426993
  0
LINE
  8
_0-0_0
  6
CONTINUOUS
 62
    7
 10
1440.2556558176084
 20
170.78795136426993
 11
1448.1256058238846
 21
170.78795136426993
  0
LINE
  8
_0-0_0
  6
CONTINUOUS
 62
    7
 10
1483.1509010771442
 20
169.58795136426983
 11
1492.888769638158
 21
169.58795136426983
  0
LINE
  8
_0-0_0
  6
CONTINUOUS
 62
    7
 10
1439.4261774979118
 20
169.58795136426983
 11
1449.164046058926
 21
169.58795136426983
  0
LINE
  8
_0-0_0
  6
CONTINUOUS
 62
    7
 10
1483.688594935529
 20
168.3879513642699
 11
1490.965428653471
 21
168.3879513642699
  0
LINE
  8
_0-0_0
  6
CONTINUOUS
 62
    7
 10
1441.3495184825988
 20
168.3879513642699
 11
1448.6263522005409
 21
168.3879513642699
  0
LINE
  8
_0-0_0
  6
CONTINUOUS
 62
    7
 10
1484.7380613739858
 20
167.18795136426979
 11
1488.9581355086591
 21
167.18795136426979
  0
LINE
  8
_0-0_0
  6
CONTINUOUS
 62
    7
 10
1443.3568116274107
 20
167.18795136426979
 11
1447.576885762084
 21
167.18795136426979
  0
LINE
  8
_0-0_0
  6
CONTINUOUS
 62
    7
 10
1494.0160314520017
 20
165.98795136426986
 11
1494.9369153629532
 21
165.98795136426986
  0
LINE
  8
_0-0_0
  6
CONTINUOUS
 62
    7
 10
1485.6576343373033
 20
165.98795136426986
 11
1486.9508423638476
 21
165.98795136426986
  0
LINE
  8
_0-0_0
  6
CONTINUOUS
 62
    7
 10
1445.3641047722226
 20
165.98795136426986
 11
1446.6573127987665
 21
165.98795136426986
  0
LINE
  8
_0-0_0
  6
CONTINUOUS
 62
    7
 10
1437.3780317731248
 20
165.98795136426986
 11
1438.2989156840683
 21
165.98795136426986
  0
LINE
  8
_0-0_0
  6
CONTINUOUS
 62
    7
 10
1491.8625495099732
 20
164.78795136426976
 11
1495.4899521002039
 21
164.78795136426976
  0
LINE
  8
_0-0_0
  6
CONTINUOUS
 62
    7
 10
1436.8249950358691
 20
164.78795136426976
 11
1440.4523976260966
 21
164.78795136426976
  0
LINE
  8
_0-0_0
  6
CONTINUOUS
 62
    7
 10
1489.7090675679447
 20
163.58795136426983
 11
1495.9845137103785
 21
163.58795136426983
  0
LINE
  8
_0-0_0
  6
CONTINUOUS
 62
    7
 10
1436.3304334256982
 20
163.58795136426983
 11
1442.6058795681256
 21
163.58795136426983
  0
LINE
  8
_0-0_0
  6
CONTINUOUS
 62
    7
 10
1487.7914826848371
 20
162.38795136426972
 11
1496.4234668685367
 21
162.38795136426972
  0
LINE
  8
_0-0_0
  6
CONTINUOUS
 62
    7
 10
1435.8914802675345
 20
162.38795136426972
 11
1444.5234644512327
 21
162.38795136426972
  0
LINE
  8
_0-0_0
  6
CONTINUOUS
 62
    7
 10
1488.3279128347438
 20
161.18795136426979
 11
1496.8092007180458
 21
161.18795136426979
  0
LINE
  8
_0-0_0
  6
CONTINUOUS
 62
    7
 10
1435.5057464180245
 20
161.18795136426979
 11
1443.987034301326
 21
161.18795136426979
  0
LINE
  8
_0-0_0
  6
CONTINUOUS
 62
    7
 10
1488.7881254387009
 20
159.98795136426969
 11
1497.1437028334881
 21
159.98795136426969
  0
LINE
  8
_0-0_0
  6
CONTINUOUS
 62
    7
 10
1435.1712443025772
 20
159.98795136426969
 11
1443.5268216973689
 21
159.98795136426969
  0
LINE
  8
_0-0_0
  6
CONTINUOUS
 62
    7
 10
1489.1766922972654
 20
158.78795136426976
 11
1494.4156823799408
 21
158.78795136426976
  0
LINE
  8
_0-0_0
  6
CONTINUOUS
 62
    7
 10
1437.8992647561295
 20
158.78795136426976
 11
1443.1382548388044
 21
158.78795136426976
  0
LINE
  8
_0-0_0
  6
CONTINUOUS
 62
    7
 10
1494.4570210813322
 20
155.18795136426962
 11
1497.9979903876851
 21
155.18795136426962
  0
LINE
  8
_0-0_0
  6
CONTINUOUS
 62
    7
 10
1434.3169567483876
 20
155.18795136426962
 11
1437.8579260547376
 21
155.18795136426962
  0
LINE
  8
_0-0_0
  6
CONTINUOUS
 62
    7
 10
1490.0747589105501
 20
153.98795136426969
 11
1498.0954844352752
 21
153.98795136426969
  0
LINE
  8
_0-0_0
  6
CONTINUOUS
 62
    7
 10
1434.2194627008002
 20
153.98795136426969
 11
1442.2401882255197
 21
153.98795136426969
  0
LINE
  8
_0-0_0
  6
CONTINUOUS
 62
    7
 10
1490.1444401325768
 20
152.78795136426959
 11
1498.1476996530246
 21
152.78795136426959
  0
LINE
  8
_0-0_0
  6
CONTINUOUS
 62
    7
 10
1434.1672474830461
 20
152.78795136426959
 11
1442.170507003493
 21
152.78795136426959
  0
LINE
  8
_0-0_0
  6
CONTINUOUS
 62
    7
 10
1490.1539856433608
 20
151.58795136426966
 11
1498.1548577077028
 21
151.58795136426966
  0
LINE
  8
_0-0_0
  6
CONTINUOUS
 62
    7
 10
1434.1600894283697
 20
151.58795136426966
 11
1442.160961492709
 21
151.58795136426966
  0
LINE
  8
_0-0_0
  6
CONTINUOUS
 62
    7
 10
1490.1034673581032
 20
150.38795136426955
 11
1498.116988874021
 21
150.38795136426955
  0
LINE
  8
_0-0_0
  6
CONTINUOUS
 62
    7
 10
1434.1979582620434
 20
150.38795136426955
 11
1442.2114797779666
 21
150.38795136426955
  0
LINE
  8
_0-0_0
  6
CONTINUOUS
 62
    7
 10
1492.0815371279118
 20
149.18795136426962
 11
1498.0339326782819
 21
149.18795136426962
  0
LINE
  8
_0-0_0
  6
CONTINUOUS
 62
    7
 10
1434.2810144577888
 20
149.18795136426962
 11
1440.2334100081584
 21
149.18795136426962
  0
LINE
  8
_0-0_0
  6
CONTINUOUS
 62
    7
 10
1489.2858700936283
 20
145.58795136426949
 11
1492.4283371794488
 21
145.58795136426949
  0
LINE
  8
_0-0_0
  6
CONTINUOUS
 62
    7
 10
1439.8866099566212
 20
145.58795136426949
 11
1443.0290770424415
 21
145.58795136426949
  0
LINE
  8
_0-0_0
  6
CONTINUOUS
 62
    7
 10
1488.9193002227237
 20
144.38795136426955
 11
1497.2396348934376
 21
144.38795136426955
  0
LINE
  8
_0-0_0
  6
CONTINUOUS
 62
    7
 10
1435.0753122426327
 20
144.38795136426955
 11
1443.3956469133461
 21
144.38795136426955
  0
LINE
  8
_0-0_0
  6
CONTINUOUS
 62
    7
 10
1488.4823202521854
 20
143.18795136426945
 11
1496.9210686029439
 21
143.18795136426945
  0
LINE
  8
_0-0_0
  6
CONTINUOUS
 62
    7
 10
1435.3938785331452
 20
143.18795136426945
 11
1443.8326268838844
 21
143.18795136426945
  0
LINE
  8
_0-0_0
  6
CONTINUOUS
 62
    7
 10
1487.9706990581815
 20
141.98795136426952
 11
1496.5518284104101
 21
141.98795136426952
  0
LINE
  8
_0-0_0
  6
CONTINUOUS
 62
    7
 10
1435.763118725662
 20
141.98795136426952
 11
1444.3442480778883
 21
141.98795136426952
  0
LINE
  8
_0-0_0
  6
CONTINUOUS
 62
    7
 10
1489.0241005746234
 20
140.78795136426942
 11
1496.1300415777482
 21
140.78795136426942
  0
LINE
  8
_0-0_0
  6
CONTINUOUS
 62
    7
 10
1436.1849055583384
 20
140.78795136426942
 11
1443.2908465614464
 21
140.78795136426942
  0
LINE
  8
_0-0_0
  6
CONTINUOUS
 62
    7
 10
1491.1775825166524
 20
139.58795136426949
 11
1495.6534539706236
 21
139.58795136426949
  0
LINE
  8
_0-0_0
  6
CONTINUOUS
 62
    7
 10
1436.661493165459
 20
139.58795136426949
 11
1441.1373646194179
 21
139.58795136426949
  0
LINE
  8
_0-0_0
  6
CONTINUOUS
 62
    7
 10
1493.3310644586807
 20
138.38795136426938
 11
1495.1193603629631
 21
138.38795136426938
  0
LINE
  8
_0-0_0
  6
CONTINUOUS
 62
    7
 10
1485.9259051376373
 20
138.38795136426938
 11
1486.3123742516796
 21
138.38795136426938
  0
LINE
  8
_0-0_0
  6
CONTINUOUS
 62
    7
 10
1446.0025728843907
 20
138.38795136426938
 11
1446.3890419984325
 21
138.38795136426938
  0
LINE
  8
_0-0_0
  6
CONTINUOUS
 62
    7
 10
1437.1955867731067
 20
138.38795136426938
 11
1438.9838826773894
 21
138.38795136426938
  0
LINE
  8
_0-0_0
  6
CONTINUOUS
 62
    7
 10
1485.0436831807435
 20
137.18795136426945
 11
1488.3196673964908
 21
137.18795136426945
  0
LINE
  8
_0-0_0
  6
CONTINUOUS
 62
    7
 10
1443.9952797395792
 20
137.18795136426945
 11
1447.2712639553263
 21
137.18795136426945
  0
LINE
  8
_0-0_0
  6
CONTINUOUS
 62
    7
 10
1484.0378242454697
 20
135.98795136426935
 11
1490.3269605413027
 21
135.98795136426935
  0
LINE
  8
_0-0_0
  6
CONTINUOUS
 62
    7
 10
1441.9879865947673
 20
135.98795136426935
 11
1448.2771228906001
 21
135.98795136426935
  0
LINE
  8
_0-0_0
  6
CONTINUOUS
 62
    7
 10
1482.8860409651804
 20
134.78795136426942
 11
1492.3342536861146
 21
134.78795136426942
  0
LINE
  8
_0-0_0
  6
CONTINUOUS
 62
    7
 10
1439.9806934499561
 20
134.78795136426942
 11
1449.4289061708894
 21
134.78795136426942
  0
LINE
  8
_0-0_0
  6
CONTINUOUS
 62
    7
 10
1483.8590402905434
 20
133.58795136426932
 11
1492.3319457494172
 21
133.58795136426932
  0
LINE
  8
_0-0_0
  6
CONTINUOUS
 62
    7
 10
1439.9830013866517
 20
133.58795136426932
 11
1448.4559068455269
 21
133.58795136426932
  0
LINE
  8
_0-0_0
  6
CONTINUOUS
 62
    7
 10
1484.8974805255848
 20
132.38795136426938
 11
1491.4454355417975
 21
132.38795136426938
  0
LINE
  8
_0-0_0
  6
CONTINUOUS
 62
    7
 10
1479.9951403072789
 20
132.38795136426938
 11
1480.3831796976424
 21
132.38795136426938
  0
LINE
  8
_0-0_0
  6
CONTINUOUS
 62
    7
 10
1451.9317674384274
 20
132.38795136426938
 11
1452.3198068287909
 21
132.38795136426938
  0
LINE
  8
_0-0_0
  6
CONTINUOUS
 62
    7
 10
1440.8695115942737
 20
132.38795136426938
 11
1447.4174666104855
 21
132.38795136426938
  0
LINE
  8
_0-0_0
  6
CONTINUOUS
 62
    7
 10
1485.9359207606258
 20
131.18795136426928
 11
1490.4675341931961
 21
131.18795136426928
  0
LINE
  8
_0-0_0
  6
CONTINUOUS
 62
    7
 10
1478.1148582151561
 20
131.18795136426928
 11
1481.3593733991845
 21
131.18795136426928
  0
LINE
  8
_0-0_0
  6
CONTINUOUS
 62
    7
 10
1450.9555737368853
 20
131.18795136426928
 11
1454.2000889209137
 21
131.18795136426928
  0
LINE
  8
_0-0_0
  6
CONTINUOUS
 62
    7
 10
1441.8474129428789
 20
131.18795136426928
 11
1446.379026375444
 21
131.18795136426928
  0
LINE
  8
_0-0_0
  6
CONTINUOUS
 62
    7
 10
1486.9743609956672
 20
129.98795136426935
 11
1489.3867024491606
 21
129.98795136426935
  0
LINE
  8
_0-0_0
  6
CONTINUOUS
 62
    7
 10
1475.9827043849202
 20
129.98795136426935
 11
1482.3355671007266
 21
129.98795136426935
  0
LINE
  8
_0-0_0
  6
CONTINUOUS
 62
    7
 10
1449.9793800353432
 20
129.98795136426935
 11
1456.3322427511498
 21
129.98795136426935
  0
LINE
  8
_0-0_0
  6
CONTINUOUS
 62
    7
 10
1442.9282446868935
 20
129.98795136426935
 11
1445.3405861404028
 21
129.98795136426935
  0
LINE
  8
_0-0_0
  6
CONTINUOUS
 62
    7
 10
1488.0128012307084
 20
128.78795136426925
 11
1488.1877958812699
 21
128.78795136426925
  0
LINE
  8
_0-0_0
  6
CONTINUOUS
 62
    7
 10
1476.4402638500405
 20
128.78795136426925
 11
1483.311760802269
 21
128.78795136426925
  0
LINE
  8
_0-0_0
  6
CONTINUOUS
 62
    7
 10
1472.2677191625132
 20
128.78795136426925
 11
1472.789785671343
 21
128.78795136426925
  0
LINE
  8
_0-0_0
  6
CONTINUOUS
 62
    7
 10
1459.5251614647273
 20
128.78795136426925
 11
1460.0472279735566
 21
128.78795136426925
  0
LINE
  8
_0-0_0
  6
CONTINUOUS
 62
    7
 10
1449.0031863338008
 20
128.78795136426925
 11
1455.8746832860297
 21
128.78795136426925
  0
LINE
  8
_0-0_0
  6
CONTINUOUS
 62
    7
 10
1444.1271512548026
 20
128.78795136426925
 11
1444.3021459053614
 21
128.78795136426925
  0
LINE
  8
_0-0_0
  6
CONTINUOUS
 62
    7
 10
1476.8978233151602
 20
127.58795136426932
 11
1484.2879545038113
 21
127.58795136426932
  0
LINE
  8
_0-0_0
  6
CONTINUOUS
 62
    7
 10
1467.8681790308926
 20
127.58795136426932
 11
1473.2059838556979
 21
127.58795136426932
  0
LINE
  8
_0-0_0
  6
CONTINUOUS
 62
    7
 10
1459.1089632803721
 20
127.58795136426932
 11
1464.4467681051774
 21
127.58795136426932
  0
LINE
  8
_0-0_0
  6
CONTINUOUS
 62
    7
 10
1448.0269926322585
 20
127.58795136426932
 11
1455.4171238209096
 21
127.58795136426932
  0
LINE
  8
_0-0_0
  6
CONTINUOUS
 62
    7
 10
1477.3553827802805
 20
126.38795136426921
 11
1485.2641482053534
 21
126.38795136426921
  0
LINE
  8
_0-0_0
  6
CONTINUOUS
 62
    7
 10
1467.886439935698
 20
126.38795136426921
 11
1473.6221820400533
 21
126.38795136426921
  0
LINE
  8
_0-0_0
  6
CONTINUOUS
 62
    7
 10
1458.692765096017
 20
126.38795136426921
 11
1464.4285072003718
 21
126.38795136426921
  0
LINE
  8
_0-0_0
  6
CONTINUOUS
 62
    7
 10
1447.0507989307164
 20
126.38795136426921
 11
1454.9595643557896
 21
126.38795136426921
  0
LINE
  8
_0-0_0
  6
CONTINUOUS
 62
    7
 10
1477.8129422454008
 20
125.18795136426928
 11
1483.6294277135596
 21
125.18795136426928
  0
LINE
  8
_0-0_0
  6
CONTINUOUS
 62
    7
 10
1467.9047008405041
 20
125.18795136426928
 11
1474.0383802244082
 21
125.18795136426928
  0
LINE
  8
_0-0_0
  6
CONTINUOUS
 62
    7
 10
1458.2765669116618
 20
125.18795136426928
 11
1464.4102462955661
 21
125.18795136426928
  0
LINE
  8
_0-0_0
  6
CONTINUOUS
 62
    7
 10
1448.6855194225132
 20
125.18795136426928
 11
1454.5020048906695
 21
125.18795136426928
  0
LINE
  8
_0-0_0
  6
CONTINUOUS
 62
    7
 10
1478.2705017105204
 20
123.98795136426918
 11
1481.6328478276696
 21
123.98795136426918
  0
LINE
  8
_0-0_0
  6
CONTINUOUS
 62
    7
 10
1467.9229617453095
 20
123.98795136426918
 11
1474.4545784087636
 21
123.98795136426918
  0
LINE
  8
_0-0_0
  6
CONTINUOUS
 62
    7
 10
1457.8603687273066
 20
123.98795136426918
 11
1464.3919853907605
 21
123.98795136426918
  0
LINE
  8
_0-0_0
  6
CONTINUOUS
 62
    7
 10
1450.6820993083984
 20
123.98795136426918
 11
1454.0444454255494
 21
123.98795136426918
  0
LINE
  8
_0-0_0
  6
CONTINUOUS
 62
    7
 10
1478.7280611756407
 20
122.78795136426925
 11
1479.2274863946973
 21
122.78795136426925
  0
LINE
  8
_0-0_0
  6
CONTINUOUS
 62
    7
 10
1467.9412226501149
 20
122.78795136426925
 11
1474.8707765931185
 21
122.78795136426925
  0
LINE
  8
_0-0_0
  6
CONTINUOUS
 62
    7
 10
1457.4441705429515
 20
122.78795136426925
 11
1464.3737244859549
 21
122.78795136426925
  0
LINE
  8
_0-0_0
  6
CONTINUOUS
 62
    7
 10
1453.0874607413812
 20
122.78795136426925
 11
1453.5868859604293
 21
122.78795136426925
  0
LINE
  8
_0-0_0
  6
CONTINUOUS
 62
    7
 10
1467.959483554921
 20
121.58795136426914
 11
1475.2869747774739
 21
121.58795136426914
  0
LINE
  8
_0-0_0
  6
CONTINUOUS
 62
    7
 10
1457.0279723585963
 20
121.58795136426914
 11
1464.3554635811493
 21
121.58795136426914
  0
LINE
  8
_0-0_0
  6
CONTINUOUS
 62
    7
 10
1467.9777444597264
 20
120.38795136426921
 11
1471.1435831651797
 21
120.38795136426921
  0
LINE
  8
_0-0_0
  6
CONTINUOUS
 62
    7
 10
1461.1713639708964
 20
120.38795136426921
 11
1464.3372026763436
 21
120.38795136426921
  0
ARC
  8
_0-0_0
  6
CONTINUOUS
 62
    7
 10
1466.1574735680349
 20
151.99710685892614
 40
32
 50
153.27018715816948
 51
166.72981284183047
  0
ARC
  8
_0-0_0
  6
CONTINUOUS
 62
    7
 10
1466.1574735680349
 20
151.99710685892614
 40
32
 50
133.27018715816942
 51
146.72981284183058
  0
ARC
  8
_0-0_0
  6
CONTINUOUS
 62
    7
 10
1466.1574735680349
 20
151.99710685892614
 40
32
 50
113.27018715816948
 51
126.72981284183051
  0
ARC
  8
_0-0_0
  6
CONTINUOUS
 62
    7
 10
1466.1574735680349
 20
151.99710685892614
 40
32
 50
93.270187158169335
 51
106.72981284183044
  0
ARC
  8
_0-0_0
  6
CONTINUOUS
 62
    7
 10
1466.1574735680349
 20
151.99710685892614
 40
32
 50
73.270187158169449
 51
86.729812841830665
  0
ARC
  8
_0-0_0
  6
CONTINUOUS
 62
    7
 10
1466.1574735680349
 20
151.99710685892614
 40
32
 50
53.270187158169414
 51
66.729812841830523
  0
ARC
  8
_0-0_0
  6
CONTINUOUS
 62
    7
 10
1466.1574735680349
 20
151.99710685892614
 40
32
 50
33.27018715816947
 51
46.729812841830579
  0
ARC
  8
_0-0_0
  6
CONTINUOUS
 62
    7
 10
1466.1574735680349
 20
151.99710685892614
 40
32
 50
13.270187158169337
 51
26.729812841830555
  0
ARC
  8
_0-0_0
  6
CONTINUOUS
 62
    7
 10
1466.1574735680349
 20
151.99710685892614
 40
32
 50
353.27018715816928
 51
6.7298128418306318
  0
ARC
  8
_0-0_0
  6
CONTINUOUS
 62
    7
 10
1466.1574735680349
 20
151.99710685892614
 40
32
 50
333.27018715816951
 51
346.72981284183049
  0
ARC
  8
_0-0_0
  6
CONTINUOUS
 62
    7
 10
1466.1574735680349
 20
151.99710685892614
 40
32
 50
313.27018715816939
 51
326.72981284183061
  0
ARC
  8
_0-0_0
  6
CONTINUOUS
 62
    7
 10
1466.1574735680349
 20
151.99710685892614
 40
32
 50
293.27018715816951
 51
306.72981284183038
  0
ARC
  8
_0-0_0
  6
CONTINUOUS
 62
    7
 10
1466.1574735680349
 20
151.99710685892614
 40
32
 50
273.27018715816934
 51
286.72981284183038
  0
ARC
  8
_0-0_0
  6
CONTINUOUS
 62
    7
 10
1466.1574735680349
 20
151.99710685892614
 40
32
 50
253.27018715816928
 51
266.72981284183055
  0
ARC
  8
_0-0_0
  6
CONTINUOUS
 62
    7
 10
1466.1574735680349
 20
151.99710685892614
 40
32
 50
233.27018715816939
 51
246.72981284183052
  0
ARC
  8
_0-0_0
  6
CONTINUOUS
 62
    7
 10
1466.1574735680349
 20
151.99710685892614
 40
32
 50
213.27018715816945
 51
226.72981284183066
  0
ARC
  8
_0-0_0
  6
CONTINUOUS
 62
    7
 10
1466.1574735680349
 20
151.99710685892614
 40
32
 50
193.27018715816934
 51
206.72981284183055
  0
ARC
  8
_0-0_0
  6
CONTINUOUS
 62
    7
 10
1466.1574735680349
 20
151.99710685892614
 40
32
 50
173.27018715816936
 51
186.72981284183061
  0
LINE
  8
_0-0_0
  6
CONTINUOUS
 62
    7
 10
1453.515311911493
 20
181.39397316555585
 11
1456.3688741509859
 21
173.91019248036577
  0
LINE
  8
_0-0_0
  6
CONTINUOUS
 62
    7
 10
1447.0201213831097
 20
177.64397316555585
 11
1452.0744844530891
 21
171.43082543227996
  0
LINE
  8
_0-0_0
  6
CONTINUOUS
 62
    7
 10
1464.3320479761189
 20
183.94499914321267
 11
1464.4539156129572
 21
175.93656989161957
  0
LINE
  8
_0-0_0
  6
CONTINUOUS
 62
    7
 10
1456.9459898285277
 20
182.64263781071071
 11
1459.5705158299213
 21
175.0754947522845
  0
LINE
  8
_0-0_0
  6
CONTINUOUS
 62
    7
 10
1475.3689573075426
 20
182.64263781071071
 11
1472.7444313061485
 21
175.0754947522845
  0
LINE
  8
_0-0_0
  6
CONTINUOUS
 62
    7
 10
1467.9828991599509
 20
183.94499914321267
 11
1467.8610315231126
 21
175.93656989161957
  0
LINE
  8
_0-0_0
  6
CONTINUOUS
 62
    7
 10
1485.2948257529602
 20
177.64397316555585
 11
1480.2404626829809
 21
171.43082543227996
  0
LINE
  8
_0-0_0
  6
CONTINUOUS
 62
    7
 10
1478.7996352245768
 20
181.39397316555585
 11
1475.9460729850841
 21
173.91019248036594
  0
LINE
  8
_0-0_0
  6
CONTINUOUS
 62
    7
 10
1492.9124470876382
 20
169.55191793638699
 11
1486.0378777297672
 21
165.4421628411892
  0
LINE
  8
_0-0_0
  6
CONTINUOUS
 62
    7
 10
1488.0915400149891
 20
175.29725125977927
 11
1482.8504648930175
 21
169.24077354046631
  0
LINE
  8
_0-0_0
  6
CONTINUOUS
 62
    7
 10
1497.3030237544963
 20
159.34249340985758
 11
1489.4374226311311
 21
157.83182807074434
  0
LINE
  8
_0-0_0
  6
CONTINUOUS
 62
    7
 10
1494.7378726795541
 20
166.39018806575183
 11
1487.7414356848449
 21
162.49151390935634
  0
LINE
  8
_0-0_0
  6
CONTINUOUS
 62
    7
 10
1497.9369874095021
 20
148.24710685892614
 11
1490.0290621000299
 21
149.51773981084034
  0
LINE
  8
_0-0_0
  6
CONTINUOUS
 62
    7
 10
1497.9369874095021
 20
155.74710685892614
 11
1490.0290621000299
 21
154.47647390701195
  0
LINE
  8
_0-0_0
  6
CONTINUOUS
 62
    7
 10
1494.7378726795541
 20
137.60402565210029
 11
1487.7414356848449
 21
141.50269980849595
  0
LINE
  8
_0-0_0
  6
CONTINUOUS
 62
    7
 10
1497.3030237544963
 20
144.65172030799454
 11
1489.4374226311311
 21
146.16238564710795
  0
LINE
  8
_0-0_0
  6
CONTINUOUS
 62
    7
 10
1488.0915400149891
 20
128.69696245807302
 11
1482.8504648930175
 21
134.75344017738615
  0
LINE
  8
_0-0_0
  6
CONTINUOUS
 62
    7
 10
1492.9124470876377
 20
134.4422957814653
 11
1486.0378777297672
 21
138.55205087666309
  0
LINE
  8
_0-0_0
  6
CONTINUOUS
 62
    7
 10
1478.7996352245768
 20
122.60024055229644
 11
1475.9460729850841
 21
130.08402123748635
  0
LINE
  8
_0-0_0
  6
CONTINUOUS
 62
    7
 10
1485.2948257529602
 20
126.35024055229627
 11
1480.2404626829809
 21
132.56338828557216
  0
LINE
  8
_0-0_0
  6
CONTINUOUS
 62
    7
 10
1467.9828991599509
 20
120.04921457463945
 11
1467.8610315231128
 21
128.05764382623272
  0
LINE
  8
_0-0_0
  6
CONTINUOUS
 62
    7
 10
1475.3689573075426
 20
121.35157590714141
 11
1472.7444313061485
 21
128.91871896556779
  0
LINE
  8
_0-0_0
  6
CONTINUOUS
 62
    7
 10
1456.9459898285277
 20
121.35157590714158
 11
1459.5705158299213
 21
128.91871896556779
  0
LINE
  8
_0-0_0
  6
CONTINUOUS
 62
    7
 10
1464.3320479761189
 20
120.04921457463962
 11
1464.4539156129572
 21
128.05764382623272
  0
LINE
  8
_0-0_0
  6
CONTINUOUS
 62
    7
 10
1447.0201213831097
 20
126.35024055229644
 11
1452.0744844530891
 21
132.56338828557216
  0
LINE
  8
_0-0_0
  6
CONTINUOUS
 62
    7
 10
1453.515311911493
 20
122.60024055229644
 11
1456.3688741509859
 21
130.08402123748635
  0
LINE
  8
_0-0_0
  6
CONTINUOUS
 62
    7
 10
1439.4025000484321
 20
134.4422957814653
 11
1446.2770694063029
 21
138.55205087666292
  0
LINE
  8
_0-0_0
  6
CONTINUOUS
 62
    7
 10
1444.223407121081
 20
128.69696245807302
 11
1449.4644822430523
 21
134.75344017738598
  0
LINE
  8
_0-0_0
  6
CONTINUOUS
 62
    7
 10
1435.0119233815735
 20
144.65172030799471
 11
1442.8775245049387
 21
146.16238564710778
  0
LINE
  8
_0-0_0
  6
CONTINUOUS
 62
    7
 10
1437.5770744565161
 20
137.60402565210029
 11
1444.5735114512249
 21
141.50269980849578
  0
LINE
  8
_0-0_0
  6
CONTINUOUS
 62
    7
 10
1434.377959726568
 20
155.74710685892614
 11
1442.2858850360399
 21
154.47647390701195
  0
LINE
  8
_0-0_0
  6
CONTINUOUS
 62
    7
 10
1434.377959726568
 20
148.24710685892614
 11
1442.2858850360399
 21
149.51773981084017
  0
LINE
  8
_0-0_0
  6
CONTINUOUS
 62
    7
 10
1437.5770744565161
 20
166.390188065752
 11
1444.5735114512249
 21
162.49151390935634
  0
LINE
  8
_0-0_0
  6
CONTINUOUS
 62
    7
 10
1435.0119233815735
 20
159.34249340985758
 11
1442.8775245049387
 21
157.83182807074434
  0
LINE
  8
_0-0_0
  6
CONTINUOUS
 62
    7
 10
1444.223407121081
 20
175.29725125977927
 11
1449.4644822430523
 21
169.24077354046614
  0
LINE
  8
_0-0_0
  6
CONTINUOUS
 62
    7
 10
1439.4025000484321
 20
169.55191793638681
 11
1446.2770694063029
 21
165.4421628411892
  0
LINE
  8
_0-0_0
  6
CONTINUOUS
 62
    7
 10
1504.4214898115852
 20
125.5752397615139
 11
1491.8043398746645
 21
132.8597546740009
  0
LINE
  8
_0-0_0
  6
CONTINUOUS
 62
    7
 10
1508.1714898115852
 20
132.07043028989722
 11
1495.5543398746645
 21
139.35494520238422
  0
LINE
  8
_0-0_0
  6
CONTINUOUS
 62
    7
 10
1427.8934573244846
 20
125.5752397615139
 11
1440.5106072614053
 21
132.8597546740009
  0
LINE
  8
_0-0_0
  6
CONTINUOUS
 62
    7
 10
1424.1434573244846
 20
132.07043028989722
 11
1436.7606072614053
 21
139.35494520238422
  0
LINE
  8
_0-0_0
  6
CONTINUOUS
 62
    7
 10
1462.4074735680349
 20
198.34565052536715
 11
1462.4074735680349
 21
183.77662070039315
  0
LINE
  8
_0-0_0
  6
CONTINUOUS
 62
    7
 10
1469.9074735680349
 20
198.34565052536715
 11
1469.9074735680349
 21
183.77662070039315
  0
CIRCLE
  8
_0-0_0
  6
CONTINUOUS
 62
    7
 10
1466.1574735680349
 20
151.99710685892614
 40
23.999999999999996
  0
CIRCLE
  8
_0-0_0
  6
CONTINUOUS
 62
    7
 10
1466.1574735680349
 20
151.99710685892614
 40
20
  0
LINE
  8
_0-5_D-BYP-STR1
  6
CONTINUOUS
 62
    7
 10
1348.4157554236724
 20
198.49710685892614
 11
1309.754893878533
 21
198.49710685892614
  0
LINE
  8
_0-5_D-BYP-STR1
  6
CONTINUOUS
 62
    7
 10
1348.4157554236724
 20
105.49710685892614
 11
1309.754893878533
 21
105.49710685892614
  0
LINE
  8
_0-5_D-BYP-STR1
  6
CONTINUOUS
 62
    7
 10
1309.754893878533
 20
105.49710685892614
 11
1309.754893878533
 21
198.49710685892614
  0
CIRCLE
  8
_0-0_0
  6
CONTINUOUS
 62
    7
 10
1466.1574735680349
 20
151.99710685892614
 40
46.5
  0
LINE
  8
_0-0_0
  6
CONTINUOUS
 62
    7
 10
1472.3435261930197
 20
136.78254941367533
 11
1473.0839164098966
 21
135.50015594061779
  0
LINE
  8
_0-0_0
  6
CONTINUOUS
 62
    7
 10
1459.2310307262887
 20
135.50015594055742
 11
1459.9714209431654
 21
136.78254941361496
  0
LINE
  8
_0-0_0
  6
CONTINUOUS
 62
    7
 10
1463.9074735681006
 20
135.72788729142962
 11
1463.9074735681006
 21
134.24710685767593
  0
LINE
  8
_0-0_0
  6
CONTINUOUS
 62
    7
 10
1468.4074735681006
 20
134.24710685767593
 11
1468.4074735681006
 21
135.72788729142962
  0
LINE
  8
_0-0_0
  6
CONTINUOUS
 62
    7
 10
1476.9810307269267
 20
137.75015594061779
 11
1476.2406405100496
 21
139.03254941367533
  0
LINE
  8
_0-0_0
  6
CONTINUOUS
 62
    7
 10
1456.0743066261357
 20
139.03254941361513
 11
1455.3339164092586
 21
137.75015594055742
  0
LINE
  8
_0-0_0
  6
CONTINUOUS
 62
    7
 10
1479.1220310127392
 20
141.91393991640894
 11
1480.4044244857969
 21
141.17354969953209
  0
LINE
  8
_0-0_0
  6
CONTINUOUS
 62
    7
 10
1450.9429161234023
 20
145.81105423333429
 11
1449.6605226503445
 21
145.07066401645744
  0
LINE
  8
_0-0_0
  6
CONTINUOUS
 62
    7
 10
1451.9105226503445
 20
141.17354969942738
 11
1453.1929161234023
 21
141.91393991630423
  0
LINE
  8
_0-0_0
  6
CONTINUOUS
 62
    7
 10
1482.6544244857969
 20
145.07066401656198
 11
1481.3720310127392
 21
145.81105423343882
  0
LINE
  8
_0-0_0
  6
CONTINUOUS
 62
    7
 10
1482.4266931349243
 20
149.74710685837397
 11
1483.9074735686784
 21
149.74710685837397
  0
LINE
  8
_0-0_0
  6
CONTINUOUS
 62
    7
 10
1448.4074735674026
 20
149.74710685825323
 11
1449.8882540011564
 21
149.74710685825323
  0
LINE
  8
_0-0_0
  6
CONTINUOUS
 62
    7
 10
1449.8882540011564
 20
154.24710685825323
 11
1448.4074735674026
 21
154.24710685825323
  0
LINE
  8
_0-0_0
  6
CONTINUOUS
 62
    7
 10
1483.9074735686784
 20
154.24710685837397
 11
1482.4266931349243
 21
154.24710685837397
  0
LINE
  8
_0-0_0
  6
CONTINUOUS
 62
    7
 10
1481.3720310126787
 20
158.18315948329308
 11
1482.6544244857362
 21
158.92354970016993
  0
LINE
  8
_0-0_0
  6
CONTINUOUS
 62
    7
 10
1449.6605226502838
 20
158.92354970006522
 11
1450.9429161233415
 21
158.18315948318838
  0
LINE
  8
_0-0_0
  6
CONTINUOUS
 62
    7
 10
1453.1929161233415
 20
162.08027380021844
 11
1451.9105226502838
 21
162.82066401709528
  0
LINE
  8
_0-0_0
  6
CONTINUOUS
 62
    7
 10
1480.4044244857364
 20
162.82066401719982
 11
1479.1220310126787
 21
162.08027380032297
  0
LINE
  8
_0-0_0
  6
CONTINUOUS
 62
    7
 10
1476.240640509945
 20
164.96166430301241
 11
1476.9810307268224
 21
166.24405777607012
  0
LINE
  8
_0-0_0
  6
CONTINUOUS
 62
    7
 10
1473.083916409792
 20
168.49405777607012
 11
1472.3435261929153
 21
167.21166430301241
  0
LINE
  8
_0-0_0
  6
CONTINUOUS
 62
    7
 10
1463.9074735679803
 20
169.74710685895161
 11
1463.9074735679803
 21
168.26632642519792
  0
LINE
  8
_0-0_0
  6
CONTINUOUS
 62
    7
 10
1459.971420943061
 20
167.21166430295187
 11
1459.2310307261844
 21
168.49405777600975
  0
LINE
  8
_0-0_0
  6
CONTINUOUS
 62
    7
 10
1455.3339164091547
 20
166.24405777600975
 11
1456.0743066260313
 21
164.96166430295204
  0
LINE
  8
_0-0_0
  6
CONTINUOUS
 62
    7
 10
1468.4074735679803
 20
168.26632642519758
 11
1468.4074735679803
 21
169.74710685895161
  0
CIRCLE
  8
_0-0_0
  6
CONTINUOUS
 62
    7
 10
1466.1574735679819
 20
151.99710685892614
 40
12.00000000000024
  0
ARC
  8
_0-0_0
  6
CONTINUOUS
 62
    7
 10
1457.2824735677739
 20
136.62515594055742
 40
2.2499999999999978
 50
149.99999999999983
 51
329.99999999999983
  0
ARC
  8
_0-0_0
  6
CONTINUOUS
 62
    7
 10
1466.1574735681006
 20
151.99710685767582
 40
15.999999999999989
 50
279.59406879190908
 51
290.40593120927889
  0
ARC
  8
_0-0_0
  6
CONTINUOUS
 62
    7
 10
1471.9105133243868
 20
136.53254931740764
 40
0.5000001925355759
 50
30.000000000008516
 51
110.40593120808607
  0
ARC
  8
_0-0_0
  6
CONTINUOUS
 62
    7
 10
1463.4074733755654
 20
135.72788729142962
 40
0.5000001925355738
 50
0
 51
80.405931208091985
  0
ARC
  8
_0-0_0
  6
CONTINUOUS
 62
    7
 10
1466.1574735681006
 20
134.24710685767593
 40
2.2499999999999991
 50
180
 51
0
  0
ARC
  8
_0-0_0
  6
CONTINUOUS
 62
    7
 10
1468.9074737606361
 20
135.72788729142962
 40
0.5000001925356434
 50
99.594068791907958
 51
180
  0
ARC
  8
_0-0_0
  6
CONTINUOUS
 62
    7
 10
1466.1574735677736
 20
151.99710685773107
 40
16
 50
249.59406879190897
 51
260.40593120927895
  0
ARC
  8
_0-0_0
  6
CONTINUOUS
 62
    7
 10
1476.6736533786825
 20
139.28254950994318
 40
0.5000001925356444
 50
129.59406879191445
 51
210.0000000000052
  0
ARC
  8
_0-0_0
  6
CONTINUOUS
 62
    7
 10
1460.404433811799
 20
136.5325493173471
 40
0.5000001925356436
 50
69.594068791913898
 51
150.00000000000924
  0
ARC
  8
_0-0_0
  6
CONTINUOUS
 62
    7
 10
1475.0324735684119
 20
136.62515594061762
 40
2.2499999999999991
 50
210.00000000000023
 51
30.00000000000027
  0
ARC
  8
_0-0_0
  6
CONTINUOUS
 62
    7
 10
1478.8720309164717
 20
141.48092704777588
 40
0.5000001925355731
 50
60.000000000002885
 51
140.40593120809055
  0
ARC
  8
_0-0_0
  6
CONTINUOUS
 62
    7
 10
1455.6412937575028
 20
139.28254950988281
 40
0.5000001925355741
 50
330.00000000000608
 51
50.405931208090536
  0
ARC
  8
_0-0_0
  6
CONTINUOUS
 62
    7
 10
1453.4429162196698
 20
141.48092704767134
 40
0.5000001925356434
 50
39.594068791905279
 51
120.00000000000195
  0
ARC
  8
_0-0_0
  6
CONTINUOUS
 62
    7
 10
1466.1574735684114
 20
151.99710685779144
 40
15.999999999999989
 50
309.59406879190919
 51
320.40593120927849
  0
ARC
  8
_0-0_0
  6
CONTINUOUS
 62
    7
 10
1466.1574735675181
 20
151.99710685794253
 40
15.999999999999989
 50
219.59406879190919
 51
230.4059312092788
  0
ARC
  8
_0-0_0
  6
CONTINUOUS
 62
    7
 10
1481.5294244857969
 20
143.12210685804712
 40
2.2499999999999978
 50
239.99999999999983
 51
59.999999999999829
  0
ARC
  8
_0-0_0
  6
CONTINUOUS
 62
    7
 10
1450.7855226503445
 20
143.12210685794241
 40
2.2499999999999978
 50
120.00000000000017
 51
300.00000000000011
  0
ARC
  8
_0-0_0
  6
CONTINUOUS
 62
    7
 10
1466.1574735686229
 20
151.99710685804706
 40
16
 50
339.59406879190874
 51
350.40593120927866
  0
ARC
  8
_0-0_0
  6
CONTINUOUS
 62
    7
 10
1481.6220311090069
 20
146.24406710207188
 40
0.5000001925356452
 50
159.59406879190777
 51
239.99999999999801
  0
ARC
  8
_0-0_0
  6
CONTINUOUS
 62
    7
 10
1450.6929160271343
 20
146.24406710196718
 40
0.500000192535575
 50
300.00000000000284
 51
20.405931208094412
  0
ARC
  8
_0-0_0
  6
CONTINUOUS
 62
    7
 10
1466.1574735674026
 20
151.99710685825323
 40
16
 50
189.59406879190871
 51
200.40593120927878
  0
ARC
  8
_0-0_0
  6
CONTINUOUS
 62
    7
 10
1449.8882540011564
 20
149.24710666571769
 40
0.5000001925356436
 50
9.5940687919144203
 51
89.999999999999986
  0
ARC
  8
_0-0_0
  6
CONTINUOUS
 62
    7
 10
1466.1574735686781
 20
151.99710685837397
 40
16
 50
9.594068791909077
 51
20.405931209279114
  0
ARC
  8
_0-0_0
  6
CONTINUOUS
 62
    7
 10
1482.4266931349243
 20
149.2471066658386
 40
0.5000001925355737
 50
90
 51
170.40593120809734
  0
ARC
  8
_0-0_0
  6
CONTINUOUS
 62
    7
 10
1448.4074735674026
 20
151.99710685825323
 40
2.2499999999999964
 50
90
 51
270
  0
ARC
  8
_0-0_0
  6
CONTINUOUS
 62
    7
 10
1449.8882540011564
 20
154.74710705078894
 40
0.5000001925355721
 50
270
 51
350.40593120809751
  0
ARC
  8
_0-0_0
  6
CONTINUOUS
 62
    7
 10
1482.4266931349243
 20
154.74710705090968
 40
0.5000001925356445
 50
189.59406879191434
 51
270
  0
ARC
  8
_0-0_0
  6
CONTINUOUS
 62
    7
 10
1483.9074735686784
 20
151.99710685837397
 40
2.2499999999999991
 50
270
 51
90
  0
ARC
  8
_0-0_0
  6
CONTINUOUS
 62
    7
 10
1466.1574735674578
 20
151.99710685858031
 40
16
 50
159.59406879190928
 51
170.40593120927869
  0
ARC
  8
_0-0_0
  6
CONTINUOUS
 62
    7
 10
1450.692916027074
 20
157.75014661455532
 40
0.5000001925356436
 50
339.59406879190783
 51
60.000000000003872
  0
ARC
  8
_0-0_0
  6
CONTINUOUS
 62
    7
 10
1481.6220311089467
 20
157.75014661466003
 40
0.5000001925355711
 50
119.99999999999717
 51
200.40593120808228
  0
ARC
  8
_0-0_0
  6
CONTINUOUS
 62
    7
 10
1450.7855226502838
 20
160.87210685858042
 40
2.2499999999999964
 50
60.000000000001002
 51
239.99999999999977
  0
ARC
  8
_0-0_0
  6
CONTINUOUS
 62
    7
 10
1478.8720309164109
 20
162.51328666895603
 40
0.5000001925356447
 50
219.59406879190519
 51
300.00000000000188
  0
ARC
  8
_0-0_0
  6
CONTINUOUS
 62
    7
 10
1481.5294244857364
 20
160.87210685868496
 40
2.25
 50
300.00000000000023
 51
120.0000000000002
  0
ARC
  8
_0-0_0
  6
CONTINUOUS
 62
    7
 10
1466.1574735685629
 20
151.99710685868502
 40
16
 50
39.594068791909194
 51
50.405931209278897
  0
ARC
  8
_0-0_0
  6
CONTINUOUS
 62
    7
 10
1453.4429162196097
 20
162.51328666885132
 40
0.500000192535572
 50
239.99999999999719
 51
320.40593120809058
  0
ARC
  8
_0-0_0
  6
CONTINUOUS
 62
    7
 10
1466.1574735676693
 20
151.99710685883593
 40
16
 50
129.59406879190919
 51
140.40593120927898
  0
ARC
  8
_0-0_0
  6
CONTINUOUS
 62
    7
 10
1476.6736533785779
 20
164.71166420674456
 40
0.5000001925355711
 50
150.00000000000608
 51
230.40593120809049
  0
ARC
  8
_0-0_0
  6
CONTINUOUS
 62
    7
 10
1455.6412937573984
 20
164.71166420668419
 40
0.5000001925356426
 50
309.59406879190107
 51
30.000000000005155
  0
ARC
  8
_0-0_0
  6
CONTINUOUS
 62
    7
 10
1471.9105133242824
 20
167.46166439928027
 40
0.5000001925356426
 50
249.59406879190777
 51
330.00000000000932
  0
ARC
  8
_0-0_0
  6
CONTINUOUS
 62
    7
 10
1468.9074737605154
 20
168.26632642519758
 40
0.5000001925355717
 50
180
 51
260.405931208092
  0
ARC
  8
_0-0_0
  6
CONTINUOUS
 62
    7
 10
1463.4074733754442
 20
168.26632642519792
 40
0.5000001925356416
 50
279.59406879191431
 51
0.0000000000000127
  0
ARC
  8
_0-0_0
  6
CONTINUOUS
 62
    7
 10
1466.1574735679803
 20
151.99710685895155
 40
16
 50
99.594068791908981
 51
110.40593120927871
  0
ARC
  8
_0-0_0
  6
CONTINUOUS
 62
    7
 10
1460.4044338116939
 20
167.4616643992199
 40
0.5000001925355728
 50
210.00000000000841
 51
290.40593120809672
  0
ARC
  8
_0-0_0
  6
CONTINUOUS
 62
    7
 10
1457.2824735676691
 20
167.36905777600958
 40
2.249999999999996
 50
30.00000000000022
 51
210.00000000000009
  0
ARC
  8
_0-0_0
  6
CONTINUOUS
 62
    7
 10
1466.1574735683071
 20
151.9971068588963
 40
16
 50
69.59406879190901
 51
80.40593120927899
  0
ARC
  8
_0-0_0
  6
CONTINUOUS
 62
    7
 10
1466.1574735679803
 20
169.74710685895161
 40
2.249999999999996
 50
0
 51
180
  0
ARC
  8
_0-0_0
  6
CONTINUOUS
 62
    7
 10
1475.0324735683068
 20
167.36905777607012
 40
2.249999999999996
 50
329.99999999999977
 51
149.99999999999983
  0
TEXT
  8
_0-5_D-BYP-STR1
 62
    7
 10
1309.754893878533
 20
136.99710685892614
 40
15
 41
1
 50
90
  1
φ93
  0
LINE
  8
_0-0_0
  6
CONTINUOUS
 62
    7
 10
1363.3015272878215
 20
1009.3548747584939
 11
1308.24545632428
 21
1009.3548747584939
  0
LINE
  8
_0-0_0
  6
CONTINUOUS
 62
    7
 10
1308.24545632428
 20
759.35495481761313
 11
1308.24545632428
 21
1059.3548587466705
  0
TEXT
  8
_0-0_0
 62
    7
 10
1304.4954563242795
 20
1026.8548667525815
 40
15
 41
1
 50
90
  1
50
  0
LINE
  8
_0-0_0
  6
CONTINUOUS
 62
    7
 10
1363.3015272878215
 20
959.35489077031798
 11
1308.24545632428
 21
959.35489077031798
  0
TEXT
  8
_0-0_0
 62
    7
 10
1304.4954563242795
 20
976.85488276440594
 40
15
 41
1
 50
90
  1
50
  0
LINE
  8
_0-0_0
  6
CONTINUOUS
 62
    7
 10
1363.3015272878215
 20
909.35490678214182
 11
1308.24545632428
 21
909.35490678214182
  0
TEXT
  8
_0-0_0
 62
    7
 10
1304.4954563242795
 20
926.85489877623013
 40
15
 41
1
 50
90
  1
50
  0
LINE
  8
_0-0_0
  6
CONTINUOUS
 62
    7
 10
1363.3015272878215
 20
859.35492279396533
 11
1308.24545632428
 21
859.35492279396533
  0
TEXT
  8
_0-0_0
 62
    7
 10
1304.4954563242795
 20
876.85491478805329
 40
15
 41
1
 50
90
  1
50
  0
LINE
  8
_0-0_0
  6
CONTINUOUS
 62
    7
 10
1363.3015272878215
 20
809.35493880578952
 11
1308.24545632428
 21
809.35493880578952
  0
TEXT
  8
_0-0_0
 62
    7
 10
1304.49545632428
 20
826.85493079987748
 40
15
 41
1
 50
90
  1
50
  0
LINE
  8
_0-0_0
  6
CONTINUOUS
 62
    7
 10
1363.3015272878215
 20
759.35495481761313
 11
1308.24545632428
 21
759.35495481761313
  0
TEXT
  8
_0-0_0
 62
    7
 10
1304.49545632428
 20
776.85494681170121
 40
15
 41
1
 50
90
  1
50
  0
LINE
  8
_0-0_0
  6
CONTINUOUS
 62
    7
 10
1426.1575614056846
 20
1090.5673221610234
 11
1506.1575614056846
 21
1090.5673221610234
  0
LINE
  8
_0-0_0
  6
CONTINUOUS
 62
    7
 10
1426.1575614056846
 20
1070.1392050853303
 11
1426.1575614056846
 21
1090.5673221610234
  0
LINE
  8
_0-0_0
  6
CONTINUOUS
 62
    7
 10
1506.1575614056846
 20
1070.1392050853303
 11
1506.1575614056846
 21
1090.5673221610234
  0
CIRCLE
  8
_0-0_0
  6
CONTINUOUS
 62
    7
 10
1466.1575614056846
 20
1173.0231084596089
 40
5
  0
CIRCLE
  8
_0-0_0
  6
CONTINUOUS
 62
    7
 10
1466.1575614056846
 20
1173.0231084596089
 40
46
  0
CIRCLE
  8
_0-0_0
  6
DASHED2
 62
    7
 10
1466.1575614056846
 20
1173.0231084596089
 40
42.5
  0
LINE
  8
_0-0_0
  6
CONTINUOUS
 62
    7
 10
1420.1575614056846
 20
1211.6234216835614
 11
1420.1575614056846
 21
1249.8054132304692
  0
LINE
  8
_0-0_0
  6
CONTINUOUS
 62
    7
 10
1512.1575614056846
 20
1211.6234216835614
 11
1512.1575614056846
 21
1249.8054132304692
  0
LINE
  8
_0-0_0
  6
CONTINUOUS
 62
    7
 10
1420.1575614056846
 20
1249.8054132304692
 11
1512.1575614056846
 21
1249.8054132304692
  0
TEXT
  8
_0-0_0
 62
    7
 10
1447.4075614056846
 20
1249.8054132304692
 40
15
 41
1
 50
0
  1
86±2
  0
TEXT
  8
_0-0_0
 62
    7
 10
1447.4075614056846
 20
1090.5673221610234
 40
15
 41
1
 50
0
  1
80±2
  0
LINE
  8
_0-0_0
  6
AI9-LType4
 62
    7
 10
1466.1575614056846
 20
1107.2472138795124
 11
1466.1575614056846
 21
1235.166346951713
  0
LINE
  8
_0-0_0
  6
CONTINUOUS
 62
    7
 10
1363.3015272878215
 20
1059.3548587466705
 11
1231.7749184990253
 21
1059.3548587466705
  0
LINE
  8
_0-0_0
  6
CONTINUOUS
 62
    7
 10
1431.1575614056846
 20
1020.3548587466705
 11
1431.1575614056846
 21
714.35485874667029
  0
LINE
  8
_0-0_0
  6
CONTINUOUS
 62
    7
 10
1441.1575614056846
 20
1020.3548587466705
 11
1441.1575614056846
 21
714.35485874667029
  0
LINE
  8
_0-0_0
  6
CONTINUOUS
 62
    7
 10
1451.1575614056846
 20
714.35485874667029
 11
1451.1575614056846
 21
1020.3548587466705
  0
LINE
  8
_0-0_0
  6
CONTINUOUS
 62
    7
 10
1461.1575614056846
 20
714.35485874667029
 11
1461.1575614056846
 21
1020.3548587466705
  0
LINE
  8
_0-0_0
  6
CONTINUOUS
 62
    7
 10
1471.1575614056846
 20
714.35485874667029
 11
1471.1575614056846
 21
1020.3548587466705
  0
LINE
  8
_0-0_0
  6
CONTINUOUS
 62
    7
 10
1481.1575614056842
 20
714.35485874667029
 11
1481.1575614056842
 21
1020.3548587466705
  0
LINE
  8
_0-0_0
  6
CONTINUOUS
 62
    7
 10
1491.1575614056846
 20
714.35485874667029
 11
1491.1575614056846
 21
1020.3548587466705
  0
LINE
  8
_0-0_0
  6
CONTINUOUS
 62
    7
 10
1501.1575614056846
 20
714.35485874667029
 11
1501.1575614056846
 21
1020.3548587466705
  0
ARC
  8
_0-0_0
  6
CONTINUOUS
 62
    7
 10
1426.1575614056846
 20
714.35485874667029
 40
5
 50
270
 51
0
  0
ARC
  8
_0-0_0
  6
CONTINUOUS
 62
    7
 10
1446.1575614056846
 20
714.35485874667029
 40
5
 50
180
 51
0
  0
ARC
  8
_0-0_0
  6
CONTINUOUS
 62
    7
 10
1466.1575614056846
 20
714.35485874667029
 40
5
 50
180
 51
0
  0
ARC
  8
_0-0_0
  6
CONTINUOUS
 62
    7
 10
1486.1575614056846
 20
714.35485874667029
 40
5
 50
180
 51
0
  0
ARC
  8
_0-0_0
  6
CONTINUOUS
 62
    7
 10
1506.1575614056846
 20
714.35485874667029
 40
5
 50
180
 51
270
  0
ARC
  8
_0-0_0
  6
CONTINUOUS
 62
    7
 10
1436.1575614056846
 20
1020.3548587466705
 40
5
 50
0
 51
180
  0
ARC
  8
_0-0_0
  6
CONTINUOUS
 62
    7
 10
1456.1575614056846
 20
1020.3548587466705
 40
5
 50
0
 51
180
  0
ARC
  8
_0-0_0
  6
CONTINUOUS
 62
    7
 10
1476.1575614056846
 20
1020.3548587466705
 40
5
 50
0
 51
180
  0
ARC
  8
_0-0_0
  6
CONTINUOUS
 62
    7
 10
1496.1575614056846
 20
1020.3548587466705
 40
5
 50
0
 51
180
  0
LINE
  8
_0-0_0
  6
DASHED2
 62
    7
 10
1426.1575614056846
 20
1029.3548587466705
 11
1426.1575614056846
 21
1059.3548587466705
  0
LINE
  8
_0-0_0
  6
DASHED2
 62
    7
 10
1506.1575614056846
 20
1029.3548587466705
 11
1506.1575614056846
 21
1059.3548587466705
  0
LINE
  8
_0-0_0
  6
CONTINUOUS
 62
    7
 10
1426.1575614056846
 20
1059.3548587466705
 11
1506.1575614056846
 21
1059.3548587466705
  0
LINE
  8
_0-0_0
  6
CONTINUOUS
 62
    7
 10
1423.1575614056846
 20
1059.3548587466705
 11
1509.1575614056846
 21
1059.3548587466705
  0
LINE
  8
_0-0_0
  6
CONTINUOUS
 62
    7
 10
1509.1575614056846
 20
1059.3548587466705
 11
1509.1575614056846
 21
1029.3548587466705
  0
LINE
  8
_0-0_0
  6
CONTINUOUS
 62
    7
 10
1509.1575614056846
 20
1029.3548587466705
 11
1423.1575614056846
 21
1029.3548587466705
  0
LINE
  8
_0-0_0
  6
CONTINUOUS
 62
    7
 10
1423.1575614056846
 20
1029.3548587466705
 11
1423.1575614056846
 21
1059.3548587466705
  0
LINE
  8
_0-0_0
  6
CONTINUOUS
 62
    7
 10
1426.1575614056846
 20
709.35485874667029
 11
1426.1575614056846
 21
1029.3548587466705
  0
LINE
  8
_0-0_0
  6
CONTINUOUS
 62
    7
 10
1506.1575614056846
 20
1029.3548587466705
 11
1506.1575614056846
 21
709.35485874667029
  0
LINE
  8
_0-0_0
  6
CONTINUOUS
 62
    7
 10
1431.1575614056846
 20
1009.3548747584939
 11
1441.1575614056846
 21
1009.3548747584939
  0
LINE
  8
_0-0_0
  6
CONTINUOUS
 62
    7
 10
1431.1575614056846
 20
759.35495481761313
 11
1441.1575614056846
 21
759.35495481761313
  0
LINE
  8
_0-0_0
  6
CONTINUOUS
 62
    7
 10
1431.1575614056846
 20
959.35489077031798
 11
1441.1575614056846
 21
959.35489077031798
  0
LINE
  8
_0-0_0
  6
CONTINUOUS
 62
    7
 10
1431.1575614056846
 20
965.88171947795058
 11
1441.1575614056846
 21
965.88171947795058
  0
LINE
  8
_0-0_0
  6
CONTINUOUS
 62
    7
 10
1431.1575614056846
 20
971.88171947795058
 11
1441.1575614056846
 21
971.88171947795058
  0
LINE
  8
_0-0_0
  6
CONTINUOUS
 62
    7
 10
1431.1575614056846
 20
977.88171947795058
 11
1441.1575614056846
 21
977.88171947795058
  0
LINE
  8
_0-0_0
  6
CONTINUOUS
 62
    7
 10
1431.1575614056846
 20
983.88171947795058
 11
1441.1575614056846
 21
983.88171947795058
  0
LINE
  8
_0-0_0
  6
CONTINUOUS
 62
    7
 10
1431.1575614056846
 20
989.88171947795058
 11
1441.1575614056846
 21
989.88171947795058
  0
LINE
  8
_0-0_0
  6
CONTINUOUS
 62
    7
 10
1431.1575614056846
 20
995.88171947795058
 11
1441.1575614056846
 21
995.88171947795058
  0
LINE
  8
_0-0_0
  6
CONTINUOUS
 62
    7
 10
1431.1575614056846
 20
1001.8817194779506
 11
1441.1575614056846
 21
1001.8817194779506
  0
LINE
  8
_0-0_0
  6
CONTINUOUS
 62
    7
 10
1431.1575614056846
 20
909.35490678214182
 11
1441.1575614056846
 21
909.35490678214182
  0
LINE
  8
_0-0_0
  6
CONTINUOUS
 62
    7
 10
1431.1575614056846
 20
859.35492279396533
 11
1441.1575614056846
 21
859.35492279396533
  0
LINE
  8
_0-0_0
  6
CONTINUOUS
 62
    7
 10
1431.1575614056846
 20
809.35493880578952
 11
1441.1575614056846
 21
809.35493880578952
  0
LINE
  8
_0-0_0
  6
CONTINUOUS
 62
    7
 10
1431.1575614056846
 20
865.8817515015985
 11
1441.1575614056846
 21
865.8817515015985
  0
LINE
  8
_0-0_0
  6
CONTINUOUS
 62
    7
 10
1431.1575614056846
 20
871.8817515015985
 11
1441.1575614056846
 21
871.8817515015985
  0
LINE
  8
_0-0_0
  6
CONTINUOUS
 62
    7
 10
1431.1575614056846
 20
877.8817515015985
 11
1441.1575614056846
 21
877.8817515015985
  0
LINE
  8
_0-0_0
  6
CONTINUOUS
 62
    7
 10
1431.1575614056846
 20
883.8817515015985
 11
1441.1575614056846
 21
883.8817515015985
  0
LINE
  8
_0-0_0
  6
CONTINUOUS
 62
    7
 10
1431.1575614056846
 20
889.8817515015985
 11
1441.1575614056846
 21
889.8817515015985
  0
LINE
  8
_0-0_0
  6
CONTINUOUS
 62
    7
 10
1431.1575614056846
 20
895.8817515015985
 11
1441.1575614056846
 21
895.8817515015985
  0
LINE
  8
_0-0_0
  6
CONTINUOUS
 62
    7
 10
1431.1575614056846
 20
901.8817515015985
 11
1441.1575614056846
 21
901.8817515015985
  0
LINE
  8
_0-0_0
  6
CONTINUOUS
 62
    7
 10
1431.1575614056846
 20
765.88178352524619
 11
1441.1575614056846
 21
765.88178352524619
  0
LINE
  8
_0-0_0
  6
CONTINUOUS
 62
    7
 10
1431.1575614056846
 20
771.88178352524619
 11
1441.1575614056846
 21
771.88178352524619
  0
LINE
  8
_0-0_0
  6
CONTINUOUS
 62
    7
 10
1431.1575614056846
 20
777.88178352524619
 11
1441.1575614056846
 21
777.88178352524619
  0
LINE
  8
_0-0_0
  6
CONTINUOUS
 62
    7
 10
1431.1575614056846
 20
783.88178352524619
 11
1441.1575614056846
 21
783.88178352524619
  0
LINE
  8
_0-0_0
  6
CONTINUOUS
 62
    7
 10
1431.1575614056846
 20
789.88178352524619
 11
1441.1575614056846
 21
789.88178352524619
  0
LINE
  8
_0-0_0
  6
CONTINUOUS
 62
    7
 10
1431.1575614056846
 20
795.88178352524619
 11
1441.1575614056846
 21
795.88178352524619
  0
LINE
  8
_0-0_0
  6
CONTINUOUS
 62
    7
 10
1431.1575614056846
 20
801.88178352524619
 11
1441.1575614056846
 21
801.88178352524619
  0
LINE
  8
_0-0_0
  6
CONTINUOUS
 62
    7
 10
1451.1575614056846
 20
1009.3548747584939
 11
1461.1575614056846
 21
1009.3548747584939
  0
LINE
  8
_0-0_0
  6
CONTINUOUS
 62
    7
 10
1451.1575614056846
 20
759.35495481761313
 11
1461.1575614056846
 21
759.35495481761313
  0
LINE
  8
_0-0_0
  6
CONTINUOUS
 62
    7
 10
1451.1575614056846
 20
959.35489077031798
 11
1461.1575614056846
 21
959.35489077031798
  0
LINE
  8
_0-0_0
  6
CONTINUOUS
 62
    7
 10
1451.1575614056846
 20
965.88171947795058
 11
1461.1575614056846
 21
965.88171947795058
  0
LINE
  8
_0-0_0
  6
CONTINUOUS
 62
    7
 10
1451.1575614056846
 20
971.88171947795058
 11
1461.1575614056846
 21
971.88171947795058
  0
LINE
  8
_0-0_0
  6
CONTINUOUS
 62
    7
 10
1451.1575614056846
 20
977.88171947795058
 11
1461.1575614056846
 21
977.88171947795058
  0
LINE
  8
_0-0_0
  6
CONTINUOUS
 62
    7
 10
1451.1575614056846
 20
983.88171947795058
 11
1461.1575614056846
 21
983.88171947795058
  0
LINE
  8
_0-0_0
  6
CONTINUOUS
 62
    7
 10
1451.1575614056846
 20
989.88171947795058
 11
1461.1575614056846
 21
989.88171947795058
  0
LINE
  8
_0-0_0
  6
CONTINUOUS
 62
    7
 10
1451.1575614056846
 20
995.88171947795058
 11
1461.1575614056846
 21
995.88171947795058
  0
LINE
  8
_0-0_0
  6
CONTINUOUS
 62
    7
 10
1451.1575614056846
 20
1001.8817194779506
 11
1461.1575614056846
 21
1001.8817194779506
  0
LINE
  8
_0-0_0
  6
CONTINUOUS
 62
    7
 10
1451.1575614056846
 20
909.35490678214182
 11
1461.1575614056846
 21
909.35490678214182
  0
LINE
  8
_0-0_0
  6
CONTINUOUS
 62
    7
 10
1451.1575614056846
 20
859.35492279396533
 11
1461.1575614056846
 21
859.35492279396533
  0
LINE
  8
_0-0_0
  6
CONTINUOUS
 62
    7
 10
1451.1575614056846
 20
809.35493880578952
 11
1461.1575614056846
 21
809.35493880578952
  0
LINE
  8
_0-0_0
  6
CONTINUOUS
 62
    7
 10
1451.1575614056846
 20
865.8817515015985
 11
1461.1575614056846
 21
865.8817515015985
  0
LINE
  8
_0-0_0
  6
CONTINUOUS
 62
    7
 10
1451.1575614056846
 20
871.8817515015985
 11
1461.1575614056846
 21
871.8817515015985
  0
LINE
  8
_0-0_0
  6
CONTINUOUS
 62
    7
 10
1451.1575614056846
 20
877.8817515015985
 11
1461.1575614056846
 21
877.8817515015985
  0
LINE
  8
_0-0_0
  6
CONTINUOUS
 62
    7
 10
1451.1575614056846
 20
883.8817515015985
 11
1461.1575614056846
 21
883.8817515015985
  0
LINE
  8
_0-0_0
  6
CONTINUOUS
 62
    7
 10
1451.1575614056846
 20
889.8817515015985
 11
1461.1575614056846
 21
889.8817515015985
  0
LINE
  8
_0-0_0
  6
CONTINUOUS
 62
    7
 10
1451.1575614056846
 20
895.8817515015985
 11
1461.1575614056846
 21
895.8817515015985
  0
LINE
  8
_0-0_0
  6
CONTINUOUS
 62
    7
 10
1451.1575614056846
 20
901.8817515015985
 11
1461.1575614056846
 21
901.8817515015985
  0
LINE
  8
_0-0_0
  6
CONTINUOUS
 62
    7
 10
1451.1575614056846
 20
765.88178352524619
 11
1461.1575614056846
 21
765.88178352524619
  0
LINE
  8
_0-0_0
  6
CONTINUOUS
 62
    7
 10
1451.1575614056846
 20
771.88178352524619
 11
1461.1575614056846
 21
771.88178352524619
  0
LINE
  8
_0-0_0
  6
CONTINUOUS
 62
    7
 10
1451.1575614056846
 20
777.88178352524619
 11
1461.1575614056846
 21
777.88178352524619
  0
LINE
  8
_0-0_0
  6
CONTINUOUS
 62
    7
 10
1451.1575614056846
 20
783.88178352524619
 11
1461.1575614056846
 21
783.88178352524619
  0
LINE
  8
_0-0_0
  6
CONTINUOUS
 62
    7
 10
1451.1575614056846
 20
789.88178352524619
 11
1461.1575614056846
 21
789.88178352524619
  0
LINE
  8
_0-0_0
  6
CONTINUOUS
 62
    7
 10
1451.1575614056846
 20
795.88178352524619
 11
1461.1575614056846
 21
795.88178352524619
  0
LINE
  8
_0-0_0
  6
CONTINUOUS
 62
    7
 10
1451.1575614056846
 20
801.88178352524619
 11
1461.1575614056846
 21
801.88178352524619
  0
LINE
  8
_0-0_0
  6
CONTINUOUS
 62
    7
 10
1471.1575614056846
 20
1009.3548747584939
 11
1481.1575614056842
 21
1009.3548747584939
  0
LINE
  8
_0-0_0
  6
CONTINUOUS
 62
    7
 10
1471.1575614056846
 20
759.35495481761313
 11
1481.1575614056842
 21
759.35495481761313
  0
LINE
  8
_0-0_0
  6
CONTINUOUS
 62
    7
 10
1471.1575614056846
 20
959.35489077031798
 11
1481.1575614056842
 21
959.35489077031798
  0
LINE
  8
_0-0_0
  6
CONTINUOUS
 62
    7
 10
1471.1575614056846
 20
965.88171947795058
 11
1481.1575614056842
 21
965.88171947795058
  0
LINE
  8
_0-0_0
  6
CONTINUOUS
 62
    7
 10
1471.1575614056846
 20
971.88171947795058
 11
1481.1575614056842
 21
971.88171947795058
  0
LINE
  8
_0-0_0
  6
CONTINUOUS
 62
    7
 10
1471.1575614056846
 20
977.88171947795058
 11
1481.1575614056842
 21
977.88171947795058
  0
LINE
  8
_0-0_0
  6
CONTINUOUS
 62
    7
 10
1471.1575614056846
 20
983.88171947795058
 11
1481.1575614056842
 21
983.88171947795058
  0
LINE
  8
_0-0_0
  6
CONTINUOUS
 62
    7
 10
1471.1575614056846
 20
989.88171947795058
 11
1481.1575614056842
 21
989.88171947795058
  0
LINE
  8
_0-0_0
  6
CONTINUOUS
 62
    7
 10
1471.1575614056846
 20
995.88171947795058
 11
1481.1575614056842
 21
995.88171947795058
  0
LINE
  8
_0-0_0
  6
CONTINUOUS
 62
    7
 10
1471.1575614056846
 20
1001.8817194779506
 11
1481.1575614056842
 21
1001.8817194779506
  0
LINE
  8
_0-0_0
  6
CONTINUOUS
 62
    7
 10
1471.1575614056846
 20
909.35490678214182
 11
1481.1575614056842
 21
909.35490678214182
  0
LINE
  8
_0-0_0
  6
CONTINUOUS
 62
    7
 10
1471.1575614056846
 20
859.35492279396533
 11
1481.1575614056842
 21
859.35492279396533
  0
LINE
  8
_0-0_0
  6
CONTINUOUS
 62
    7
 10
1471.1575614056846
 20
809.35493880578952
 11
1481.1575614056842
 21
809.35493880578952
  0
LINE
  8
_0-0_0
  6
CONTINUOUS
 62
    7
 10
1471.1575614056846
 20
865.8817515015985
 11
1481.1575614056842
 21
865.8817515015985
  0
LINE
  8
_0-0_0
  6
CONTINUOUS
 62
    7
 10
1471.1575614056846
 20
871.8817515015985
 11
1481.1575614056842
 21
871.8817515015985
  0
LINE
  8
_0-0_0
  6
CONTINUOUS
 62
    7
 10
1471.1575614056846
 20
877.8817515015985
 11
1481.1575614056842
 21
877.8817515015985
  0
LINE
  8
_0-0_0
  6
CONTINUOUS
 62
    7
 10
1471.1575614056846
 20
883.8817515015985
 11
1481.1575614056842
 21
883.8817515015985
  0
LINE
  8
_0-0_0
  6
CONTINUOUS
 62
    7
 10
1471.1575614056846
 20
889.8817515015985
 11
1481.1575614056842
 21
889.8817515015985
  0
LINE
  8
_0-0_0
  6
CONTINUOUS
 62
    7
 10
1471.1575614056846
 20
895.8817515015985
 11
1481.1575614056842
 21
895.8817515015985
  0
LINE
  8
_0-0_0
  6
CONTINUOUS
 62
    7
 10
1471.1575614056846
 20
901.8817515015985
 11
1481.1575614056842
 21
901.8817515015985
  0
LINE
  8
_0-0_0
  6
CONTINUOUS
 62
    7
 10
1471.1575614056846
 20
765.88178352524619
 11
1481.1575614056842
 21
765.88178352524619
  0
LINE
  8
_0-0_0
  6
CONTINUOUS
 62
    7
 10
1471.1575614056846
 20
771.88178352524619
 11
1481.1575614056842
 21
771.88178352524619
  0
LINE
  8
_0-0_0
  6
CONTINUOUS
 62
    7
 10
1471.1575614056846
 20
777.88178352524619
 11
1481.1575614056842
 21
777.88178352524619
  0
LINE
  8
_0-0_0
  6
CONTINUOUS
 62
    7
 10
1471.1575614056846
 20
783.88178352524619
 11
1481.1575614056842
 21
783.88178352524619
  0
LINE
  8
_0-0_0
  6
CONTINUOUS
 62
    7
 10
1471.1575614056846
 20
789.88178352524619
 11
1481.1575614056842
 21
789.88178352524619
  0
LINE
  8
_0-0_0
  6
CONTINUOUS
 62
    7
 10
1471.1575614056846
 20
795.88178352524619
 11
1481.1575614056842
 21
795.88178352524619
  0
LINE
  8
_0-0_0
  6
CONTINUOUS
 62
    7
 10
1471.1575614056846
 20
801.88178352524619
 11
1481.1575614056842
 21
801.88178352524619
  0
LINE
  8
_0-0_0
  6
CONTINUOUS
 62
    7
 10
1491.1575614056846
 20
1009.3548747584939
 11
1501.1575614056846
 21
1009.3548747584939
  0
LINE
  8
_0-0_0
  6
CONTINUOUS
 62
    7
 10
1491.1575614056846
 20
759.35495481761313
 11
1501.1575614056846
 21
759.35495481761313
  0
LINE
  8
_0-0_0
  6
CONTINUOUS
 62
    7
 10
1491.1575614056846
 20
959.35489077031798
 11
1501.1575614056846
 21
959.35489077031798
  0
LINE
  8
_0-0_0
  6
CONTINUOUS
 62
    7
 10
1491.1575614056846
 20
965.88171947795058
 11
1501.1575614056846
 21
965.88171947795058
  0
LINE
  8
_0-0_0
  6
CONTINUOUS
 62
    7
 10
1491.1575614056846
 20
971.88171947795058
 11
1501.1575614056846
 21
971.88171947795058
  0
LINE
  8
_0-0_0
  6
CONTINUOUS
 62
    7
 10
1491.1575614056846
 20
977.88171947795058
 11
1501.1575614056846
 21
977.88171947795058
  0
LINE
  8
_0-0_0
  6
CONTINUOUS
 62
    7
 10
1491.1575614056846
 20
983.88171947795058
 11
1501.1575614056846
 21
983.88171947795058
  0
LINE
  8
_0-0_0
  6
CONTINUOUS
 62
    7
 10
1491.1575614056846
 20
989.88171947795058
 11
1501.1575614056846
 21
989.88171947795058
  0
LINE
  8
_0-0_0
  6
CONTINUOUS
 62
    7
 10
1491.1575614056846
 20
995.88171947795058
 11
1501.1575614056846
 21
995.88171947795058
  0
LINE
  8
_0-0_0
  6
CONTINUOUS
 62
    7
 10
1491.1575614056846
 20
1001.8817194779506
 11
1501.1575614056846
 21
1001.8817194779506
  0
LINE
  8
_0-0_0
  6
CONTINUOUS
 62
    7
 10
1491.1575614056846
 20
909.35490678214182
 11
1501.1575614056846
 21
909.35490678214182
  0
LINE
  8
_0-0_0
  6
CONTINUOUS
 62
    7
 10
1491.1575614056846
 20
859.35492279396533
 11
1501.1575614056846
 21
859.35492279396533
  0
LINE
  8
_0-0_0
  6
CONTINUOUS
 62
    7
 10
1491.1575614056846
 20
809.35493880578952
 11
1501.1575614056846
 21
809.35493880578952
  0
LINE
  8
_0-0_0
  6
CONTINUOUS
 62
    7
 10
1491.1575614056846
 20
865.8817515015985
 11
1501.1575614056846
 21
865.8817515015985
  0
LINE
  8
_0-0_0
  6
CONTINUOUS
 62
    7
 10
1491.1575614056846
 20
871.8817515015985
 11
1501.1575614056846
 21
871.8817515015985
  0
LINE
  8
_0-0_0
  6
CONTINUOUS
 62
    7
 10
1491.1575614056846
 20
877.8817515015985
 11
1501.1575614056846
 21
877.8817515015985
  0
LINE
  8
_0-0_0
  6
CONTINUOUS
 62
    7
 10
1491.1575614056846
 20
883.8817515015985
 11
1501.1575614056846
 21
883.8817515015985
  0
LINE
  8
_0-0_0
  6
CONTINUOUS
 62
    7
 10
1491.1575614056846
 20
889.8817515015985
 11
1501.1575614056846
 21
889.8817515015985
  0
LINE
  8
_0-0_0
  6
CONTINUOUS
 62
    7
 10
1491.1575614056846
 20
895.8817515015985
 11
1501.1575614056846
 21
895.8817515015985
  0
LINE
  8
_0-0_0
  6
CONTINUOUS
 62
    7
 10
1491.1575614056846
 20
901.8817515015985
 11
1501.1575614056846
 21
901.8817515015985
  0
LINE
  8
_0-0_0
  6
CONTINUOUS
 62
    7
 10
1491.1575614056846
 20
765.88178352524619
 11
1501.1575614056846
 21
765.88178352524619
  0
LINE
  8
_0-0_0
  6
CONTINUOUS
 62
    7
 10
1491.1575614056846
 20
771.88178352524619
 11
1501.1575614056846
 21
771.88178352524619
  0
LINE
  8
_0-0_0
  6
CONTINUOUS
 62
    7
 10
1491.1575614056846
 20
777.88178352524619
 11
1501.1575614056846
 21
777.88178352524619
  0
LINE
  8
_0-0_0
  6
CONTINUOUS
 62
    7
 10
1491.1575614056846
 20
783.88178352524619
 11
1501.1575614056846
 21
783.88178352524619
  0
LINE
  8
_0-0_0
  6
CONTINUOUS
 62
    7
 10
1491.1575614056846
 20
789.88178352524619
 11
1501.1575614056846
 21
789.88178352524619
  0
LINE
  8
_0-0_0
  6
CONTINUOUS
 62
    7
 10
1491.1575614056846
 20
795.88178352524619
 11
1501.1575614056846
 21
795.88178352524619
  0
LINE
  8
_0-0_0
  6
CONTINUOUS
 62
    7
 10
1491.1575614056846
 20
801.88178352524619
 11
1501.1575614056846
 21
801.88178352524619
  0
LINE
  8
_0-0_0
  6
CONTINUOUS
 62
    7
 10
1494.9802811559753
 20
1042.3596707127738
 11
1530.1841773297178
 21
1077.5635668865161
  0
LINE
  8
_0-0_0
  6
CONTINUOUS
 62
    7
 10
1487.0840801450427
 20
983.79617988168775
 11
1529.1971522033514
 21
1025.9092519399969
  0
LINE
  8
_0-0_0
  6
CONTINUOUS
 62
    7
 10
1496.9543314087086
 20
886.40970074684833
 11
1533.1452527088177
 21
922.60062204695737
  0
TEXT
  8
_0-0_0
 62
    7
 10
1538.0201405071048
 20
1080.5246422656155
 40
15
 41
1
 50
0
  1
キャップ
  0
TEXT
  8
_0-0_0
 62
    7
 10
1540.7865927817038
 20
1031.1733859472854
 40
15
 41
1
 50
0
  1
腰みの(透明)
  0
TEXT
  8
_0-0_0
 62
    7
 10
1542.3713968254356
 20
924.57467229969075
 40
15
 41
1
 50
0
  1
高輝度反射シート(白)
  0
LINE
  8
_0-0_0
  6
CONTINUOUS
 62
    7
 10
1533.1452527088177
 20
922.60062204695737
 11
1700.2815074402313
 21
922.60062204695737
  0
LINE
  8
_0-0_0
  6
CONTINUOUS
 62
    7
 10
1529.1971522033514
 20
1025.9092519399969
 11
1643.6920668618786
 21
1025.9092519399969
  0
LINE
  8
_0-0_0
  6
CONTINUOUS
 62
    7
 10
1530.1841773297178
 20
1077.5635668865161
 11
1605.527095309036
 21
1077.5635668865161
  0
LINE
  8
_0-0_0
  6
CONTINUOUS
 62
    7
 10
1275.8607031025867
 20
1059.3548587466705
 11
1275.8607031025867
 21
709.35485874667029
  0
LINE
  8
_0-0_0
  6
CONTINUOUS
 62
    7
 10
1275.8607031025867
 20
709.35485874667029
 11
1363.3015272878215
 21
709.35485874667029
  0
TEXT
  8
_0-0_0
 62
    7
 10
1275.8607031025867
 20
873.10485874667029
 40
15
 41
1
 50
90
  1
350
  0
LINE
  8
_0-0_0
  6
CONTINUOUS
 62
    7
 10
1343.1006351092929
 20
1059.3548587466705
 11
1343.1006351092929
 21
1029.3548587466705
  0
LINE
  8
_0-0_0
  6
CONTINUOUS
 62
    7
 10
1343.1006351092929
 20
1029.3548587466705
 11
1363.3015272878215
 21
1029.3548587466705
  0
TEXT
  8
_0-0_0
 62
    7
 10
1343.1006351092929
 20
1036.8548587466705
 40
15
 41
1
 50
90
  1
30
  0
LINE
  8
_0-0_0
  6
CONTINUOUS
 62
    7
 10
1231.7749184990253
 20
409.35483497984814
 11
1231.7749184990253
 21
1059.3548587466705
  0
LINE
  8
_0-5_D-BYP-STR1
  6
CONTINUOUS
 62
    7
 10
1346.9063178694187
 20
409.35483497984796
 11
1231.7749184990253
 21
409.35483497984796
  0
LINE
  8
_0-0_0
  6
CONTINUOUS
 62
    7
 10
1392.4113366242914
 20
542.33793466544762
 11
1466.1958079242047
 21
584.29575259079468
  0
LINE
  8
_0-0_0
  6
CONTINUOUS
 62
    7
 10
1466.1958079242047
 20
584.29575259079468
 11
1469.0896881325384
 21
603.39363941805209
  0
LINE
  8
_0-0_0
  6
CONTINUOUS
 62
    7
 10
1469.0896881325384
 20
603.39363941805209
 11
1471.1145430044999
 21
575.03533592412816
  0
LINE
  8
_0-0_0
  6
CONTINUOUS
 62
    7
 10
1471.1145430044999
 20
575.03533592412816
 11
1472.5614831086668
 21
588.34373978697511
  0
LINE
  8
_0-0_0
  6
CONTINUOUS
 62
    7
 10
1472.5614831086668
 20
588.34373978697511
 11
1550.6867747210795
 21
633.19716046839915
  0
LINE
  8
_0-0_0
  6
CONTINUOUS
 62
    7
 10
1386.8302819367914
 20
559.05353796405848
 11
1423.0890506542396
 21
579.66898935294762
  0
LINE
  8
_0-0_0
  6
CONTINUOUS
 62
    7
 10
1423.0890506542396
 20
579.66898935294762
 11
1423.1045535839269
 21
579.67932463940565
  0
LINE
  8
_0-0_0
  6
CONTINUOUS
 62
    7
 10
1423.1045535839269
 20
579.67932463940565
 11
1460.6147532367049
 21
601.00963334166261
  0
LINE
  8
_0-0_0
  6
CONTINUOUS
 62
    7
 10
1460.6147532367049
 20
601.00963334166261
 11
1463.5086334450384
 21
620.10579762117663
  0
LINE
  8
_0-0_0
  6
CONTINUOUS
 62
    7
 10
1463.5086334450384
 20
620.10579762117663
 11
1465.5334883170001
 21
591.74921667499609
  0
LINE
  8
_0-0_0
  6
CONTINUOUS
 62
    7
 10
1465.5334883170001
 20
591.74921667499609
 11
1466.9804284211668
 21
605.05934308558665
  0
LINE
  8
_0-0_0
  6
CONTINUOUS
 62
    7
 10
1466.9804284211668
 20
605.05934308558665
 11
1538.1612688074515
 21
646.43666242152358
  0
LINE
  8
_0-0_0
  6
CONTINUOUS
 62
    7
 10
1426.1575614056846
 20
1059.3548587466705
 11
1426.1575614056846
 21
581.41542841681314
  0
LINE
  8
_0-0_0
  6
CONTINUOUS
 62
    7
 10
1426.1575614056846
 20
561.52785268071966
 11
1426.1575614056846
 21
459.97914453226048
  0
LINE
  8
_0-0_0
  6
AI9-LType4
 62
    7
 10
1466.1575614056846
 20
283.34350577575532
 11
1466.1575614056846
 21
584.27400356376961
  0
LINE
  8
_0-0_0
  6
AI9-LType4
 62
    7
 10
1466.1575614056846
 20
597.48994614674075
 11
1466.1575614056846
 21
1078.6736352784267
  0
LINE
  8
_0-0_0
  6
CONTINUOUS
 62
    7
 10
1506.1575614056846
 20
459.97914453226048
 11
1506.1575614056846
 21
607.63197541466491
  0
LINE
  8
_0-0_0
  6
CONTINUOUS
 62
    7
 10
1506.1575614056846
 20
627.83295370004066
 11
1506.1575614056846
 21
1059.3548587466705
  0
TEXT
  8
_0-0_0
 62
    7
 10
1228.0249184990253
 20
708.1048468632589
 40
15
 41
1
 50
90
  1
800±10
  0
TEXT
  8
_0-3_D-STR-TXT
 62
    7
 10
1812.070012650549
 20
24.139070107421702
 40
15
 41
1
 50
0
  1
RP-CK800
  0
ENDSEC
  0
EOF
