  0
SECTION
  2
HEADER
  9
$ACADVER
  1
AC1009
  9
$INSBASE
 10
0
 20
0
 30
0
  9
$EXTMIN
 10
0
 20
0
  9
$EXTMAX
 10
1782
 20
1260
  9
$LIMMIN
 10
0
 20
0
  9
$LIMMAX
 10
1782
 20
1260
  9
$LTSCALE
 40
6
  0
ENDSEC
  0
SECTION
  2
TABLES
  0
TABLE
  2
LTYPE
 70
     9
  0
LTYPE
  2
CONTINUOUS
 70
    64
  3
実線
 72
    65
 73
     0
 40
0.0
  0
LTYPE
  2
DASHED1
 70
    64
  3
--  --  --  --  --  --  --  --  
 72
    65
 73
     2
 40
2.5
 49
1.25
 49
-1.25
  0
LTYPE
  2
DASHED2
 70
    64
  3
----    ----    ----    ----    
 72
    65
 73
     2
 40
5.0
 49
2.5
 49
-2.5
  0
LTYPE
  2
DASHED3
 70
    64
  3
------  ------  ------  ------  
 72
    65
 73
     2
 40
5.0
 49
3.75
 49
-1.25
  0
LTYPE
  2
CENTER1
 70
    64
  3
----- - ----- - ----- - ----- - 
 72
    65
 73
     4
 40
10.0
 49
6.25
 49
-1.25
 49
1.25
 49
-1.25
  0
LTYPE
  2
CENTER2
 70
    64
  3
----------  --  ----------  --  
 72
    65
 73
     4
 40
20.0
 49
12.5
 49
-2.5
 49
2.5
 49
-2.5
  0
LTYPE
  2
PHANTOM1
 70
    64
  3
--- - - --- - - --- - - --- - - 
 72
    65
 73
     6
 40
10.0
 49
3.25
 49
-1.25
 49
1.25
 49
-1.25
 49
1.25
 49
-1.25
  0
LTYPE
  2
PHANTOM2
 70
    64
  3
--------  -  -  --------  -  -  
 72
    65
 73
     6
 40
20.0
 49
10.0
 49
-2.5
 49
1.25
 49
-2.5
 49
1.25
 49
-2.5
  0
LTYPE
  2
DOT
 70
    64
  3
-   -   -   -   -   -   -   -   
 72
    65
 73
     2
 40
2.5
 49
0.625
 49
-1.875
  0
LTYPE
  2
DUMMY
 70
    64
  3
ダミー
 72
    65
 73
     0
 40
0.0
  0
LTYPE
  2
RAND1
 70
    64
  3
ランダム線1
 72
    65
 73
     4
 40
10.0
 49
1.0
 49
-2.0
 49
3.0
 49
-4.0
  0
LTYPE
  2
RAND2
 70
    64
  3
ランダム線2
 72
    65
 73
     4
 40
14.0
 49
2.0
 49
-3.0
 49
4.0
 49
-5.0
  0
LTYPE
  2
RAND3
 70
    64
  3
ランダム線3
 72
    65
 73
     4
 40
18.0
 49
3.0
 49
-4.0
 49
5.0
 49
-6.0
  0
LTYPE
  2
RAND4
 70
    64
  3
ランダム線4
 72
    65
 73
     4
 40
22.0
 49
4.0
 49
-5.0
 49
6.0
 49
-7.0
  0
LTYPE
  2
RAND5
 70
    64
  3
ランダム線5
 72
    65
 73
     4
 40
26.0
 49
5.0
 49
-6.0
 49
7.0
 49
-8.0
  0
LTYPE
  2
LONG1
 70
    64
  3
----------  --  ----------  --  
 72
    65
 73
     4
 40
40.0
 49
32.5
 49
-2.5
 49
2.5
 49
-2.5
  0
LTYPE
  2
LONG2
 70
    64
  3
--------  -  -  --------  -  -  
 72
    65
 73
     6
 40
40.0
 49
30.0
 49
-2.5
 49
1.25
 49
-2.5
 49
1.25
 49
-2.5
  0
LTYPE
  2
LONG3
 70
    64
  3
+++++++++++++++..+++++++++++++++
 72
    65
 73
     2
 40
40.0
 49
37.5
 49
-2.5
  0
LTYPE
  2
LONG4
 70
    64
  3
+++++++++++++++..+++++++++++++++
 72
    65
 73
     2
 40
80.0
 49
75.0
 49
-5.0
  0
LTYPE
  2
LONG5
 70
    64
  3
----------  --  ----------  --  
 72
    65
 73
     4
 40
60.0
 49
37.5
 49
-7.5
 49
7.5
 49
-7.5
  0
LTYPE
  2
dashed
 70
   64
  3
-------   -------------   ------
 72
   65
 73
    2
 40
7.5
 49
6
 49
-1.5
  0
LTYPE
  2
dashed_spaced
 70
   64
  3
----        --------        ----
 72
   65
 73
    2
 40
12
 49
6
 49
-6
  0
LTYPE
  2
long_dashed_dotted
 70
   64
  3
------------- --- --------------
 72
   65
 73
    4
 40
15.25
 49
12
 49
-1.5
 49
0.25
 49
-1.5
  0
LTYPE
  2
long_dashed_double-dotted
 70
   64
  3
----------- --- --- ------------
 72
   65
 73
    6
 40
17
 49
12
 49
-1.5
 49
0.25
 49
-1.5
 49
0.25
 49
-1.5
  0
LTYPE
  2
long_dashed_triplicate-dotted
 70
   64
  3
--------- --- --- --- ----------
 72
   65
 73
    8
 40
18.75
 49
12
 49
-1.5
 49
0.25
 49
-1.5
 49
0.25
 49
-1.5
 49
0.25
 49
-1.5
  0
LTYPE
  2
dotted
 70
   64
  3
   -       -       -       -    
 72
   65
 73
    2
 40
1.75
 49
0.25
 49
-1.5
  0
LTYPE
  2
chain
 70
   64
  3
-------------- -- --------------
 72
   65
 73
    4
 40
18.5
 49
12
 49
-1.5
 49
3.5
 49
-1.5
  0
LTYPE
  2
chain_double_dash
 70
   64
  3
------------ -- -- -------------
 72
   65
 73
    6
 40
23.5
 49
12
 49
-1.5
 49
3.5
 49
-1.5
 49
3.5
 49
-1.5
  0
LTYPE
  2
dashed_dotted
 70
   64
  3
-----------     -     ----------
 72
   65
 73
    4
 40
9.25
 49
6
 49
-1.5
 49
0.25
 49
-1.5
  0
LTYPE
  2
double-dashed_dotted
 70
   64
  3
------   -----------   -   -----
 72
   65
 73
    6
 40
16.75
 49
6
 49
-1.5
 49
6
 49
-1.5
 49
0.25
 49
-1.5
  0
LTYPE
  2
dashed_double-dotted
 70
   64
  3
---------    -    -    ---------
 72
   65
 73
    6
 40
11
 49
6
 49
-1.5
 49
0.25
 49
-1.5
 49
0.25
 49
-1.5
  0
LTYPE
  2
double-dashed_double-dotted
 70
   64
  3
-----   ---------   -   -   ----
 72
   65
 73
    8
 40
18.5
 49
6
 49
-1.5
 49
6
 49
-1.5
 49
0.25
 49
-1.5
 49
0.25
 49
-1.5
  0
LTYPE
  2
dashed_triplicate-dotted
 70
   64
  3
-------    -    -    -    ------
 72
   65
 73
    8
 40
12.75
 49
6
 49
-1.5
 49
0.25
 49
-1.5
 49
0.25
 49
-1.5
 49
0.25
 49
-1.5
  0
LTYPE
  2
double-dashed_triplicate-dotted
 70
   64
  3
-----  ---------  -  -  -  -----
 72
   65
 73
   10
 40
20.25
 49
6
 49
-1.5
 49
6
 49
-1.5
 49
0.25
 49
-1.5
 49
0.25
 49
-1.5
 49
0.25
 49
-1.5
  0
LTYPE
  2
undefined
 70
   64
  3
--------------------------------
 72
   65
 73
    0
 40
0
  0
LTYPE
  2
AI9-LType1
 70
   64
  3
-----------   -----   ----------
 72
   65
 73
    4
 40
1.909268638160492
 49
1.272857477929856
 49
-0.159102790057659
 49
0.318205580115318
 49
-0.159102790057659
  0
LTYPE
  2
AI9-LType3
 70
   64
  3
----        --------        ----
 72
   65
 73
    4
 40
3.9999355157216385
 49
0.9999838789304096
 49
-0.9999838789304096
 49
0.9999838789304096
 49
-0.9999838789304096
  0
LTYPE
  2
AI9-LType4
 70
   64
  3
-----------   -----   ----------
 72
   65
 73
    4
 40
9.8010483688778347
 49
6.5340441332923032
 49
-0.8167510588963825
 49
1.6335021177927651
 49
-0.8167510588963825
  0
LTYPE
  2
AI9-LType5
 70
   64
  3
-------   -------------   ------
 72
   65
 73
    2
 40
24.502673406071132
 49
19.6021317270067
 49
-4.9005416790644318
  0
LTYPE
  2
AI9-LType6
 70
   64
  3
-----------   -----   ----------
 72
   65
 73
    4
 40
5.8806294586923364
 49
3.9204197512732599
 49
-0.4900435954332351
 49
0.9801225165526068
 49
-0.4900435954332351
  0
LTYPE
  2
_
 70
   64
  3
                                
 72
   65
 73
    0
 40
0
  0
LTYPE
  2
__23
 70
   64
  3
                                
 72
   65
 73
    0
 40
0
  0
LTYPE
  2
__24
 70
   64
  3
                                
 72
   65
 73
    0
 40
0
  0
LTYPE
  2
__25
 70
   64
  3
                                
 72
   65
 73
    0
 40
0
  0
LTYPE
  2
__26
 70
   64
  3
                                
 72
   65
 73
    0
 40
0
  0
LTYPE
  2
__27
 70
   64
  3
                                
 72
   65
 73
    0
 40
0
  0
LTYPE
  2
__28
 70
   64
  3
                                
 72
   65
 73
    0
 40
0
  0
LTYPE
  2
__29
 70
   64
  3
                                
 72
   65
 73
    0
 40
0
  0
LTYPE
  2
__30
 70
   64
  3
                                
 72
   65
 73
    0
 40
0
  0
LTYPE
  2
__31
 70
   64
  3
                                
 72
   65
 73
    0
 40
0
  0
LTYPE
  2
__32
 70
   64
  3
                                
 72
   65
 73
    0
 40
0
  0
ENDTAB
  0
TABLE
  2
STYLE
  5
3
100
AcDbSymbolTable
 70
     1
  0
STYLE
  5
10
100
AcDbSymbolTableRecord
100
AcDbTextStyleTableRecord
  2
STANDARD
 70
     0
 40
0.0
 41
1.0
 50
0.0
 71
     0
 42
0.2
  3
txt
  4
bigfont.shx
  0
STYLE
  5
26
100
AcDbSymbolTableRecord
100
AcDbTextStyleTableRecord
  2
TATEGAKI
 70
    68
 40
0.0
 41
1.0
 50
0.0
 71
     0
 42
1.0
  3
txt
  4
bigfont.shx
  0
ENDTAB
  0
TABLE
  2
LAYER
 70
    5
  0
LAYER
  2
_0-0_0
 70
   64
 62
    7
  6
CONTINUOUS
  0
LAYER
  2
_0-3_D-STR-TXT
 70
   64
 62
    7
  6
CONTINUOUS
  0
LAYER
  2
_0-5_D-BYP-STR1
 70
   64
 62
    7
  6
CONTINUOUS
  0
LAYER
  2
_0-e_ADD_LINE
 70
   64
 62
    7
  6
CONTINUOUS
  0
LAYER
  2
ADD_LINE
 70
   64
 62
    7
  6
CONTINUOUS
  0
ENDTAB
  0
ENDSEC
  0
SECTION
  2
BLOCKS
  0
ENDSEC
  0
SECTION
  2
ENTITIES
  0
LINE
  8
_0-0_0
  6
CONTINUOUS
 62
    7
 10
1437.4024127156536
 20
48.305735107421782
 11
1437.4024127156536
 21
-18.360924892578026
  0
LINE
  8
_0-0_0
  6
CONTINUOUS
 62
    7
 10
1654.3834576375284
 20
48.305735107421782
 11
1654.3834576375284
 21
14.972405107421878
  0
LINE
  8
_0-0_0
  6
CONTINUOUS
 62
    7
 10
1754.3835325073198
 20
48.305735107421782
 11
1754.3835325073198
 21
14.972405107421878
  0
LINE
  8
_0-0_0
  6
CONTINUOUS
 62
    7
 10
1929.7564927937781
 20
-51.694393581814239
 11
987.40229900037593
 21
-51.694393581814239
  0
LINE
  8
_0-0_0
  6
CONTINUOUS
 62
    7
 10
987.40229900037593
 20
-51.694393581814239
 11
987.40229900037593
 21
1311.6943935818144
  0
LINE
  8
_0-0_0
  6
CONTINUOUS
 62
    7
 10
987.40229900037593
 20
1311.6943935818144
 11
1929.7564927937781
 21
1311.6943935818144
  0
LINE
  8
_0-0_0
  6
CONTINUOUS
 62
    7
 10
1929.7564927937781
 20
1311.6943935818144
 11
1929.7564927937781
 21
-51.694393581814239
  0
LINE
  8
_0-0_0
  6
CONTINUOUS
 62
    7
 10
1337.4023378458619
 20
14.972405107421878
 11
1929.7564927937781
 21
14.972405107421878
  0
LINE
  8
_0-0_0
  6
CONTINUOUS
 62
    7
 10
1337.4023378458619
 20
48.305735107421782
 11
1337.4023378458619
 21
-51.694393581814239
  0
LINE
  8
_0-0_0
  6
CONTINUOUS
 62
    7
 10
987.40229900037593
 20
48.305735107421782
 11
1928.996849239091
 21
48.305735107421782
  0
LINE
  8
_0-0_0
  6
CONTINUOUS
 62
    7
 10
1337.4023378458619
 20
-18.360924892578026
 11
1929.7564927937781
 21
-18.360924892578026
  0
TEXT
  8
_0-3_D-STR-TXT
 62
    7
 10
1062.4023184231189
 20
-11.694329237196257
 40
20
 41
1
 50
0
  1
保安道路企画株式会社
  0
TEXT
  8
_0-3_D-STR-TXT
 62
    7
 10
1364.902375280758
 20
24.139070107421873
 40
15
 41
1
 50
0
  1
品　名
  0
TEXT
  8
_0-3_D-STR-TXT
 62
    7
 10
1364.902375280758
 20
-9.1942598925781169
 40
15
 41
1
 50
0
  1
材　質
  0
TEXT
  8
_0-3_D-STR-TXT
 62
    7
 10
1473.5794527547159
 20
-9.1942598925781169
 40
15
 41
1
 50
0
  1
ポスト：ポリウレタン　　ベース・セットピン：スチレニクス
  0
TEXT
  8
_0-3_D-STR-TXT
 62
    7
 10
1681.8834950724242
 20
24.139070107421873
 40
15
 41
1
 50
0
  1
品　番
  0
LINE
  8
ADD_LINE
  6
DOT
 62
    9
 10
891.90621328500697
 20
-184.18049743203318
 11
2019.9062132850067
 21
-184.18049743203318
  0
LINE
  8
ADD_LINE
  6
DOT
 62
    9
 10
2019.9062132850067
 20
-184.18049743203318
 11
2019.9062132850067
 21
1431.819502567967
  0
LINE
  8
ADD_LINE
  6
DOT
 62
    9
 10
2019.9062132850067
 20
1431.819502567967
 11
891.90621328500697
 21
1431.819502567967
  0
LINE
  8
ADD_LINE
  6
DOT
 62
    9
 10
891.90621328500697
 20
1431.819502567967
 11
891.90621328500697
 21
-184.18049743203318
  0
TEXT
  8
_0-3_D-STR-TXT
 62
    7
 10
1493.392935176591
 20
24.139070107421702
 40
15
 41
1
 50
0
  1
ラウンドポスト
  0
ARC
  8
_0-0_0
  6
CONTINUOUS
 62
    7
 10
1698.028084965232
 20
235.24237806489788
 40
22.500000000000004
 50
56.24020194266199
 51
153.75979805733726
  0
ARC
  8
_0-0_0
  6
CONTINUOUS
 62
    7
 10
1698.028084965232
 20
235.24237806489788
 40
31.049999999999997
 50
32.489552921997038
 51
56.240201942661947
  0
ARC
  8
_0-0_0
  6
CONTINUOUS
 62
    7
 10
1698.028084965232
 20
235.24237806489788
 40
31.049999999999997
 50
333.75979805733778
 51
27.51044707799884
  0
ARC
  8
_0-0_0
  6
CONTINUOUS
 62
    7
 10
1698.028084965232
 20
235.24237806489788
 40
31.049999999999997
 50
332.48955292200236
 51
333.75979805733778
  0
ARC
  8
_0-0_0
  6
CONTINUOUS
 62
    7
 10
1698.028084965232
 20
235.24237806489788
 40
31.049999999999997
 50
272.49190636897993
 51
327.51044707800418
  0
ARC
  8
_0-0_0
  6
CONTINUOUS
 62
    7
 10
1698.028084965232
 20
235.24237806489788
 40
31.049999999999997
 50
243.75979805733814
 51
267.51044707800082
  0
LINE
  8
_0-0_0
  6
CONTINUOUS
 62
    7
 10
1670.4884241633533
 20
249.58356291544214
 11
1677.8675133800823
 21
245.32324376978954
  0
ARC
  8
_0-0_0
  6
CONTINUOUS
 62
    7
 10
1698.028084965232
 20
235.24237806489788
 40
22.500000000000004
 50
153.75979805733726
 51
243.7597980573382
  0
ARC
  8
_0-0_0
  6
CONTINUOUS
 62
    7
 10
1698.028084965232
 20
235.24237806489788
 40
22.500000000000004
 50
243.75979805733814
 51
333.75979805733778
  0
ARC
  8
_0-0_0
  6
CONTINUOUS
 62
    7
 10
1698.028084965232
 20
235.24237806489788
 40
22.500000000000004
 50
333.75979805733778
 51
56.240201942661947
  0
ARC
  8
_0-0_0
  6
CONTINUOUS
 62
    7
 10
1698.028084965232
 20
325.24237806489788
 40
19.799999999999997
 50
126.03155245063201
 51
232.9514242276633
  0
CIRCLE
  8
_0-0_0
  6
CONTINUOUS
 62
    7
 10
1287.5391872601533
 20
235.24237806489788
 40
112.5
  0
LINE
  8
_0-0_0
  6
AI9-LType4
 62
    7
 10
1698.028084965232
 20
113.6529426424039
 11
1698.028084965232
 21
356.0777283991988
  0
LINE
  8
_0-0_0
  6
CONTINUOUS
 62
    7
 10
1306.3909113192412
 20
236.59237806489784
 11
1294.7391872601534
 21
236.59237806489784
  0
CIRCLE
  8
_0-0_0
  6
CONTINUOUS
 62
    7
 10
1287.5391872601533
 20
235.24237806489788
 40
27
  0
LINE
  8
_0-0_0
  6
CONTINUOUS
 62
    7
 10
1307.2108547406217
 20
291.50095960786666
 11
1370.1387966351533
 21
339.53678724458541
  0
LINE
  8
_0-0_0
  6
CONTINUOUS
 62
    7
 10
1370.1387966351533
 20
339.53678724458541
 11
1518.0195896377395
 21
339.53678724458541
  0
TEXT
  8
_0-3_D-STR-TXT
 62
    7
 10
1384.0791931364465
 20
338.78678724458541
 40
15
 41
1
 50
0
  1
セットピンホール
  0
CIRCLE
  8
_0-0_0
  6
CONTINUOUS
 62
    7
 10
1287.5391872601533
 20
235.24237806489788
 40
38.25
  0
CIRCLE
  8
_0-0_0
  6
CONTINUOUS
 62
    7
 10
1287.5391872601533
 20
235.24237806489788
 40
32.849999999999994
  0
LINE
  8
_0-0_0
  6
CONTINUOUS
 62
    7
 10
1272.8038885207734
 20
199.94459525830706
 11
1302.2744859995332
 21
199.94459525830706
  0
LINE
  8
_0-0_0
  6
CONTINUOUS
 62
    7
 10
1263.6815871450926
 20
205.34459525830709
 11
1273.9287102938615
 21
205.34459525830709
  0
LINE
  8
_0-0_0
  6
CONTINUOUS
 62
    7
 10
1301.1496642264451
 20
205.34459525830709
 11
1311.396787375214
 21
205.34459525830709
  0
LINE
  8
_0-0_0
  6
CONTINUOUS
 62
    7
 10
1258.1636679020003
 20
210.74459525830696
 11
1265.6535495595717
 21
210.74459525830696
  0
LINE
  8
_0-0_0
  6
CONTINUOUS
 62
    7
 10
1309.4248249607354
 20
210.74459525830696
 11
1316.9147066183068
 21
210.74459525830696
  0
LINE
  8
_0-0_0
  6
CONTINUOUS
 62
    7
 10
1254.3980166128749
 20
216.14459525830699
 11
1260.8109775956027
 21
216.14459525830699
  0
LINE
  8
_0-0_0
  6
CONTINUOUS
 62
    7
 10
1314.2673969247044
 20
216.14459525830699
 11
1320.6803579074317
 21
216.14459525830699
  0
LINE
  8
_0-0_0
  6
CONTINUOUS
 62
    7
 10
1251.8259789726967
 20
221.54459525830703
 11
1257.6813031056595
 21
221.54459525830703
  0
LINE
  8
_0-0_0
  6
CONTINUOUS
 62
    7
 10
1317.3970714146471
 20
221.54459525830703
 11
1323.2523955476099
 21
221.54459525830703
  0
LINE
  8
_0-0_0
  6
CONTINUOUS
 62
    7
 10
1250.2000750519835
 20
226.94459525830706
 11
1255.7544534954222
 21
226.94459525830706
  0
LINE
  8
_0-0_0
  6
CONTINUOUS
 62
    7
 10
1319.3239210248848
 20
226.94459525830706
 11
1324.8782994683233
 21
226.94459525830706
  0
LINE
  8
_0-0_0
  6
CONTINUOUS
 62
    7
 10
1249.3991118170479
 20
232.34459525830709
 11
1254.8172472992367
 21
232.34459525830709
  0
LINE
  8
_0-0_0
  6
CONTINUOUS
 62
    7
 10
1320.26112722107
 20
232.34459525830709
 11
1325.6792627032592
 21
232.34459525830709
  0
LINE
  8
_0-0_0
  6
CONTINUOUS
 62
    7
 10
1249.3711193352874
 20
237.74459525830696
 11
1254.7846240800891
 21
237.74459525830696
  0
LINE
  8
_0-0_0
  6
CONTINUOUS
 62
    7
 10
1320.293750440218
 20
237.74459525830696
 11
1325.7072551850197
 21
237.74459525830696
  0
LINE
  8
_0-0_0
  6
CONTINUOUS
 62
    7
 10
1250.1143630998708
 20
243.14459525830699
 11
1255.6538071710283
 21
243.14459525830699
  0
LINE
  8
_0-0_0
  6
CONTINUOUS
 62
    7
 10
1319.4245673492787
 20
243.14459525830699
 11
1324.9640114204358
 21
243.14459525830699
  0
LINE
  8
_0-0_0
  6
CONTINUOUS
 62
    7
 10
1251.676762387603
 20
248.54459525830703
 11
1257.5029838093285
 21
248.54459525830703
  0
LINE
  8
_0-0_0
  6
CONTINUOUS
 62
    7
 10
1317.5753907109784
 20
248.54459525830703
 11
1323.401612132704
 21
248.54459525830703
  0
LINE
  8
_0-0_0
  6
CONTINUOUS
 62
    7
 10
1254.1731930137532
 20
253.944595258307
 11
1260.5327144795324
 21
253.944595258307
  0
LINE
  8
_0-0_0
  6
CONTINUOUS
 62
    7
 10
1314.5456600407742
 20
253.944595258307
 11
1320.9051815065534
 21
253.944595258307
  0
LINE
  8
_0-0_0
  6
CONTINUOUS
 62
    7
 10
1257.8382508041786
 20
259.34459525830704
 11
1265.2186669624107
 21
259.34459525830704
  0
LINE
  8
_0-0_0
  6
CONTINUOUS
 62
    7
 10
1309.8597075578964
 20
259.34459525830704
 11
1317.2401237161284
 21
259.34459525830704
  0
LINE
  8
_0-0_0
  6
CONTINUOUS
 62
    7
 10
1263.1941327177447
 20
264.74459525830702
 11
1273.0912918884057
 21
264.74459525830702
  0
LINE
  8
_0-0_0
  6
CONTINUOUS
 62
    7
 10
1301.9870826319011
 20
264.74459525830702
 11
1311.884241802562
 21
264.74459525830702
  0
LINE
  8
_0-0_0
  6
CONTINUOUS
 62
    7
 10
1271.8899784947168
 20
270.14459525830705
 11
1303.18839602559
 21
270.14459525830705
  0
LINE
  8
_0-0_0
  6
CONTINUOUS
 62
    7
 10
1268.6874632010654
 20
236.59237806489784
 11
1280.3391872601533
 21
236.59237806489784
  0
LINE
  8
_0-0_0
  6
CONTINUOUS
 62
    7
 10
1280.3391872601533
 20
252.71721711995065
 11
1280.3391872601533
 21
236.59237806489784
  0
LINE
  8
_0-0_0
  6
CONTINUOUS
 62
    7
 10
1265.4937795751048
 20
239.74237806489788
 11
1276.2891872601533
 21
239.74237806489788
  0
LINE
  8
_0-0_0
  6
CONTINUOUS
 62
    7
 10
1276.2891872601533
 20
239.74237806489788
 11
1276.2891872601533
 21
254.72794965004772
  0
LINE
  8
_0-0_0
  6
CONTINUOUS
 62
    7
 10
1268.6874632010654
 20
233.89237806489783
 11
1280.3391872601533
 21
233.89237806489783
  0
LINE
  8
_0-0_0
  6
CONTINUOUS
 62
    7
 10
1280.3391872601533
 20
217.76753900984488
 11
1280.3391872601533
 21
233.89237806489783
  0
LINE
  8
_0-0_0
  6
CONTINUOUS
 62
    7
 10
1265.4937795751048
 20
230.74237806489788
 11
1276.2891872601533
 21
230.74237806489788
  0
LINE
  8
_0-0_0
  6
CONTINUOUS
 62
    7
 10
1276.2891872601533
 20
215.75680647974792
 11
1276.2891872601533
 21
230.74237806489788
  0
LINE
  8
_0-0_0
  6
CONTINUOUS
 62
    7
 10
1294.7391872601534
 20
252.71721711995065
 11
1294.7391872601534
 21
236.59237806489784
  0
LINE
  8
_0-0_0
  6
CONTINUOUS
 62
    7
 10
1298.7891872601533
 20
239.74237806489788
 11
1298.7891872601533
 21
254.72794965004772
  0
LINE
  8
_0-0_0
  6
CONTINUOUS
 62
    7
 10
1298.7891872601533
 20
239.74237806489788
 11
1309.5845949452021
 21
239.74237806489788
  0
LINE
  8
_0-0_0
  6
CONTINUOUS
 62
    7
 10
1306.3909113192412
 20
233.89237806489783
 11
1294.7391872601534
 21
233.89237806489783
  0
LINE
  8
_0-0_0
  6
CONTINUOUS
 62
    7
 10
1294.7391872601534
 20
217.76753900984488
 11
1294.7391872601534
 21
233.89237806489783
  0
LINE
  8
_0-0_0
  6
CONTINUOUS
 62
    7
 10
1298.7891872601533
 20
230.74237806489788
 11
1309.5845949452021
 21
230.74237806489788
  0
LINE
  8
_0-0_0
  6
CONTINUOUS
 62
    7
 10
1298.7891872601533
 20
230.74237806489788
 11
1298.7891872601533
 21
215.75680647974792
  0
ARC
  8
_0-0_0
  6
CONTINUOUS
 62
    7
 10
1287.5391872601533
 20
235.24237806489788
 40
18.899999999999999
 50
175.90395624184768
 51
184.09604375815232
  0
ARC
  8
_0-0_0
  6
CONTINUOUS
 62
    7
 10
1287.5391872601533
 20
235.24237806489788
 40
18.899999999999999
 50
247.60731219459836
 51
292.39268780540164
  0
ARC
  8
_0-0_0
  6
CONTINUOUS
 62
    7
 10
1287.5391872601533
 20
235.24237806489788
 40
18.899999999999999
 50
355.90395624184765
 51
4.096043758152363
  0
ARC
  8
_0-0_0
  6
CONTINUOUS
 62
    7
 10
1287.5391872601533
 20
235.24237806489788
 40
18.899999999999999
 50
67.607312194598336
 51
112.39268780540168
  0
ARC
  8
_0-0_0
  6
CONTINUOUS
 62
    7
 10
1287.5391872601533
 20
235.24237806489788
 40
22.500000000000004
 50
168.46304096718458
 51
191.53695903281542
  0
ARC
  8
_0-0_0
  6
CONTINUOUS
 62
    7
 10
1287.5391872601533
 20
235.24237806489788
 40
22.500000000000004
 50
240
 51
300
  0
ARC
  8
_0-0_0
  6
CONTINUOUS
 62
    7
 10
1287.5391872601533
 20
235.24237806489788
 40
22.500000000000004
 50
348.46304096718455
 51
11.536959032815451
  0
ARC
  8
_0-0_0
  6
CONTINUOUS
 62
    7
 10
1287.5391872601533
 20
235.24237806489788
 40
22.500000000000004
 50
59.999999999999986
 51
120.00000000000001
  0
LINE
  8
_0-0_0
  6
CONTINUOUS
 62
    7
 10
1276.1875954087418
 20
210.74459525830696
 11
1298.8907791115653
 21
210.74459525830696
  0
LINE
  8
_0-0_0
  6
CONTINUOUS
 62
    7
 10
1268.4532057063434
 20
216.14459525830699
 11
1276.2891872601533
 21
216.14459525830699
  0
LINE
  8
_0-0_0
  6
CONTINUOUS
 62
    7
 10
1298.7891872601533
 20
216.14459525830699
 11
1306.6251688139637
 21
216.14459525830699
  0
LINE
  8
_0-0_0
  6
CONTINUOUS
 62
    7
 10
1264.27181211418
 20
221.54459525830703
 11
1276.2891872601533
 21
221.54459525830703
  0
LINE
  8
_0-0_0
  6
CONTINUOUS
 62
    7
 10
1298.7891872601533
 20
221.54459525830703
 11
1310.8065624061267
 21
221.54459525830703
  0
LINE
  8
_0-0_0
  6
CONTINUOUS
 62
    7
 10
1261.8458651609283
 20
226.94459525830706
 11
1276.2891872601533
 21
226.94459525830706
  0
LINE
  8
_0-0_0
  6
CONTINUOUS
 62
    7
 10
1298.7891872601533
 20
226.94459525830706
 11
1313.2325093593784
 21
226.94459525830706
  0
LINE
  8
_0-0_0
  6
CONTINUOUS
 62
    7
 10
1260.695140344571
 20
232.34459525830709
 11
1265.2265707662061
 21
232.34459525830709
  0
LINE
  8
_0-0_0
  6
CONTINUOUS
 62
    7
 10
1309.8518037541007
 20
232.34459525830709
 11
1314.3832341757357
 21
232.34459525830709
  0
LINE
  8
_0-0_0
  6
CONTINUOUS
 62
    7
 10
1260.6553834162603
 20
237.74459525830696
 11
1265.1787554862117
 21
237.74459525830696
  0
LINE
  8
_0-0_0
  6
CONTINUOUS
 62
    7
 10
1309.8996190340949
 20
237.74459525830696
 11
1314.4229911040466
 21
237.74459525830696
  0
LINE
  8
_0-0_0
  6
CONTINUOUS
 62
    7
 10
1261.7214614999671
 20
243.14459525830699
 11
1276.2891872601533
 21
243.14459525830699
  0
LINE
  8
_0-0_0
  6
CONTINUOUS
 62
    7
 10
1298.7891872601533
 20
243.14459525830699
 11
1313.3569130203396
 21
243.14459525830699
  0
LINE
  8
_0-0_0
  6
CONTINUOUS
 62
    7
 10
1264.0434213067031
 20
248.54459525830703
 11
1276.2891872601533
 21
248.54459525830703
  0
LINE
  8
_0-0_0
  6
CONTINUOUS
 62
    7
 10
1298.7891872601533
 20
248.54459525830703
 11
1311.0349532136036
 21
248.54459525830703
  0
LINE
  8
_0-0_0
  6
CONTINUOUS
 62
    7
 10
1268.0654338456077
 20
253.944595258307
 11
1276.2891872601533
 21
253.944595258307
  0
LINE
  8
_0-0_0
  6
CONTINUOUS
 62
    7
 10
1298.7891872601533
 20
253.944595258307
 11
1307.0129406746992
 21
253.944595258307
  0
LINE
  8
_0-0_0
  6
CONTINUOUS
 62
    7
 10
1275.370246206724
 20
259.34459525830704
 11
1299.7081283135831
 21
259.34459525830704
  0
LINE
  8
_0-0_0
  6
CONTINUOUS
 62
    7
 10
1280.3391872601533
 20
221.54459525830703
 11
1294.7391872601534
 21
221.54459525830703
  0
LINE
  8
_0-0_0
  6
CONTINUOUS
 62
    7
 10
1280.3391872601533
 20
226.94459525830706
 11
1294.7391872601534
 21
226.94459525830706
  0
LINE
  8
_0-0_0
  6
CONTINUOUS
 62
    7
 10
1280.3391872601533
 20
232.34459525830709
 11
1294.7391872601534
 21
232.34459525830709
  0
LINE
  8
_0-0_0
  6
CONTINUOUS
 62
    7
 10
1280.3391872601533
 20
237.74459525830696
 11
1294.7391872601534
 21
237.74459525830696
  0
LINE
  8
_0-0_0
  6
CONTINUOUS
 62
    7
 10
1280.3391872601533
 20
243.14459525830699
 11
1294.7391872601534
 21
243.14459525830699
  0
LINE
  8
_0-0_0
  6
CONTINUOUS
 62
    7
 10
1280.3391872601533
 20
248.54459525830703
 11
1294.7391872601534
 21
248.54459525830703
  0
LINE
  8
_0-0_0
  6
CONTINUOUS
 62
    7
 10
1284.8120876927446
 20
253.944595258307
 11
1290.266286827562
 21
253.944595258307
  0
LINE
  8
_0-0_0
  6
CONTINUOUS
 62
    7
 10
1276.2891872601533
 20
233.89237806489783
 11
1276.2891872601533
 21
236.59237806489784
  0
LINE
  8
_0-0_0
  6
CONTINUOUS
 62
    7
 10
1298.7891872601533
 20
233.89237806489783
 11
1298.7891872601533
 21
236.59237806489784
  0
LINE
  8
_0-0_0
  6
CONTINUOUS
 62
    7
 10
1364.1717189984342
 20
81.509517594877053
 11
1208.5967189984344
 21
81.509517594877053
  0
LINE
  8
_0-0_0
  6
CONTINUOUS
 62
    7
 10
1208.5967189984344
 20
81.509517594877053
 11
1208.5967189984344
 21
106.1157675948771
  0
LINE
  8
_0-0_0
  6
CONTINUOUS
 62
    7
 10
1208.5967189984344
 20
106.1157675948771
 11
1364.1717189984342
 21
106.1157675948771
  0
LINE
  8
_0-0_0
  6
CONTINUOUS
 62
    7
 10
1364.1717189984342
 20
106.1157675948771
 11
1364.1717189984342
 21
81.509517594877053
  0
LINE
  8
_0-0_0
  6
CONTINUOUS
 62
    7
 10
1779.9719204144496
 20
82.320320817533343
 11
1624.3969204144501
 21
82.320320817533343
  0
LINE
  8
_0-0_0
  6
CONTINUOUS
 62
    7
 10
1624.3969204144501
 20
82.320320817533343
 11
1624.3969204144501
 21
106.92657081753339
  0
LINE
  8
_0-0_0
  6
CONTINUOUS
 62
    7
 10
1624.3969204144501
 20
106.92657081753339
 11
1779.9719204144496
 21
106.92657081753339
  0
LINE
  8
_0-0_0
  6
CONTINUOUS
 62
    7
 10
1779.9719204144496
 20
106.92657081753339
 11
1779.9719204144496
 21
82.320320817533343
  0
TEXT
  8
_0-3_D-STR-TXT
 62
    7
 10
1248.8842189984343
 20
86.312642594876905
 40
15
 41
1
 50
0
  1
ベース平面
  0
TEXT
  8
_0-3_D-STR-TXT
 62
    7
 10
1664.6844204144493
 20
87.12344581753311
 40
15
 41
1
 50
0
  1
ベース底面
  0
LINE
  8
_0-0_0
  6
AI9-LType4
 62
    7
 10
1287.5391872601533
 20
113.6529426424039
 11
1287.5391872601533
 21
356.0777283991988
  0
LINE
  8
_0-5_D-BYP-STR1
  6
CONTINUOUS
 62
    7
 10
1146.7733608441376
 20
122.74237806489788
 11
1146.7733608441376
 21
347.74237806489782
  0
LINE
  8
_0-5_D-BYP-STR1
  6
CONTINUOUS
 62
    7
 10
1181.568136234763
 20
122.74237806489788
 11
1146.7733608441376
 21
122.74237806489788
  0
LINE
  8
_0-5_D-BYP-STR1
  6
CONTINUOUS
 62
    7
 10
1181.568136234763
 20
347.74237806489782
 11
1146.7733608441376
 21
347.74237806489782
  0
TEXT
  8
_0-5_D-BYP-STR1
 62
    7
 10
1143.0519141436298
 20
205.24274596663503
 40
15
 41
1
 50
90
  1
φ250±5
  0
CIRCLE
  8
_0-0_0
  6
CONTINUOUS
 62
    7
 10
1698.028084965232
 20
235.24237806489788
 40
112.5
  0
CIRCLE
  8
_0-0_0
  6
CONTINUOUS
 62
    7
 10
1698.028084965232
 20
325.24237806489788
 40
5.8499999999999996
  0
CIRCLE
  8
_0-0_0
  6
CONTINUOUS
 62
    7
 10
1620.0857986246322
 20
190.24237806489788
 40
5.8499999999999996
  0
CIRCLE
  8
_0-0_0
  6
CONTINUOUS
 62
    7
 10
1775.9703713058318
 20
190.24237806489788
 40
5.8499999999999996
  0
LINE
  8
_0-0_0
  6
CONTINUOUS
 62
    7
 10
1700.278084965232
 20
305.44237806489787
 11
1700.278084965232
 21
291.49237806489782
  0
LINE
  8
_0-0_0
  6
CONTINUOUS
 62
    7
 10
1695.778084965232
 20
305.44237806489787
 11
1695.778084965232
 21
291.49237806489782
  0
LINE
  8
_0-0_0
  6
CONTINUOUS
 62
    7
 10
1732.390224854146
 20
336.23014139419774
 11
1721.616590339388
 21
306.62982383944154
  0
LINE
  8
_0-0_0
  6
CONTINUOUS
 62
    7
 10
1736.6188416476823
 20
334.6910507492322
 11
1725.8452071329243
 21
305.090733194476
  0
LINE
  8
_0-0_0
  6
CONTINUOUS
 62
    7
 10
1764.8577835412839
 20
318.38729004533155
 11
1744.6099738361579
 21
294.25689008708366
  0
LINE
  8
_0-0_0
  6
CONTINUOUS
 62
    7
 10
1768.3049835353193
 20
315.49474580174217
 11
1748.0571738301926
 21
291.36434584349422
  0
LINE
  8
_0-0_0
  6
CONTINUOUS
 62
    7
 10
1781.1729969456653
 20
302.07207664094949
 11
1757.0425969874184
 21
281.82426693582352
  0
LINE
  8
_0-0_0
  6
CONTINUOUS
 62
    7
 10
1778.280452702076
 20
305.51927663498492
 11
1754.1500527438291
 21
285.27146692985895
  0
LINE
  8
_0-0_0
  6
CONTINUOUS
 62
    7
 10
1799.0158482945315
 20
269.60451795381209
 11
1769.4155307397762
 21
258.83088343905354
  0
LINE
  8
_0-0_0
  6
CONTINUOUS
 62
    7
 10
1797.4767576495667
 20
273.83313474734877
 11
1767.8764400948101
 21
263.05950023259015
  0
LINE
  8
_0-0_0
  6
CONTINUOUS
 62
    7
 10
1802.6671234242333
 20
255.9777736573534
 11
1771.6456792043493
 21
250.50785606084509
  0
LINE
  8
_0-0_0
  6
CONTINUOUS
 62
    7
 10
1803.4485402237349
 20
251.54613876879847
 11
1772.4270960038496
 21
246.07622117229016
  0
LINE
  8
_0-0_0
  6
CONTINUOUS
 62
    7
 10
1802.6671234242333
 20
214.50698247244242
 11
1771.6456792043493
 21
219.97690006895078
  0
LINE
  8
_0-0_0
  6
CONTINUOUS
 62
    7
 10
1803.4485402237349
 20
218.93861736099751
 11
1772.4270960038496
 21
224.40853495750571
  0
LINE
  8
_0-0_0
  6
CONTINUOUS
 62
    7
 10
1757.6980683109002
 20
198.19382090638288
 11
1745.6170139281069
 21
205.16882090638285
  0
LINE
  8
_0-0_0
  6
CONTINUOUS
 62
    7
 10
1759.9480683108995
 20
202.09093522341294
 11
1747.8670139281069
 21
209.06593522341291
  0
LINE
  8
_0-0_0
  6
CONTINUOUS
 62
    7
 10
1764.8577835412839
 20
152.0974660844642
 11
1744.6099738361579
 21
176.22786604271215
  0
LINE
  8
_0-0_0
  6
CONTINUOUS
 62
    7
 10
1768.3049835353193
 20
154.9900103280537
 11
1748.0571738301933
 21
179.12041028630148
  0
LINE
  8
_0-0_0
  6
CONTINUOUS
 62
    7
 10
1732.390224854146
 20
134.25461473559807
 11
1721.616590339388
 21
163.85493229035404
  0
LINE
  8
_0-0_0
  6
CONTINUOUS
 62
    7
 10
1736.6188416476837
 20
135.79370538056367
 11
1725.8452071329243
 21
165.39402293531964
  0
LINE
  8
_0-0_0
  6
CONTINUOUS
 62
    7
 10
1714.3318456691327
 20
129.82192280639532
 11
1708.8619280726243
 21
160.84336702627979
  0
LINE
  8
_0-0_0
  6
CONTINUOUS
 62
    7
 10
1718.7634805576874
 20
130.60333960589639
 11
1713.2935629611791
 21
161.62478382578104
  0
LINE
  8
_0-0_0
  6
CONTINUOUS
 62
    7
 10
1681.724324261332
 20
129.82192280639515
 11
1687.1942418578403
 21
160.84336702627962
  0
LINE
  8
_0-0_0
  6
CONTINUOUS
 62
    7
 10
1677.2926893727765
 20
130.60333960589639
 11
1682.7626069692849
 21
161.62478382578087
  0
LINE
  8
_0-0_0
  6
CONTINUOUS
 62
    7
 10
1659.437328282781
 20
135.79370538056332
 11
1670.2109627975403
 21
165.3940229353193
  0
LINE
  8
_0-0_0
  6
CONTINUOUS
 62
    7
 10
1663.6659450763179
 20
134.25461473559773
 11
1674.4395795910766
 21
163.85493229035387
  0
LINE
  8
_0-0_0
  6
CONTINUOUS
 62
    7
 10
1627.7511863951447
 20
154.99001032805336
 11
1647.9989961002711
 21
179.12041028630114
  0
LINE
  8
_0-0_0
  6
CONTINUOUS
 62
    7
 10
1631.1983863891801
 20
152.09746608446386
 11
1651.4461960943061
 21
176.22786604271181
  0
LINE
  8
_0-0_0
  6
CONTINUOUS
 62
    7
 10
1636.108101619564
 20
202.09093522341277
 11
1648.1891560023573
 21
209.06593522341274
  0
LINE
  8
_0-0_0
  6
CONTINUOUS
 62
    7
 10
1638.3581016195644
 20
198.19382090638271
 11
1650.4391560023571
 21
205.16882090638285
  0
LINE
  8
_0-0_0
  6
CONTINUOUS
 62
    7
 10
1592.6076297067291
 20
251.5461387687983
 11
1623.6290739266137
 21
246.0762211722901
  0
LINE
  8
_0-0_0
  6
CONTINUOUS
 62
    7
 10
1593.3890465062304
 20
255.97777365735328
 11
1624.4104907261149
 21
250.50785606084503
  0
LINE
  8
_0-0_0
  6
CONTINUOUS
 62
    7
 10
1598.5794122808973
 20
273.83313474734859
 11
1628.1797298356537
 21
263.05950023259015
  0
LINE
  8
_0-0_0
  6
CONTINUOUS
 62
    7
 10
1597.0403216359318
 20
269.60451795381209
 11
1626.640639190688
 21
258.83088343905354
  0
LINE
  8
_0-0_0
  6
CONTINUOUS
 62
    7
 10
1617.7757172283877
 20
305.51927663498492
 11
1641.9061171866349
 21
285.27146692985895
  0
LINE
  8
_0-0_0
  6
CONTINUOUS
 62
    7
 10
1614.8831729847984
 20
302.07207664094949
 11
1639.0135729430458
 21
281.82426693582352
  0
LINE
  8
_0-0_0
  6
CONTINUOUS
 62
    7
 10
1627.7511863951447
 20
315.49474580174217
 11
1647.9989961002711
 21
291.36434584349433
  0
LINE
  8
_0-0_0
  6
CONTINUOUS
 62
    7
 10
1663.6659450763179
 20
336.2301413941978
 11
1674.4395795910766
 21
306.6298238394416
  0
LINE
  8
_0-0_0
  6
CONTINUOUS
 62
    7
 10
1631.1983863891801
 20
318.38729004533161
 11
1651.4461960943061
 21
294.25689008708372
  0
LINE
  8
_0-0_0
  6
CONTINUOUS
 62
    7
 10
1659.437328282781
 20
334.6910507492322
 11
1670.210962797539
 21
305.09073319447606
  0
ARC
  8
_0-0_0
  6
CONTINUOUS
 62
    7
 10
1698.028084965232
 20
235.24237806489771
 40
75.150000000000006
 50
311.71493019552679
 51
320.86620907736688
  0
ARC
  8
_0-0_0
  6
CONTINUOUS
 62
    7
 10
1698.028084965232
 20
235.24237806489771
 40
75.150000000000006
 50
339.13379092263318
 51
348.28506980447366
  0
ARC
  8
_0-0_0
  6
CONTINUOUS
 62
    7
 10
1698.028084965232
 20
235.24237806489771
 40
75.150000000000006
 50
351.71493019552673
 51
355.87463103689788
  0
ARC
  8
_0-0_0
  6
CONTINUOUS
 62
    7
 10
1698.028084965232
 20
235.24237806489771
 40
75.150000000000006
 50
4.1253689631023445
 51
8.2850698044735278
  0
LINE
  8
_0-0_0
  6
CONTINUOUS
 62
    7
 10
1753.3016421237464
 20
326.47898737850829
 11
1737.5347970305045
 21
299.17001060194417
  0
LINE
  8
_0-0_0
  6
CONTINUOUS
 62
    7
 10
1749.4045278067167
 20
328.72898737850829
 11
1733.6376827134741
 21
301.42001060194417
  0
LINE
  8
_0-0_0
  6
CONTINUOUS
 62
    7
 10
1646.651642123747
 20
328.72898737850812
 11
1662.4184872169892
 21
301.42001060194428
  0
LINE
  8
_0-0_0
  6
CONTINUOUS
 62
    7
 10
1642.7545278067169
 20
326.47898737850818
 11
1658.5213728999595
 21
299.17001060194434
  0
LINE
  8
_0-0_0
  6
CONTINUOUS
 62
    7
 10
1604.5414756516218
 20
286.61882090638272
 11
1631.8504524281855
 21
270.85197581314037
  0
LINE
  8
_0-0_0
  6
CONTINUOUS
 62
    7
 10
1635.7494260395385
 20
268.60090234906227
 11
1648.1891560023573
 21
261.41882090638273
  0
LINE
  8
_0-0_0
  6
CONTINUOUS
 62
    7
 10
1606.7914756516216
 20
290.51593522341273
 11
1634.1004524281855
 21
274.74909013017032
  0
LINE
  8
_0-0_0
  6
CONTINUOUS
 62
    7
 10
1637.9994260395385
 20
272.49801666609227
 11
1650.4391560023571
 21
265.31593522341279
  0
ARC
  8
_0-0_0
  6
CONTINUOUS
 62
    7
 10
1698.028084965232
 20
235.24237806489771
 40
70.650000000000006
 50
151.82501494312351
 51
174.15116754449349
  0
LINE
  8
_0-0_0
  6
CONTINUOUS
 62
    7
 10
1591.3780849652317
 20
232.99237806489788
 11
1620.9886770961252
 21
232.99237806489788
  0
LINE
  8
_0-0_0
  6
CONTINUOUS
 62
    7
 10
1591.3780849652317
 20
237.49237806489788
 11
1620.9886770961257
 21
237.49237806489788
  0
ARC
  8
_0-0_0
  6
CONTINUOUS
 62
    7
 10
1627.8280849652319
 20
235.24237806489771
 40
7.1999999999999993
 50
18.209956864283871
 51
90.654232852933859
  0
ARC
  8
_0-0_0
  6
CONTINUOUS
 62
    7
 10
1627.8280849652319
 20
235.24237806489771
 40
7.1999999999999993
 50
131.33471498216369
 51
161.79004313571613
  0
ARC
  8
_0-0_0
  6
CONTINUOUS
 62
    7
 10
1627.8280849652319
 20
235.24237806489771
 40
7.1999999999999993
 50
198.20995686428253
 51
228.66528501783631
  0
ARC
  8
_0-0_0
  6
CONTINUOUS
 62
    7
 10
1627.8280849652319
 20
235.24237806489771
 40
7.1999999999999993
 50
269.34576714706611
 51
341.79004313571738
  0
ARC
  8
_0-0_0
  6
CONTINUOUS
 62
    7
 10
1698.028084965232
 20
235.24237806489788
 40
106.65000000000001
 50
181.20886140541697
 51
188.79113859458312
  0
ARC
  8
_0-0_0
  6
CONTINUOUS
 62
    7
 10
1698.028084965232
 20
235.24237806489788
 40
106.65000000000001
 50
171.20886140541703
 51
178.79113859458303
  0
ARC
  8
_0-0_0
  6
CONTINUOUS
 62
    7
 10
1698.028084965232
 20
235.24237806489788
 40
106.65000000000001
 50
151.20886140541697
 51
158.79113859458312
  0
ARC
  8
_0-0_0
  6
CONTINUOUS
 62
    7
 10
1698.028084965232
 20
235.24237806489788
 40
106.65000000000001
 50
161.208861405417
 51
168.79113859458309
  0
ARC
  8
_0-0_0
  6
CONTINUOUS
 62
    7
 10
1698.028084965232
 20
235.24237806489788
 40
106.65000000000001
 50
141.20886140541697
 51
148.79113859458306
  0
ARC
  8
_0-0_0
  6
CONTINUOUS
 62
    7
 10
1698.028084965232
 20
235.24237806489788
 40
106.65000000000001
 50
131.20886140541694
 51
138.79113859458309
  0
ARC
  8
_0-0_0
  6
CONTINUOUS
 62
    7
 10
1698.028084965232
 20
235.24237806489788
 40
106.65000000000001
 50
121.20886140541698
 51
128.79113859458303
  0
ARC
  8
_0-0_0
  6
CONTINUOUS
 62
    7
 10
1698.028084965232
 20
235.24237806489788
 40
106.65000000000001
 50
111.20886140541698
 51
118.791138594583
  0
ARC
  8
_0-0_0
  6
CONTINUOUS
 62
    7
 10
1698.028084965232
 20
235.24237806489788
 40
106.65000000000001
 50
61.208861405416982
 51
68.791138594583018
  0
ARC
  8
_0-0_0
  6
CONTINUOUS
 62
    7
 10
1698.028084965232
 20
235.24237806489788
 40
106.65000000000001
 50
51.208861405416911
 51
58.791138594583074
  0
ARC
  8
_0-0_0
  6
CONTINUOUS
 62
    7
 10
1698.028084965232
 20
235.24237806489788
 40
106.65000000000001
 50
41.208861405416975
 51
48.791138594583018
  0
ARC
  8
_0-0_0
  6
CONTINUOUS
 62
    7
 10
1698.028084965232
 20
235.24237806489788
 40
106.65000000000001
 50
31.208861405416965
 51
38.791138594583046
  0
ARC
  8
_0-0_0
  6
CONTINUOUS
 62
    7
 10
1698.028084965232
 20
235.24237806489788
 40
106.65000000000001
 50
21.208861405416968
 51
28.791138594583057
  0
ARC
  8
_0-0_0
  6
CONTINUOUS
 62
    7
 10
1698.028084965232
 20
235.24237806489788
 40
106.65000000000001
 50
11.208861405416943
 51
18.791138594583042
  0
ARC
  8
_0-0_0
  6
CONTINUOUS
 62
    7
 10
1698.028084965232
 20
235.24237806489788
 40
106.65000000000001
 50
1.208861405416958
 51
8.7911385945830531
  0
ARC
  8
_0-0_0
  6
CONTINUOUS
 62
    7
 10
1698.028084965232
 20
235.24237806489788
 40
106.65000000000001
 50
351.20886140541711
 51
358.79113859458306
  0
ARC
  8
_0-0_0
  6
CONTINUOUS
 62
    7
 10
1698.028084965232
 20
235.24237806489788
 40
106.65000000000001
 50
336.26962678037324
 51
348.79113859458323
  0
ARC
  8
_0-0_0
  6
CONTINUOUS
 62
    7
 10
1698.028084965232
 20
235.24237806489788
 40
106.65000000000001
 50
311.20886140541711
 51
323.7303732196267
  0
ARC
  8
_0-0_0
  6
CONTINUOUS
 62
    7
 10
1698.028084965232
 20
235.24237806489788
 40
106.65000000000001
 50
191.208861405417
 51
203.73037321962667
  0
ARC
  8
_0-0_0
  6
CONTINUOUS
 62
    7
 10
1698.028084965232
 20
235.24237806489788
 40
106.65000000000001
 50
96.269626780373258
 51
108.79113859458306
  0
ARC
  8
_0-0_0
  6
CONTINUOUS
 62
    7
 10
1698.028084965232
 20
235.24237806489788
 40
106.65000000000001
 50
71.208861405416926
 51
83.730373219626742
  0
ARC
  8
_0-0_0
  6
CONTINUOUS
 62
    7
 10
1698.028084965232
 20
325.24237806489788
 40
19.799999999999997
 50
307.04857577233679
 51
53.968447549368129
  0
ARC
  8
_0-0_0
  6
CONTINUOUS
 62
    7
 10
1620.0857986246322
 20
190.24237806489788
 40
19.799999999999997
 50
67.048575772337017
 51
173.96844754936799
  0
ARC
  8
_0-0_0
  6
CONTINUOUS
 62
    7
 10
1620.0857986246322
 20
190.24237806489788
 40
19.799999999999997
 50
246.03155245063192
 51
352.9514242276627
  0
ARC
  8
_0-0_0
  6
CONTINUOUS
 62
    7
 10
1775.9703713058318
 20
190.24237806489771
 40
19.799999999999997
 50
187.04857577233705
 51
293.96844754936774
  0
ARC
  8
_0-0_0
  6
CONTINUOUS
 62
    7
 10
1775.9703713058318
 20
190.24237806489771
 40
19.799999999999997
 50
6.0315524506320433
 51
112.95142422766298
  0
ARC
  8
_0-0_0
  6
CONTINUOUS
 62
    7
 10
1698.028084965232
 20
235.24237806489788
 40
106.65000000000001
 50
301.20886140541711
 51
308.79113859458317
  0
ARC
  8
_0-0_0
  6
CONTINUOUS
 62
    7
 10
1698.028084965232
 20
235.24237806489788
 40
106.65000000000001
 50
291.20886140541717
 51
298.79113859458323
  0
ARC
  8
_0-0_0
  6
CONTINUOUS
 62
    7
 10
1698.028084965232
 20
235.24237806489788
 40
106.65000000000001
 50
281.208861405417
 51
288.79113859458323
  0
ARC
  8
_0-0_0
  6
CONTINUOUS
 62
    7
 10
1698.028084965232
 20
235.24237806489788
 40
106.65000000000001
 50
271.20886140541688
 51
278.79113859458317
  0
ARC
  8
_0-0_0
  6
CONTINUOUS
 62
    7
 10
1698.028084965232
 20
235.24237806489788
 40
106.65000000000001
 50
261.20886140541705
 51
268.79113859458306
  0
ARC
  8
_0-0_0
  6
CONTINUOUS
 62
    7
 10
1698.028084965232
 20
235.24237806489788
 40
106.65000000000001
 50
251.208861405417
 51
258.79113859458323
  0
ARC
  8
_0-0_0
  6
CONTINUOUS
 62
    7
 10
1698.028084965232
 20
235.24237806489788
 40
106.65000000000001
 50
241.20886140541705
 51
248.79113859458317
  0
ARC
  8
_0-0_0
  6
CONTINUOUS
 62
    7
 10
1698.028084965232
 20
235.24237806489788
 40
106.65000000000001
 50
216.26962678037324
 51
228.79113859458315
  0
ARC
  8
_0-0_0
  6
CONTINUOUS
 62
    7
 10
1698.028084965232
 20
235.24237806489788
 40
106.65000000000001
 50
231.20886140541708
 51
238.79113859458317
  0
ARC
  8
_0-0_0
  6
CONTINUOUS
 62
    7
 10
1698.028084965232
 20
235.24237806489771
 40
70.650000000000006
 50
5.8488324555066225
 51
28.174985056876508
  0
LINE
  8
_0-0_0
  6
CONTINUOUS
 62
    7
 10
1804.6780849652318
 20
237.49237806489788
 11
1775.0674928343381
 21
237.49237806489788
  0
LINE
  8
_0-0_0
  6
CONTINUOUS
 62
    7
 10
1804.6780849652318
 20
232.99237806489788
 11
1775.0674928343381
 21
232.99237806489788
  0
ARC
  8
_0-0_0
  6
CONTINUOUS
 62
    7
 10
1768.2280849652323
 20
235.24237806489788
 40
7.1999999999999993
 50
89.345767147068557
 51
161.79004313571744
  0
ARC
  8
_0-0_0
  6
CONTINUOUS
 62
    7
 10
1768.2280849652323
 20
235.24237806489788
 40
7.1999999999999993
 50
18.209956864282528
 51
48.665285017839757
  0
ARC
  8
_0-0_0
  6
CONTINUOUS
 62
    7
 10
1768.2280849652323
 20
235.24237806489788
 40
7.1999999999999993
 50
198.20995686428373
 51
270.65423285293144
  0
ARC
  8
_0-0_0
  6
CONTINUOUS
 62
    7
 10
1768.2280849652323
 20
235.24237806489788
 40
7.1999999999999993
 50
311.33471498216028
 51
341.79004313571596
  0
LINE
  8
_0-0_0
  6
CONTINUOUS
 62
    7
 10
1634.6674928343389
 20
237.49237806489788
 11
1641.8231029796466
 21
237.49237806489788
  0
LINE
  8
_0-0_0
  6
CONTINUOUS
 62
    7
 10
1646.3270211463896
 20
237.49237806489788
 11
1655.278084965232
 21
237.49237806489788
  0
LINE
  8
_0-0_0
  6
CONTINUOUS
 62
    7
 10
1634.6674928343391
 20
232.99237806489788
 11
1641.8231029796466
 21
232.99237806489788
  0
LINE
  8
_0-0_0
  6
CONTINUOUS
 62
    7
 10
1646.3270211463896
 20
232.99237806489788
 11
1655.278084965232
 21
232.99237806489788
  0
LINE
  8
_0-0_0
  6
CONTINUOUS
 62
    7
 10
1660.7724463640375
 20
295.27103699059086
 11
1667.9770368139245
 21
282.79232028366164
  0
LINE
  8
_0-0_0
  6
CONTINUOUS
 62
    7
 10
1670.2289958972956
 20
278.89181273469575
 11
1674.7045278067171
 21
271.13996407668253
  0
LINE
  8
_0-0_0
  6
CONTINUOUS
 62
    7
 10
1664.6695606810672
 20
297.52103699059091
 11
1671.8741511309543
 21
285.04232028366164
  0
LINE
  8
_0-0_0
  6
CONTINUOUS
 62
    7
 10
1674.1261102143253
 20
281.1418127346958
 11
1678.6016421237475
 21
273.38996407668253
  0
ARC
  8
_0-0_0
  6
CONTINUOUS
 62
    7
 10
1698.028084965232
 20
235.24237806489771
 40
51.75
 50
122.49190636897985
 51
177.50809363101999
  0
LINE
  8
_0-0_0
  6
CONTINUOUS
 62
    7
 10
1761.3886770961251
 20
237.49237806489788
 11
1754.2330669508171
 21
237.49237806489788
  0
LINE
  8
_0-0_0
  6
CONTINUOUS
 62
    7
 10
1749.7291487840737
 20
237.49237806489788
 11
1740.778084965232
 21
237.49237806489788
  0
LINE
  8
_0-0_0
  6
CONTINUOUS
 62
    7
 10
1761.3886770961251
 20
232.99237806489788
 11
1754.2330669508171
 21
232.99237806489788
  0
LINE
  8
_0-0_0
  6
CONTINUOUS
 62
    7
 10
1749.7291487840737
 20
232.99237806489788
 11
1740.778084965232
 21
232.99237806489788
  0
LINE
  8
_0-0_0
  6
CONTINUOUS
 62
    7
 10
1791.5146942788422
 20
286.61882090638284
 11
1764.2057175022785
 21
270.85197581314037
  0
LINE
  8
_0-0_0
  6
CONTINUOUS
 62
    7
 10
1760.3067438909254
 20
268.60090234906227
 11
1747.8670139281062
 21
261.41882090638285
  0
LINE
  8
_0-0_0
  6
CONTINUOUS
 62
    7
 10
1789.2646942788422
 20
290.51593522341278
 11
1761.9557175022785
 21
274.74909013017043
  0
LINE
  8
_0-0_0
  6
CONTINUOUS
 62
    7
 10
1758.0567438909254
 20
272.49801666609233
 11
1745.6170139281069
 21
265.31593522341279
  0
LINE
  8
_0-0_0
  6
CONTINUOUS
 62
    7
 10
1735.2837235664265
 20
295.27103699059091
 11
1728.0791331165394
 21
282.79232028366158
  0
LINE
  8
_0-0_0
  6
CONTINUOUS
 62
    7
 10
1725.8271740331684
 20
278.89181273469558
 11
1721.3516421237475
 21
271.13996407668253
  0
LINE
  8
_0-0_0
  6
CONTINUOUS
 62
    7
 10
1731.3866092493961
 20
297.52103699059091
 11
1724.1820187995097
 21
285.04232028366164
  0
LINE
  8
_0-0_0
  6
CONTINUOUS
 62
    7
 10
1721.930059716138
 20
281.14181273469558
 11
1717.4545278067171
 21
273.38996407668253
  0
ARC
  8
_0-0_0
  6
CONTINUOUS
 62
    7
 10
1698.028084965232
 20
235.24237806489771
 40
51.75
 50
2.4919063689800094
 51
57.508093631020152
  0
ARC
  8
_0-0_0
  6
CONTINUOUS
 62
    7
 10
1698.028084965232
 20
235.24237806489771
 40
51.75
 50
62.491906368979947
 51
117.50809363102005
  0
ARC
  8
_0-0_0
  6
CONTINUOUS
 62
    7
 10
1698.028084965232
 20
235.24237806489771
 40
51.75
 50
182.49190636897978
 51
237.50809363102019
  0
LINE
  8
_0-0_0
  6
CONTINUOUS
 62
    7
 10
1670.2289958972956
 20
191.59294339509978
 11
1674.7045278067171
 21
199.344792053113
  0
LINE
  8
_0-0_0
  6
CONTINUOUS
 62
    7
 10
1674.1261102143253
 20
189.34294339509978
 11
1678.6016421237475
 21
197.094792053113
  0
LINE
  8
_0-0_0
  6
CONTINUOUS
 62
    7
 10
1721.930059716138
 20
189.34294339509995
 11
1717.4545278067171
 21
197.09479205311317
  0
LINE
  8
_0-0_0
  6
CONTINUOUS
 62
    7
 10
1725.8271740331684
 20
191.59294339510012
 11
1721.3516421237475
 21
199.344792053113
  0
ARC
  8
_0-0_0
  6
CONTINUOUS
 62
    7
 10
1698.028084965232
 20
235.24237806489771
 40
51.75
 50
242.49190636897995
 51
297.50809363102042
  0
ARC
  8
_0-0_0
  6
CONTINUOUS
 62
    7
 10
1698.028084965232
 20
235.24237806489771
 40
51.75
 50
302.4919063689801
 51
357.50809363102019
  0
ARC
  8
_0-0_0
  6
CONTINUOUS
 62
    7
 10
1698.028084965232
 20
235.24237806489771
 40
70.650000000000006
 50
333.0162517363197
 51
354.1511675444936
  0
ARC
  8
_0-0_0
  6
CONTINUOUS
 62
    7
 10
1698.028084965232
 20
235.24237806489771
 40
70.650000000000006
 50
185.84883245550651
 51
206.98374826368027
  0
LINE
  8
_0-0_0
  6
CONTINUOUS
 62
    7
 10
1749.4045278067167
 20
141.75576875128752
 11
1733.6376827134748
 21
169.06474552785136
  0
LINE
  8
_0-0_0
  6
CONTINUOUS
 62
    7
 10
1731.3866092493961
 20
172.96371913920478
 11
1724.1820187995097
 21
185.44243584613395
  0
LINE
  8
_0-0_0
  6
CONTINUOUS
 62
    7
 10
1753.3016421237464
 20
144.00576875128752
 11
1737.5347970305045
 21
171.31474552785136
  0
LINE
  8
_0-0_0
  6
CONTINUOUS
 62
    7
 10
1735.2837235664265
 20
175.21371913920478
 11
1728.0791331165401
 21
187.69243584613395
  0
ARC
  8
_0-0_0
  6
CONTINUOUS
 62
    7
 10
1698.028084965232
 20
235.24237806489771
 40
70.650000000000006
 50
301.82501494312368
 51
326.98374826368035
  0
ARC
  8
_0-0_0
  6
CONTINUOUS
 62
    7
 10
1698.028084965232
 20
235.24237806489771
 40
75.150000000000006
 50
301.71569889401979
 51
308.28506980447361
  0
LINE
  8
_0-0_0
  6
CONTINUOUS
 62
    7
 10
1646.651642123747
 20
141.75576875128735
 11
1662.4184872169892
 21
169.06474552785119
  0
LINE
  8
_0-0_0
  6
CONTINUOUS
 62
    7
 10
1664.6695606810672
 20
172.96371913920461
 11
1671.8741511309543
 21
185.44243584613378
  0
LINE
  8
_0-0_0
  6
CONTINUOUS
 62
    7
 10
1642.7545278067169
 20
144.00576875128735
 11
1658.5213728999595
 21
171.31474552785119
  0
LINE
  8
_0-0_0
  6
CONTINUOUS
 62
    7
 10
1660.7724463640375
 20
175.21371913920461
 11
1667.9770368139245
 21
187.69243584613378
  0
ARC
  8
_0-0_0
  6
CONTINUOUS
 62
    7
 10
1698.028084965232
 20
235.24237806489771
 40
70.650000000000006
 50
213.01625173631956
 51
238.17498505687661
  0
LINE
  8
_0-0_0
  6
CONTINUOUS
 62
    7
 10
1593.3890465062304
 20
214.50698247244208
 11
1624.4104907261149
 21
219.97690006895044
  0
LINE
  8
_0-0_0
  6
CONTINUOUS
 62
    7
 10
1592.6076297067291
 20
218.938617360997
 11
1623.6290739266137
 21
224.40853495750537
  0
ARC
  8
_0-0_0
  6
CONTINUOUS
 62
    7
 10
1698.028084965232
 20
235.24237806489771
 40
75.150000000000006
 50
184.12536896310198
 51
188.28506980447352
  0
ARC
  8
_0-0_0
  6
CONTINUOUS
 62
    7
 10
1698.028084965232
 20
235.24237806489771
 40
75.150000000000006
 50
191.71493019552656
 51
200.86620907736668
  0
ARC
  8
_0-0_0
  6
CONTINUOUS
 62
    7
 10
1698.028084965232
 20
235.24237806489771
 40
75.150000000000006
 50
171.71493019552648
 51
175.87463103689802
  0
ARC
  8
_0-0_0
  6
CONTINUOUS
 62
    7
 10
1698.028084965232
 20
235.24237806489771
 40
75.150000000000006
 50
151.7156988940196
 51
158.28506980447335
  0
ARC
  8
_0-0_0
  6
CONTINUOUS
 62
    7
 10
1698.028084965232
 20
235.24237806489771
 40
75.150000000000006
 50
161.71493019552651
 51
168.28506980447347
  0
ARC
  8
_0-0_0
  6
CONTINUOUS
 62
    7
 10
1698.028084965232
 20
235.24237806489771
 40
75.150000000000006
 50
141.71493019552651
 51
148.28430110598038
  0
ARC
  8
_0-0_0
  6
CONTINUOUS
 62
    7
 10
1698.028084965232
 20
235.24237806489771
 40
75.150000000000006
 50
131.71493019552651
 51
138.28506980447347
  0
ARC
  8
_0-0_0
  6
CONTINUOUS
 62
    7
 10
1698.028084965232
 20
235.24237806489771
 40
75.150000000000006
 50
121.71569889401957
 51
128.28506980447335
  0
ARC
  8
_0-0_0
  6
CONTINUOUS
 62
    7
 10
1698.028084965232
 20
235.24237806489771
 40
75.150000000000006
 50
99.133790922633096
 51
108.28506980447334
  0
ARC
  8
_0-0_0
  6
CONTINUOUS
 62
    7
 10
1698.028084965232
 20
235.24237806489771
 40
75.150000000000006
 50
111.71493019552646
 51
118.28430110598033
  0
ARC
  8
_0-0_0
  6
CONTINUOUS
 62
    7
 10
1698.028084965232
 20
235.24237806489771
 40
70.650000000000006
 50
93.016251736319319
 51
118.17498505687642
  0
ARC
  8
_0-0_0
  6
CONTINUOUS
 62
    7
 10
1698.028084965232
 20
235.24237806489771
 40
70.650000000000006
 50
121.82501494312342
 51
148.17498505687644
  0
ARC
  8
_0-0_0
  6
CONTINUOUS
 62
    7
 10
1698.028084965232
 20
235.24237806489771
 40
56.250000000000014
 50
62.292442775955898
 51
87.709389957361594
  0
ARC
  8
_0-0_0
  6
CONTINUOUS
 62
    7
 10
1698.028084965232
 20
235.24237806489771
 40
56.250000000000014
 50
92.290610042638392
 51
117.70755722404397
  0
ARC
  8
_0-0_0
  6
CONTINUOUS
 62
    7
 10
1698.028084965232
 20
325.24237806489788
 40
19.799999999999997
 50
259.17820751832755
 51
263.51692630710295
  0
ARC
  8
_0-0_0
  6
CONTINUOUS
 62
    7
 10
1698.028084965232
 20
325.24237806489788
 40
19.799999999999997
 50
276.48307369289705
 51
280.82179248167239
  0
ARC
  8
_0-0_0
  6
CONTINUOUS
 62
    7
 10
1698.028084965232
 20
235.24237806489771
 40
70.650000000000006
 50
31.82501494312352
 51
58.174985056876444
  0
ARC
  8
_0-0_0
  6
CONTINUOUS
 62
    7
 10
1698.028084965232
 20
235.24237806489771
 40
70.650000000000006
 50
61.825014943123456
 51
86.983748263680667
  0
ARC
  8
_0-0_0
  6
CONTINUOUS
 62
    7
 10
1698.028084965232
 20
235.24237806489771
 40
75.150000000000006
 50
61.715698894019674
 51
68.285069804473423
  0
ARC
  8
_0-0_0
  6
CONTINUOUS
 62
    7
 10
1698.028084965232
 20
235.24237806489771
 40
75.150000000000006
 50
71.714930195526506
 51
80.866209077366889
  0
ARC
  8
_0-0_0
  6
CONTINUOUS
 62
    7
 10
1698.028084965232
 20
235.24237806489771
 40
42.75
 50
183.01278750418331
 51
236.98721249581683
  0
ARC
  8
_0-0_0
  6
CONTINUOUS
 62
    7
 10
1698.028084965232
 20
235.24237806489771
 40
42.75
 50
243.01278750418339
 51
296.98721249581683
  0
ARC
  8
_0-0_0
  6
CONTINUOUS
 62
    7
 10
1698.028084965232
 20
235.24237806489771
 40
42.75
 50
303.01278750418362
 51
356.98721249581695
  0
ARC
  8
_0-0_0
  6
CONTINUOUS
 62
    7
 10
1698.028084965232
 20
235.24237806489771
 40
42.75
 50
3.0127875041834806
 51
56.987212495816621
  0
ARC
  8
_0-0_0
  6
CONTINUOUS
 62
    7
 10
1698.028084965232
 20
235.24237806489771
 40
42.75
 50
63.012787504183372
 51
116.98721249581641
  0
ARC
  8
_0-0_0
  6
CONTINUOUS
 62
    7
 10
1698.028084965232
 20
235.24237806489771
 40
42.75
 50
123.01278750418319
 51
176.98721249581649
  0
ARC
  8
_0-0_0
  6
CONTINUOUS
 62
    7
 10
1698.028084965232
 20
235.24237806489771
 40
56.250000000000014
 50
182.29244277595586
 51
207.70938995736151
  0
ARC
  8
_0-0_0
  6
CONTINUOUS
 62
    7
 10
1698.028084965232
 20
235.24237806489771
 40
56.250000000000014
 50
212.29061004263846
 51
237.70755722404428
  0
ARC
  8
_0-0_0
  6
CONTINUOUS
 62
    7
 10
1698.028084965232
 20
235.24237806489771
 40
56.250000000000014
 50
302.29244277595615
 51
327.70938995736174
  0
ARC
  8
_0-0_0
  6
CONTINUOUS
 62
    7
 10
1698.028084965232
 20
235.24237806489771
 40
56.250000000000014
 50
332.29061004263872
 51
357.70755722404419
  0
ARC
  8
_0-0_0
  6
CONTINUOUS
 62
    7
 10
1698.028084965232
 20
235.24237806489771
 40
56.250000000000014
 50
2.2924427759559904
 51
27.70938995736152
  0
ARC
  8
_0-0_0
  6
CONTINUOUS
 62
    7
 10
1698.028084965232
 20
235.24237806489771
 40
56.250000000000014
 50
32.290610042638605
 51
57.707557224044109
  0
ARC
  8
_0-0_0
  6
CONTINUOUS
 62
    7
 10
1698.028084965232
 20
235.24237806489771
 40
56.250000000000014
 50
122.29244277595573
 51
147.70938995736142
  0
ARC
  8
_0-0_0
  6
CONTINUOUS
 62
    7
 10
1698.028084965232
 20
235.24237806489771
 40
56.250000000000014
 50
152.29061004263849
 51
177.70755722404402
  0
ARC
  8
_0-0_0
  6
CONTINUOUS
 62
    7
 10
1698.028084965232
 20
235.24237806489771
 40
56.250000000000014
 50
242.29244277595603
 51
267.70938995736162
  0
ARC
  8
_0-0_0
  6
CONTINUOUS
 62
    7
 10
1698.028084965232
 20
235.24237806489771
 40
56.250000000000014
 50
272.29061004263838
 51
297.70755722404431
  0
ARC
  8
_0-0_0
  6
CONTINUOUS
 62
    7
 10
1698.028084965232
 20
235.24237806489771
 40
75.150000000000006
 50
281.71493019552668
 51
288.28506980447361
  0
ARC
  8
_0-0_0
  6
CONTINUOUS
 62
    7
 10
1698.028084965232
 20
235.24237806489771
 40
75.150000000000006
 50
291.71493019552685
 51
298.2843011059806
  0
ARC
  8
_0-0_0
  6
CONTINUOUS
 62
    7
 10
1698.028084965232
 20
235.24237806489771
 40
75.150000000000006
 50
11.714930195526575
 51
18.285069804473451
  0
ARC
  8
_0-0_0
  6
CONTINUOUS
 62
    7
 10
1698.028084965232
 20
235.24237806489771
 40
75.150000000000006
 50
21.714930195526584
 51
28.284301105980408
  0
ARC
  8
_0-0_0
  6
CONTINUOUS
 62
    7
 10
1698.028084965232
 20
235.24237806489771
 40
75.150000000000006
 50
31.715698894019692
 51
38.285069804473508
  0
ARC
  8
_0-0_0
  6
CONTINUOUS
 62
    7
 10
1698.028084965232
 20
235.24237806489771
 40
75.150000000000006
 50
41.714930195526541
 51
48.285069804473501
  0
ARC
  8
_0-0_0
  6
CONTINUOUS
 62
    7
 10
1698.028084965232
 20
235.24237806489771
 40
75.150000000000006
 50
51.714930195526648
 51
58.28430110598044
  0
ARC
  8
_0-0_0
  6
CONTINUOUS
 62
    7
 10
1620.0857986246322
 20
190.24237806489788
 40
19.799999999999997
 50
19.178207518326079
 51
23.516926307102334
  0
ARC
  8
_0-0_0
  6
CONTINUOUS
 62
    7
 10
1620.0857986246322
 20
190.24237806489788
 40
19.799999999999997
 50
36.48307369289693
 51
40.821792481673853
  0
ARC
  8
_0-0_0
  6
CONTINUOUS
 62
    7
 10
1698.028084965232
 20
235.24237806489771
 40
75.150000000000006
 50
219.13379092263321
 51
228.28506980447355
  0
ARC
  8
_0-0_0
  6
CONTINUOUS
 62
    7
 10
1698.028084965232
 20
235.24237806489771
 40
75.150000000000006
 50
231.71493019552665
 51
238.28430110598046
  0
ARC
  8
_0-0_0
  6
CONTINUOUS
 62
    7
 10
1698.028084965232
 20
235.24237806489771
 40
75.150000000000006
 50
241.71569889401968
 51
248.28506980447366
  0
ARC
  8
_0-0_0
  6
CONTINUOUS
 62
    7
 10
1698.028084965232
 20
235.24237806489771
 40
75.150000000000006
 50
251.71493019552662
 51
258.28506980447366
  0
LINE
  8
_0-0_0
  6
CONTINUOUS
 62
    7
 10
1700.278084965232
 20
128.59237806489784
 11
1700.278084965232
 21
160.12606825138243
  0
LINE
  8
_0-0_0
  6
CONTINUOUS
 62
    7
 10
1700.278084965232
 20
164.62821517953876
 11
1700.278084965232
 21
178.99237806489771
  0
ARC
  8
_0-0_0
  6
CONTINUOUS
 62
    7
 10
1698.028084965232
 20
235.24237806489771
 40
70.650000000000006
 50
271.82501494312351
 51
298.17498505687678
  0
LINE
  8
_0-0_0
  6
CONTINUOUS
 62
    7
 10
1695.778084965232
 20
128.59237806489784
 11
1695.778084965232
 21
160.12606825138243
  0
LINE
  8
_0-0_0
  6
CONTINUOUS
 62
    7
 10
1695.778084965232
 20
164.62821517953876
 11
1695.778084965232
 21
178.99237806489771
  0
ARC
  8
_0-0_0
  6
CONTINUOUS
 62
    7
 10
1698.028084965232
 20
235.24237806489771
 40
75.150000000000006
 50
271.71569889401962
 51
278.28506980447366
  0
ARC
  8
_0-0_0
  6
CONTINUOUS
 62
    7
 10
1698.028084965232
 20
235.24237806489771
 40
75.150000000000006
 50
261.71493019552673
 51
268.28430110598043
  0
ARC
  8
_0-0_0
  6
CONTINUOUS
 62
    7
 10
1698.028084965232
 20
235.24237806489771
 40
70.650000000000006
 50
241.82501494312362
 51
268.17498505687661
  0
CIRCLE
  8
_0-0_0
  6
CONTINUOUS
 62
    7
 10
1217.3391872601533
 20
235.24237806489788
 40
4.2750000000000004
  0
CIRCLE
  8
_0-0_0
  6
CONTINUOUS
 62
    7
 10
1357.7391872601534
 20
235.24237806489788
 40
4.2750000000000004
  0
CIRCLE
  8
_0-0_0
  6
CONTINUOUS
 62
    7
 10
1287.5391872601533
 20
325.24237806489788
 40
16.200000000000003
  0
CIRCLE
  8
_0-0_0
  6
CONTINUOUS
 62
    7
 10
1209.5969009195539
 20
190.24237806489788
 40
16.200000000000003
  0
CIRCLE
  8
_0-0_0
  6
CONTINUOUS
 62
    7
 10
1365.4814736007531
 20
190.24237806489788
 40
16.200000000000003
  0
CIRCLE
  8
_0-0_0
  6
CONTINUOUS
 62
    7
 10
1287.5391872601533
 20
325.24237806489788
 40
5.8499999999999996
  0
CIRCLE
  8
_0-0_0
  6
CONTINUOUS
 62
    7
 10
1209.5969009195539
 20
190.24237806489788
 40
5.8499999999999996
  0
CIRCLE
  8
_0-0_0
  6
CONTINUOUS
 62
    7
 10
1365.4814736007531
 20
190.24237806489788
 40
5.8499999999999996
  0
CIRCLE
  8
_0-0_0
  6
CONTINUOUS
 62
    7
 10
1287.5391872601533
 20
235.24237806489788
 40
47.700000000000003
  0
LINE
  8
_0-0_0
  6
CONTINUOUS
 62
    7
 10
1275.6865730333939
 20
281.44633391276454
 11
1265.0357590064441
 21
281.44633391276454
  0
LINE
  8
_0-0_0
  6
CONTINUOUS
 62
    7
 10
1275.6865730333939
 20
281.44633391276454
 11
1275.7609876830206
 21
284.57412032250994
  0
LINE
  8
_0-0_0
  6
CONTINUOUS
 62
    7
 10
1275.7609876830206
 20
284.57412032250994
 11
1275.6713314838557
 21
287.6974618562582
  0
LINE
  8
_0-0_0
  6
CONTINUOUS
 62
    7
 10
1275.6713314838557
 20
287.6974618562582
 11
1275.4203285941426
 21
290.72145736199354
  0
LINE
  8
_0-0_0
  6
CONTINUOUS
 62
    7
 10
1275.4203285941426
 20
290.72145736199354
 11
1275.0156056096714
 21
293.5542242664896
  0
LINE
  8
_0-0_0
  6
CONTINUOUS
 62
    7
 10
1275.0156056096714
 20
293.5542242664896
 11
1274.4694598335259
 21
296.1096903808027
  0
LINE
  8
_0-0_0
  6
CONTINUOUS
 62
    7
 10
1274.4694598335259
 20
296.1096903808027
 11
1273.7984856287508
 21
298.31020916017746
  0
LINE
  8
_0-0_0
  6
CONTINUOUS
 62
    7
 10
1273.7984856287508
 20
298.31020916017746
 11
1273.0230702070287
 21
300.08891895501887
  0
LINE
  8
_0-0_0
  6
CONTINUOUS
 62
    7
 10
1273.0230702070287
 20
300.08891895501887
 11
1272.16677417357
 21
301.39177456828133
  0
LINE
  8
_0-0_0
  6
CONTINUOUS
 62
    7
 10
1272.16677417357
 20
301.39177456828133
 11
1271.2556156500445
 21
302.1791893914326
  0
LINE
  8
_0-0_0
  6
CONTINUOUS
 62
    7
 10
1271.2556156500445
 20
302.1791893914326
 11
1270.3172797271209
 21
302.42723822352229
  0
LINE
  8
_0-0_0
  6
CONTINUOUS
 62
    7
 10
1270.3172797271209
 20
302.42723822352229
 11
1269.380277266996
 21
302.12838422630614
  0
LINE
  8
_0-0_0
  6
CONTINUOUS
 62
    7
 10
1269.380277266996
 20
302.12838422630614
 11
1268.4730786152757
 21
301.29170792726222
  0
LINE
  8
_0-0_0
  6
CONTINUOUS
 62
    7
 10
1268.4730786152757
 20
301.29170792726222
 11
1267.6232485439268
 21
299.94263131235829
  0
LINE
  8
_0-0_0
  6
CONTINUOUS
 62
    7
 10
1267.6232485439268
 20
299.94263131235829
 11
1266.8566087096328
 21
298.12214539187249
  0
LINE
  8
_0-0_0
  6
CONTINUOUS
 62
    7
 10
1266.8566087096328
 20
298.12214539187249
 11
1266.1964530758205
 21
295.88556470928842
  0
LINE
  8
_0-0_0
  6
CONTINUOUS
 62
    7
 10
1266.1964530758205
 20
295.88556470928842
 11
1265.6628401373678
 21
293.30084663688206
  0
LINE
  8
_0-0_0
  6
CONTINUOUS
 62
    7
 10
1265.6628401373678
 20
293.30084663688206
 11
1265.2719834533891
 21
290.44652652535285
  0
LINE
  8
_0-0_0
  6
CONTINUOUS
 62
    7
 10
1265.2719834533891
 20
290.44652652535285
 11
1265.0357590064441
 21
287.40933144693417
  0
LINE
  8
_0-0_0
  6
CONTINUOUS
 62
    7
 10
1265.0357590064441
 20
287.40933144693417
 11
1264.9613443568171
 21
284.28154503718878
  0
LINE
  8
_0-0_0
  6
CONTINUOUS
 62
    7
 10
1264.9613443568171
 20
284.28154503718878
 11
1265.0357590064441
 21
281.44633391276454
  0
LINE
  8
_0-0_0
  6
CONTINUOUS
 62
    7
 10
1299.3918014869128
 20
281.44633391276454
 11
1310.042615513863
 21
281.44633391276454
  0
LINE
  8
_0-0_0
  6
CONTINUOUS
 62
    7
 10
1310.042615513863
 20
281.44633391276454
 11
1310.1170301634897
 21
284.57412032250994
  0
LINE
  8
_0-0_0
  6
CONTINUOUS
 62
    7
 10
1310.1170301634897
 20
284.57412032250994
 11
1310.0273739643249
 21
287.6974618562582
  0
LINE
  8
_0-0_0
  6
CONTINUOUS
 62
    7
 10
1310.0273739643249
 20
287.6974618562582
 11
1309.7763710746117
 21
290.72145736199354
  0
LINE
  8
_0-0_0
  6
CONTINUOUS
 62
    7
 10
1309.7763710746117
 20
290.72145736199354
 11
1309.3716480901408
 21
293.5542242664896
  0
LINE
  8
_0-0_0
  6
CONTINUOUS
 62
    7
 10
1309.3716480901408
 20
293.5542242664896
 11
1308.8255023139945
 21
296.1096903808027
  0
LINE
  8
_0-0_0
  6
CONTINUOUS
 62
    7
 10
1308.8255023139945
 20
296.1096903808027
 11
1308.1545281092199
 21
298.31020916017746
  0
LINE
  8
_0-0_0
  6
CONTINUOUS
 62
    7
 10
1308.1545281092199
 20
298.31020916017746
 11
1307.3791126874976
 21
300.08891895501887
  0
LINE
  8
_0-0_0
  6
CONTINUOUS
 62
    7
 10
1307.3791126874976
 20
300.08891895501887
 11
1306.5228166540387
 21
301.39177456828133
  0
LINE
  8
_0-0_0
  6
CONTINUOUS
 62
    7
 10
1306.5228166540387
 20
301.39177456828133
 11
1305.6116581305132
 21
302.1791893914326
  0
LINE
  8
_0-0_0
  6
CONTINUOUS
 62
    7
 10
1305.6116581305132
 20
302.1791893914326
 11
1304.6733222075895
 21
302.42723822352229
  0
LINE
  8
_0-0_0
  6
CONTINUOUS
 62
    7
 10
1304.6733222075895
 20
302.42723822352229
 11
1303.7363197474651
 21
302.12838422630614
  0
LINE
  8
_0-0_0
  6
CONTINUOUS
 62
    7
 10
1303.7363197474651
 20
302.12838422630614
 11
1302.8291210957443
 21
301.29170792726222
  0
LINE
  8
_0-0_0
  6
CONTINUOUS
 62
    7
 10
1302.8291210957443
 20
301.29170792726222
 11
1301.9792910243959
 21
299.94263131235829
  0
LINE
  8
_0-0_0
  6
CONTINUOUS
 62
    7
 10
1301.9792910243959
 20
299.94263131235829
 11
1301.212651190102
 21
298.12214539187249
  0
LINE
  8
_0-0_0
  6
CONTINUOUS
 62
    7
 10
1301.212651190102
 20
298.12214539187249
 11
1300.5524955562892
 21
295.88556470928842
  0
LINE
  8
_0-0_0
  6
CONTINUOUS
 62
    7
 10
1300.5524955562892
 20
295.88556470928842
 11
1300.0188826178371
 21
293.30084663688206
  0
LINE
  8
_0-0_0
  6
CONTINUOUS
 62
    7
 10
1300.0188826178371
 20
293.30084663688206
 11
1299.6280259338582
 21
290.44652652535285
  0
LINE
  8
_0-0_0
  6
CONTINUOUS
 62
    7
 10
1299.6280259338582
 20
290.44652652535285
 11
1299.3918014869128
 21
287.40933144693417
  0
LINE
  8
_0-0_0
  6
CONTINUOUS
 62
    7
 10
1299.3918014869128
 20
287.40933144693417
 11
1299.317386837286
 21
284.28154503718883
  0
LINE
  8
_0-0_0
  6
CONTINUOUS
 62
    7
 10
1299.317386837286
 20
284.28154503718883
 11
1299.3918014869128
 21
281.44633391276454
  0
LINE
  8
_0-0_0
  6
CONTINUOUS
 62
    7
 10
1269.4198839982441
 20
190.15858036349886
 11
1268.5000522600071
 21
189.91340250189711
  0
LINE
  8
_0-0_0
  6
CONTINUOUS
 62
    7
 10
1268.5000522600071
 20
189.91340250189711
 11
1267.6367695215961
 21
189.34877043008538
  0
LINE
  8
_0-0_0
  6
CONTINUOUS
 62
    7
 10
1267.6367695215961
 20
189.34877043008538
 11
1266.8562661921756
 21
188.48184020784782
  0
LINE
  8
_0-0_0
  6
CONTINUOUS
 62
    7
 10
1266.8562661921756
 20
188.48184020784782
 11
1266.1822574704556
 21
187.33895307129927
  0
LINE
  8
_0-0_0
  6
CONTINUOUS
 62
    7
 10
1266.1822574704556
 20
187.33895307129927
 11
1265.6352227703817
 21
185.95483506775503
  0
LINE
  8
_0-0_0
  6
CONTINUOUS
 62
    7
 10
1265.6352227703817
 20
185.95483506775503
 11
1265.2317834645023
 21
184.3715419223555
  0
LINE
  8
_0-0_0
  6
CONTINUOUS
 62
    7
 10
1265.2317834645023
 20
184.3715419223555
 11
1264.9841978519767
 21
182.63718119613822
  0
LINE
  8
_0-0_0
  6
CONTINUOUS
 62
    7
 10
1264.9841978519767
 20
182.63718119613822
 11
1264.8999886963561
 21
180.80445056214086
  0
LINE
  8
_0-0_0
  6
CONTINUOUS
 62
    7
 10
1264.8999886963561
 20
180.80445056214086
 11
1264.9817146502235
 21
178.92903661327063
  0
LINE
  8
_0-0_0
  6
CONTINUOUS
 62
    7
 10
1264.9817146502235
 20
178.92903661327063
 11
1265.2268925118251
 21
177.06792285335888
  0
LINE
  8
_0-0_0
  6
CONTINUOUS
 62
    7
 10
1265.2268925118251
 20
177.06792285335888
 11
1265.6280726759026
 21
175.27765828223147
  0
LINE
  8
_0-0_0
  6
CONTINUOUS
 62
    7
 10
1265.6280726759026
 20
175.27765828223147
 11
1266.1730654861772
 21
173.61263918296464
  0
LINE
  8
_0-0_0
  6
CONTINUOUS
 62
    7
 10
1266.1730654861772
 20
173.61263918296464
 11
1266.8453116118881
 21
172.1234563183491
  0
LINE
  8
_0-0_0
  6
CONTINUOUS
 62
    7
 10
1266.8453116118881
 20
172.1234563183491
 11
1267.6243851946792
 21
170.85535775616347
  0
LINE
  8
_0-0_0
  6
CONTINUOUS
 62
    7
 10
1267.6243851946792
 20
170.85535775616347
 11
1268.4866144779671
 21
169.8468740295308
  0
LINE
  8
_0-0_0
  6
CONTINUOUS
 62
    7
 10
1268.4866144779671
 20
169.8468740295308
 11
1269.4058010612885
 21
169.1286474061676
  0
LINE
  8
_0-0_0
  6
CONTINUOUS
 62
    7
 10
1269.4058010612885
 20
169.1286474061676
 11
1270.3540159254396
 21
168.72250083858427
  0
LINE
  8
_0-0_0
  6
CONTINUOUS
 62
    7
 10
1270.3540159254396
 20
168.72250083858427
 11
1271.3024480415936
 21
168.64077488471713
  0
LINE
  8
_0-0_0
  6
CONTINUOUS
 62
    7
 10
1271.3024480415936
 20
168.64077488471713
 11
1272.2222797798306
 21
168.88595274631888
  0
LINE
  8
_0-0_0
  6
CONTINUOUS
 62
    7
 10
1272.2222797798306
 20
168.88595274631888
 11
1273.0855625182417
 21
169.45058481813061
  0
LINE
  8
_0-0_0
  6
CONTINUOUS
 62
    7
 10
1273.0855625182417
 20
169.45058481813061
 11
1273.8660658476624
 21
170.31751504036816
  0
LINE
  8
_0-0_0
  6
CONTINUOUS
 62
    7
 10
1273.8660658476624
 20
170.31751504036816
 11
1274.5400745693821
 21
171.46040217691672
  0
LINE
  8
_0-0_0
  6
CONTINUOUS
 62
    7
 10
1274.5400745693821
 20
171.46040217691672
 11
1275.0871092694561
 21
172.84452018046079
  0
LINE
  8
_0-0_0
  6
CONTINUOUS
 62
    7
 10
1275.0871092694561
 20
172.84452018046079
 11
1275.4905485753357
 21
174.42781332586048
  0
LINE
  8
_0-0_0
  6
CONTINUOUS
 62
    7
 10
1275.4905485753357
 20
174.42781332586048
 11
1275.7381341878613
 21
176.1621740520776
  0
LINE
  8
_0-0_0
  6
CONTINUOUS
 62
    7
 10
1275.7381341878613
 20
176.1621740520776
 11
1275.8223433434814
 21
177.99490468607513
  0
LINE
  8
_0-0_0
  6
CONTINUOUS
 62
    7
 10
1275.8223433434814
 20
177.99490468607513
 11
1275.7406173896143
 21
179.87031863494536
  0
LINE
  8
_0-0_0
  6
CONTINUOUS
 62
    7
 10
1275.7406173896143
 20
179.87031863494536
 11
1275.4954395280126
 21
181.73143239485711
  0
LINE
  8
_0-0_0
  6
CONTINUOUS
 62
    7
 10
1275.4954395280126
 20
181.73143239485711
 11
1275.0942593639356
 21
183.52169696598452
  0
LINE
  8
_0-0_0
  6
CONTINUOUS
 62
    7
 10
1275.0942593639356
 20
183.52169696598452
 11
1274.5492665536606
 21
185.18671606525135
  0
LINE
  8
_0-0_0
  6
CONTINUOUS
 62
    7
 10
1274.5492665536606
 20
185.18671606525135
 11
1273.8770204279499
 21
186.67589892986672
  0
LINE
  8
_0-0_0
  6
CONTINUOUS
 62
    7
 10
1273.8770204279499
 20
186.67589892986672
 11
1273.0979468451587
 21
187.94399749205252
  0
LINE
  8
_0-0_0
  6
CONTINUOUS
 62
    7
 10
1273.0979468451587
 20
187.94399749205252
 11
1272.2357175618706
 21
188.95248121868502
  0
LINE
  8
_0-0_0
  6
CONTINUOUS
 62
    7
 10
1272.2357175618706
 20
188.95248121868502
 11
1271.3165309785493
 21
189.67070784204839
  0
LINE
  8
_0-0_0
  6
CONTINUOUS
 62
    7
 10
1271.3165309785493
 20
189.67070784204839
 11
1270.3683161143981
 21
190.07685440963155
  0
LINE
  8
_0-0_0
  6
CONTINUOUS
 62
    7
 10
1270.3683161143981
 20
190.07685440963155
 11
1269.4198839982441
 21
190.15858036349886
  0
LINE
  8
_0-0_0
  6
CONTINUOUS
 62
    7
 10
1305.6584905220625
 20
190.15858036349886
 11
1304.710058405909
 21
190.07685440963155
  0
LINE
  8
_0-0_0
  6
CONTINUOUS
 62
    7
 10
1304.710058405909
 20
190.07685440963155
 11
1303.7618435417576
 21
189.67070784204839
  0
LINE
  8
_0-0_0
  6
CONTINUOUS
 62
    7
 10
1303.7618435417576
 20
189.67070784204839
 11
1302.842656958436
 21
188.95248121868519
  0
LINE
  8
_0-0_0
  6
CONTINUOUS
 62
    7
 10
1302.842656958436
 20
188.95248121868519
 11
1301.9804276751479
 21
187.94399749205252
  0
LINE
  8
_0-0_0
  6
CONTINUOUS
 62
    7
 10
1301.9804276751479
 20
187.94399749205252
 11
1301.2013540923572
 21
186.67589892986689
  0
LINE
  8
_0-0_0
  6
CONTINUOUS
 62
    7
 10
1301.2013540923572
 20
186.67589892986689
 11
1300.5291079666463
 21
185.18671606525135
  0
LINE
  8
_0-0_0
  6
CONTINUOUS
 62
    7
 10
1300.5291079666463
 20
185.18671606525135
 11
1299.9841151563714
 21
183.52169696598452
  0
LINE
  8
_0-0_0
  6
CONTINUOUS
 62
    7
 10
1299.9841151563714
 20
183.52169696598452
 11
1299.5829349922942
 21
181.73143239485711
  0
LINE
  8
_0-0_0
  6
CONTINUOUS
 62
    7
 10
1299.5829349922942
 20
181.73143239485711
 11
1299.3377571306926
 21
179.87031863494536
  0
LINE
  8
_0-0_0
  6
CONTINUOUS
 62
    7
 10
1299.3377571306926
 20
179.87031863494536
 11
1299.2560311768252
 21
177.99490468607513
  0
LINE
  8
_0-0_0
  6
CONTINUOUS
 62
    7
 10
1299.2560311768252
 20
177.99490468607513
 11
1299.3402403324453
 21
176.1621740520776
  0
LINE
  8
_0-0_0
  6
CONTINUOUS
 62
    7
 10
1299.3402403324453
 20
176.1621740520776
 11
1299.587825944971
 21
174.42781332586048
  0
LINE
  8
_0-0_0
  6
CONTINUOUS
 62
    7
 10
1299.587825944971
 20
174.42781332586048
 11
1299.9912652508506
 21
172.84452018046079
  0
LINE
  8
_0-0_0
  6
CONTINUOUS
 62
    7
 10
1299.9912652508506
 20
172.84452018046079
 11
1300.5382999509247
 21
171.46040217691672
  0
LINE
  8
_0-0_0
  6
CONTINUOUS
 62
    7
 10
1300.5382999509247
 20
171.46040217691672
 11
1301.2123086726442
 21
170.31751504036816
  0
LINE
  8
_0-0_0
  6
CONTINUOUS
 62
    7
 10
1301.2123086726442
 20
170.31751504036816
 11
1301.9928120020652
 21
169.45058481813061
  0
LINE
  8
_0-0_0
  6
CONTINUOUS
 62
    7
 10
1301.9928120020652
 20
169.45058481813061
 11
1302.856094740476
 21
168.88595274631888
  0
LINE
  8
_0-0_0
  6
CONTINUOUS
 62
    7
 10
1302.856094740476
 20
168.88595274631888
 11
1303.7759264787132
 21
168.64077488471713
  0
LINE
  8
_0-0_0
  6
CONTINUOUS
 62
    7
 10
1303.7759264787132
 20
168.64077488471713
 11
1304.724358594867
 21
168.72250083858427
  0
LINE
  8
_0-0_0
  6
CONTINUOUS
 62
    7
 10
1304.724358594867
 20
168.72250083858427
 11
1305.6725734590182
 21
169.1286474061676
  0
LINE
  8
_0-0_0
  6
CONTINUOUS
 62
    7
 10
1305.6725734590182
 20
169.1286474061676
 11
1306.59176004234
 21
169.8468740295308
  0
LINE
  8
_0-0_0
  6
CONTINUOUS
 62
    7
 10
1306.59176004234
 20
169.8468740295308
 11
1307.4539893256274
 21
170.85535775616347
  0
LINE
  8
_0-0_0
  6
CONTINUOUS
 62
    7
 10
1307.4539893256274
 20
170.85535775616347
 11
1308.2330629084186
 21
172.1234563183491
  0
LINE
  8
_0-0_0
  6
CONTINUOUS
 62
    7
 10
1308.2330629084186
 20
172.1234563183491
 11
1308.9053090341295
 21
173.61263918296464
  0
LINE
  8
_0-0_0
  6
CONTINUOUS
 62
    7
 10
1308.9053090341295
 20
173.61263918296464
 11
1309.4503018444043
 21
175.27765828223147
  0
LINE
  8
_0-0_0
  6
CONTINUOUS
 62
    7
 10
1309.4503018444043
 20
175.27765828223147
 11
1309.851482008482
 21
177.06792285335888
  0
LINE
  8
_0-0_0
  6
CONTINUOUS
 62
    7
 10
1309.851482008482
 20
177.06792285335888
 11
1310.0966598700834
 21
178.92903661327063
  0
LINE
  8
_0-0_0
  6
CONTINUOUS
 62
    7
 10
1310.0966598700834
 20
178.92903661327063
 11
1310.1783858239507
 21
180.80445056214086
  0
LINE
  8
_0-0_0
  6
CONTINUOUS
 62
    7
 10
1310.1783858239507
 20
180.80445056214086
 11
1310.0941766683304
 21
182.63718119613822
  0
LINE
  8
_0-0_0
  6
CONTINUOUS
 62
    7
 10
1310.0941766683304
 20
182.63718119613822
 11
1309.8465910558043
 21
184.3715419223555
  0
LINE
  8
_0-0_0
  6
CONTINUOUS
 62
    7
 10
1309.8465910558043
 20
184.3715419223555
 11
1309.4431517499252
 21
185.95483506775503
  0
LINE
  8
_0-0_0
  6
CONTINUOUS
 62
    7
 10
1309.4431517499252
 20
185.95483506775503
 11
1308.8961170498512
 21
187.33895307129927
  0
LINE
  8
_0-0_0
  6
CONTINUOUS
 62
    7
 10
1308.8961170498512
 20
187.33895307129927
 11
1308.2221083281315
 21
188.48184020784782
  0
LINE
  8
_0-0_0
  6
CONTINUOUS
 62
    7
 10
1308.2221083281315
 20
188.48184020784782
 11
1307.441604998711
 21
189.34877043008538
  0
LINE
  8
_0-0_0
  6
CONTINUOUS
 62
    7
 10
1307.441604998711
 20
189.34877043008538
 11
1306.5783222603
 21
189.91340250189711
  0
LINE
  8
_0-0_0
  6
CONTINUOUS
 62
    7
 10
1306.5783222603
 20
189.91340250189711
 11
1305.6584905220625
 21
190.15858036349886
  0
LINE
  8
_0-0_0
  6
CONTINUOUS
 62
    7
 10
1290.4752342596157
 20
326.77192482812222
 11
1345.3556037685062
 21
372.82202264190545
  0
LINE
  8
_0-0_0
  6
CONTINUOUS
 62
    7
 10
1345.3556037685062
 20
372.82202264190545
 11
1518.0195896377395
 21
372.82202264190545
  0
TEXT
  8
_0-0_0
 62
    7
 10
1360.4375967031228
 20
372.07202264190545
 40
15
 41
1
 50
0
  1
アンカーホール φ12
  0
LINE
  8
_0-0_0
  6
CONTINUOUS
 62
    7
 10
1703.5955323277142
 20
221.54927636471581
 11
1704.2618835229032
 21
220.39512223896401
  0
LINE
  8
_0-0_0
  6
CONTINUOUS
 62
    7
 10
1691.7942864076556
 20
220.39512223890978
 11
1692.4606376028453
 21
221.54927636466158
  0
LINE
  8
_0-0_0
  6
CONTINUOUS
 62
    7
 10
1696.0030849652867
 20
220.60008045469476
 11
1696.0030849652867
 21
219.2673780643164
  0
LINE
  8
_0-0_0
  6
CONTINUOUS
 62
    7
 10
1700.0530849652871
 20
219.2673780643164
 11
1700.0530849652871
 21
220.60008045469476
  0
LINE
  8
_0-0_0
  6
CONTINUOUS
 62
    7
 10
1707.7692864082301
 20
222.42012223896404
 11
1707.1029352130411
 21
223.57427636471584
  0
LINE
  8
_0-0_0
  6
CONTINUOUS
 62
    7
 10
1688.9532347175184
 20
223.57427636466161
 11
1688.2868835223287
 21
222.42012223890981
  0
LINE
  8
_0-0_0
  6
CONTINUOUS
 62
    7
 10
1709.6961866654613
 20
226.16752781717611
 11
1710.8503407912137
 21
225.50117662198693
  0
LINE
  8
_0-0_0
  6
CONTINUOUS
 62
    7
 10
1684.3349832650581
 20
229.67493070240903
 11
1683.1808291393056
 21
229.00857950721968
  0
LINE
  8
_0-0_0
  6
CONTINUOUS
 62
    7
 10
1685.2058291393062
 20
225.50117662189263
 11
1686.359983265058
 21
226.16752781708198
  0
LINE
  8
_0-0_0
  6
CONTINUOUS
 62
    7
 10
1712.8753407912129
 20
229.00857950731381
 11
1711.7211866654618
 21
229.67493070250299
  0
LINE
  8
_0-0_0
  6
CONTINUOUS
 62
    7
 10
1712.6703825754278
 20
233.21737806494457
 11
1714.0030849658065
 21
233.21737806494457
  0
LINE
  8
_0-0_0
  6
CONTINUOUS
 62
    7
 10
1682.0530849646582
 20
233.21737806483594
 11
1683.3857873550369
 21
233.21737806483594
  0
LINE
  8
_0-0_0
  6
CONTINUOUS
 62
    7
 10
1683.3857873550369
 20
237.26737806483601
 11
1682.0530849646582
 21
237.26737806483601
  0
LINE
  8
_0-0_0
  6
CONTINUOUS
 62
    7
 10
1714.0030849658065
 20
237.26737806494464
 11
1712.6703825754278
 21
237.26737806494464
  0
LINE
  8
_0-0_0
  6
CONTINUOUS
 62
    7
 10
1711.7211866654072
 20
240.80982542737189
 11
1712.875340791159
 21
241.47617662256107
  0
LINE
  8
_0-0_0
  6
CONTINUOUS
 62
    7
 10
1683.1808291392517
 20
241.47617662246685
 11
1684.3349832650035
 21
240.80982542727776
  0
LINE
  8
_0-0_0
  6
CONTINUOUS
 62
    7
 10
1686.3599832650041
 20
244.31722831260464
 11
1685.2058291392516
 21
244.98357950779391
  0
LINE
  8
_0-0_0
  6
CONTINUOUS
 62
    7
 10
1710.8503407911592
 20
244.98357950788795
 11
1709.6961866654067
 21
244.31722831269877
  0
LINE
  8
_0-0_0
  6
CONTINUOUS
 62
    7
 10
1707.1029352129469
 20
246.91047976511925
 11
1707.7692864081359
 21
248.06463389087116
  0
LINE
  8
_0-0_0
  6
CONTINUOUS
 62
    7
 10
1704.2618835228091
 20
250.0896338908712
 11
1703.59553232762
 21
248.93547976511928
  0
LINE
  8
_0-0_0
  6
CONTINUOUS
 62
    7
 10
1696.0030849651782
 20
251.21737806546452
 11
1696.0030849651782
 21
249.88467567508621
  0
LINE
  8
_0-0_0
  6
CONTINUOUS
 62
    7
 10
1692.4606376027511
 20
248.93547976506483
 11
1691.7942864075615
 21
250.08963389081686
  0
LINE
  8
_0-0_0
  6
CONTINUOUS
 62
    7
 10
1688.2868835222346
 20
248.06463389081682
 11
1688.9532347174243
 21
246.91047976506491
  0
LINE
  8
_0-0_0
  6
CONTINUOUS
 62
    7
 10
1700.053084965178
 20
249.88467567508593
 11
1700.053084965178
 21
251.21737806546452
  0
CIRCLE
  8
_0-0_0
  6
CONTINUOUS
 62
    7
 10
1698.0280849651801
 20
235.24237806544153
 40
10.800000000000216
  0
ARC
  8
_0-0_0
  6
CONTINUOUS
 62
    7
 10
1690.0405849649921
 20
221.40762223890971
 40
2.0249999999999977
 50
149.99999999999983
 51
329.99999999999983
  0
ARC
  8
_0-0_0
  6
CONTINUOUS
 62
    7
 10
1698.0280849652866
 20
235.24237806431637
 40
14.399999999999988
 50
279.59406879190908
 51
290.40593120927889
  0
ARC
  8
_0-0_0
  6
CONTINUOUS
 62
    7
 10
1703.2058207459447
 20
221.32427627807488
 40
0.4500001732820183
 50
30.000000000008516
 51
110.40593120808607
  0
ARC
  8
_0-0_0
  6
CONTINUOUS
 62
    7
 10
1695.5530847920052
 20
220.60008045469476
 40
0.4500001732820163
 50
0
 51
80.405931208091985
  0
ARC
  8
_0-0_0
  6
CONTINUOUS
 62
    7
 10
1698.0280849652866
 20
219.2673780643164
 40
2.024999999999999
 50
180
 51
0
  0
ARC
  8
_0-0_0
  6
CONTINUOUS
 62
    7
 10
1700.5030851385693
 20
220.60008045469476
 40
0.4500001732820789
 50
99.594068791907958
 51
180
  0
ARC
  8
_0-0_0
  6
CONTINUOUS
 62
    7
 10
1698.0280849649926
 20
235.24237806436616
 40
14.399999999999999
 50
249.59406879190897
 51
260.40593120927895
  0
ARC
  8
_0-0_0
  6
CONTINUOUS
 62
    7
 10
1707.4926467948105
 20
223.79927645135695
 40
0.4500001732820799
 50
129.59406879191445
 51
210.0000000000052
  0
ARC
  8
_0-0_0
  6
CONTINUOUS
 62
    7
 10
1692.8503491846147
 20
221.32427627802048
 40
0.4500001732820794
 50
69.594068791913898
 51
150.00000000000924
  0
ARC
  8
_0-0_0
  6
CONTINUOUS
 62
    7
 10
1706.0155849655666
 20
221.40762223896394
 40
2.024999999999999
 50
210.00000000000023
 51
30.00000000000027
  0
ARC
  8
_0-0_0
  6
CONTINUOUS
 62
    7
 10
1709.4711865788202
 20
225.77781623540631
 40
0.4500001732820159
 50
60.000000000002885
 51
140.40593120809055
  0
ARC
  8
_0-0_0
  6
CONTINUOUS
 62
    7
 10
1688.5635231357489
 20
223.79927645130255
 40
0.4500001732820169
 50
330.00000000000608
 51
50.405931208090536
  0
ARC
  8
_0-0_0
  6
CONTINUOUS
 62
    7
 10
1686.5849833516991
 20
225.77781623531234
 40
0.4500001732820789
 50
39.594068791905279
 51
120.00000000000195
  0
ARC
  8
_0-0_0
  6
CONTINUOUS
 62
    7
 10
1698.0280849655662
 20
235.24237806442039
 40
14.399999999999988
 50
309.59406879190919
 51
320.40593120927849
  0
ARC
  8
_0-0_0
  6
CONTINUOUS
 62
    7
 10
1698.0280849647627
 20
235.24237806455631
 40
14.399999999999988
 50
219.59406879190919
 51
230.4059312092788
  0
ARC
  8
_0-0_0
  6
CONTINUOUS
 62
    7
 10
1711.8628407912133
 20
227.25487806465054
 40
2.0249999999999977
 50
239.99999999999983
 51
59.999999999999829
  0
ARC
  8
_0-0_0
  6
CONTINUOUS
 62
    7
 10
1684.1933291393059
 20
227.25487806455624
 40
2.0249999999999977
 50
120.00000000000017
 51
300.00000000000011
  0
ARC
  8
_0-0_0
  6
CONTINUOUS
 62
    7
 10
1698.0280849657572
 20
235.24237806465044
 40
14.399999999999999
 50
339.59406879190874
 51
350.40593120927866
  0
ARC
  8
_0-0_0
  6
CONTINUOUS
 62
    7
 10
1711.9461867521029
 20
230.06464228427279
 40
0.4500001732820805
 50
159.59406879190777
 51
239.99999999999801
  0
ARC
  8
_0-0_0
  6
CONTINUOUS
 62
    7
 10
1684.109983178417
 20
230.06464228417866
 40
0.4500001732820175
 50
300.00000000000284
 51
20.405931208094412
  0
ARC
  8
_0-0_0
  6
CONTINUOUS
 62
    7
 10
1698.0280849646583
 20
235.24237806483598
 40
14.399999999999999
 50
189.59406879190871
 51
200.40593120927875
  0
ARC
  8
_0-0_0
  6
CONTINUOUS
 62
    7
 10
1683.3857873550369
 20
232.76737789155399
 40
0.4500001732820794
 50
9.5940687919144203
 51
89.999999999999986
  0
ARC
  8
_0-0_0
  6
CONTINUOUS
 62
    7
 10
1698.0280849658063
 20
235.2423780649446
 40
14.399999999999999
 50
9.594068791909077
 51
20.405931209279114
  0
ARC
  8
_0-0_0
  6
CONTINUOUS
 62
    7
 10
1712.6703825754278
 20
232.76737789166287
 40
0.4500001732820163
 50
90
 51
170.40593120809734
  0
ARC
  8
_0-0_0
  6
CONTINUOUS
 62
    7
 10
1682.0530849646582
 20
235.24237806483598
 40
2.0249999999999968
 50
90
 51
270
  0
ARC
  8
_0-0_0
  6
CONTINUOUS
 62
    7
 10
1683.3857873550369
 20
237.71737823811804
 40
0.450000173282015
 50
270
 51
350.40593120809751
  0
ARC
  8
_0-0_0
  6
CONTINUOUS
 62
    7
 10
1712.6703825754278
 20
237.71737823822684
 40
0.4500001732820799
 50
189.59406879191434
 51
270
  0
ARC
  8
_0-0_0
  6
CONTINUOUS
 62
    7
 10
1714.0030849658065
 20
235.2423780649446
 40
2.024999999999999
 50
270
 51
90
  0
ARC
  8
_0-0_0
  6
CONTINUOUS
 62
    7
 10
1698.0280849647081
 20
235.24237806513048
 40
14.399999999999999
 50
159.59406879190928
 51
170.40593120927869
  0
ARC
  8
_0-0_0
  6
CONTINUOUS
 62
    7
 10
1684.1099831783624
 20
240.42011384550796
 40
0.4500001732820793
 50
339.59406879190783
 51
60.000000000003872
  0
ARC
  8
_0-0_0
  6
CONTINUOUS
 62
    7
 10
1711.9461867520483
 20
240.42011384560217
 40
0.4500001732820143
 50
119.99999999999717
 51
200.40593120808228
  0
ARC
  8
_0-0_0
  6
CONTINUOUS
 62
    7
 10
1684.1933291392513
 20
243.22987806513038
 40
2.0249999999999968
 50
60.000000000001002
 51
239.99999999999977
  0
ARC
  8
_0-0_0
  6
CONTINUOUS
 62
    7
 10
1709.4711865787656
 20
244.70693989446858
 40
0.4500001732820805
 50
219.59406879190519
 51
300.00000000000188
  0
ARC
  8
_0-0_0
  6
CONTINUOUS
 62
    7
 10
1711.8628407911594
 20
243.22987806522451
 40
2.0250000000000004
 50
300.00000000000023
 51
120.0000000000002
  0
ARC
  8
_0-0_0
  6
CONTINUOUS
 62
    7
 10
1698.0280849657026
 20
235.24237806522461
 40
14.399999999999999
 50
39.594068791909194
 51
50.405931209278897
  0
ARC
  8
_0-0_0
  6
CONTINUOUS
 62
    7
 10
1686.5849833516452
 20
244.70693989437427
 40
0.4500001732820149
 50
239.99999999999719
 51
320.40593120809058
  0
ARC
  8
_0-0_0
  6
CONTINUOUS
 62
    7
 10
1698.0280849648984
 20
235.24237806536036
 40
14.399999999999999
 50
129.59406879190919
 51
140.40593120927898
  0
ARC
  8
_0-0_0
  6
CONTINUOUS
 62
    7
 10
1707.4926467947164
 20
246.68547967847826
 40
0.450000173282014
 50
150.00000000000608
 51
230.40593120809049
  0
ARC
  8
_0-0_0
  6
CONTINUOUS
 62
    7
 10
1688.5635231356548
 20
246.68547967842392
 40
0.4500001732820784
 50
309.59406879190107
 51
30.000000000005155
  0
ARC
  8
_0-0_0
  6
CONTINUOUS
 62
    7
 10
1703.2058207458506
 20
249.16047985176033
 40
0.4500001732820785
 50
249.59406879190777
 51
330.00000000000932
  0
ARC
  8
_0-0_0
  6
CONTINUOUS
 62
    7
 10
1700.5030851384602
 20
249.88467567508593
 40
0.4500001732820145
 50
180
 51
260.405931208092
  0
ARC
  8
_0-0_0
  6
CONTINUOUS
 62
    7
 10
1695.553084791896
 20
249.88467567508621
 40
0.4500001732820778
 50
279.59406879191431
 51
0.0000000000000127
  0
ARC
  8
_0-0_0
  6
CONTINUOUS
 62
    7
 10
1698.0280849651781
 20
235.24237806546446
 40
14.399999999999999
 50
99.594068791908981
 51
110.40593120927871
  0
ARC
  8
_0-0_0
  6
CONTINUOUS
 62
    7
 10
1692.8503491845206
 20
249.16047985170599
 40
0.4500001732820155
 50
210.00000000000841
 51
290.40593120809672
  0
ARC
  8
_0-0_0
  6
CONTINUOUS
 62
    7
 10
1690.040584964898
 20
249.07713389081675
 40
2.0249999999999964
 50
30.00000000000022
 51
210.00000000000009
  0
ARC
  8
_0-0_0
  6
CONTINUOUS
 62
    7
 10
1698.0280849654721
 20
235.24237806541475
 40
14.399999999999999
 50
69.59406879190901
 51
80.40593120927899
  0
ARC
  8
_0-0_0
  6
CONTINUOUS
 62
    7
 10
1698.0280849651781
 20
251.21737806546452
 40
2.0249999999999964
 50
0
 51
180
  0
ARC
  8
_0-0_0
  6
CONTINUOUS
 62
    7
 10
1706.0155849654725
 20
249.07713389087115
 40
2.0249999999999964
 50
329.99999999999977
 51
149.99999999999983
  0
ARC
  8
_0-0_0
  6
CONTINUOUS
 62
    7
 10
1698.028084965232
 20
235.24237806489788
 40
18.000000000900002
 50
56.24020194266199
 51
153.75979805733726
  0
ARC
  8
_0-0_0
  6
CONTINUOUS
 62
    7
 10
1698.028084965232
 20
235.24237806489788
 40
18.000000000900002
 50
153.75979805733726
 51
243.7597980573382
  0
ARC
  8
_0-0_0
  6
CONTINUOUS
 62
    7
 10
1698.028084965232
 20
235.24237806489788
 40
18.000000000900002
 50
243.75979805733814
 51
333.75979805733778
  0
ARC
  8
_0-0_0
  6
CONTINUOUS
 62
    7
 10
1698.028084965232
 20
235.24237806489788
 40
18.000000000900002
 50
333.75979805733778
 51
56.240201942661947
  0
LINE
  8
_0-0_0
  6
CONTINUOUS
 62
    7
 10
1699.3780849652314
 20
266.29237806489789
 11
1699.3780849652314
 21
257.74237806489793
  0
LINE
  8
_0-0_0
  6
CONTINUOUS
 62
    7
 10
1696.6780849652318
 20
266.29237806489789
 11
1696.6780849652318
 21
257.74237806489793
  0
LINE
  8
_0-0_0
  6
CONTINUOUS
 62
    7
 10
1724.2431737527388
 20
251.93651236000591
 11
1716.8386565503822
 21
247.66151236000576
  0
LINE
  8
_0-0_0
  6
CONTINUOUS
 62
    7
 10
1725.5931737527396
 20
249.59824376978793
 11
1718.1886565503823
 21
245.32324376978784
  0
LINE
  8
_0-0_0
  6
CONTINUOUS
 62
    7
 10
1724.2431737527395
 20
218.54824376979036
 11
1716.8386565503822
 21
222.82324376979022
  0
LINE
  8
_0-0_0
  6
CONTINUOUS
 62
    7
 10
1725.5931737527396
 20
220.8865123600084
 11
1718.188656550383
 21
225.16151236000826
  0
LINE
  8
_0-0_0
  6
CONTINUOUS
 62
    7
 10
1699.3780849652314
 20
204.19237806489798
 11
1699.3780849652314
 21
212.74237806489788
  0
LINE
  8
_0-0_0
  6
CONTINUOUS
 62
    7
 10
1696.6780849652318
 20
204.19237806489798
 11
1696.6780849652318
 21
212.74237806489788
  0
LINE
  8
_0-0_0
  6
CONTINUOUS
 62
    7
 10
1670.4629961777264
 20
220.88651236000464
 11
1677.867513380083
 21
225.16151236000485
  0
LINE
  8
_0-0_0
  6
CONTINUOUS
 62
    7
 10
1671.8129961777265
 20
218.54824376978678
 11
1679.2175133800831
 21
222.82324376978698
  0
LINE
  8
_0-0_0
  6
CONTINUOUS
 62
    7
 10
1671.8129961777252
 20
251.9365123600075
 11
1679.2175133800824
 21
247.66151236000763
  0
ARC
  8
_0-0_0
  6
CONTINUOUS
 62
    7
 10
1698.028084965232
 20
235.24237806489788
 40
31.049999999999997
 50
56.24020194266199
 51
87.510447078000809
  0
ARC
  8
_0-0_0
  6
CONTINUOUS
 62
    7
 10
1698.028084965232
 20
235.24237806489788
 40
31.049999999999997
 50
92.489552921999191
 51
147.50809363101891
  0
ARC
  8
_0-0_0
  6
CONTINUOUS
 62
    7
 10
1698.028084965232
 20
235.24237806489788
 40
31.049999999999997
 50
152.49190636897868
 51
207.50809363102468
  0
ARC
  8
_0-0_0
  6
CONTINUOUS
 62
    7
 10
1698.028084965232
 20
235.24237806489788
 40
31.049999999999997
 50
212.49190636898436
 51
243.75979805733809
  0
ARC
  8
_0-0_0
  6
CONTINUOUS
 62
    7
 10
1775.9703713058318
 20
190.24237806489771
 40
19.799999999999997
 50
139.17820751832662
 51
143.51692630710278
  0
ARC
  8
_0-0_0
  6
CONTINUOUS
 62
    7
 10
1775.9703713058318
 20
190.24237806489771
 40
19.799999999999997
 50
156.48307369289685
 51
160.82179248167341
  0
LINE
  8
_0-0_0
  6
AI9-LType1
 62
    7
 10
1270.361166019919
 20
559.07793003010374
 11
1270.361166019919
 21
581.64749210041612
  0
LINE
  8
_0-0_0
  6
CONTINUOUS
 62
    7
 10
1569.1806263468718
 20
726.52084601738852
 11
1576.6056009355962
 21
726.52084601738852
  0
LINE
  8
_0-0_0
  6
CONTINUOUS
 62
    7
 10
1576.6056009355962
 20
726.52084601738852
 11
1576.6056009355962
 21
708.70088118315505
  0
LINE
  8
_0-0_0
  6
CONTINUOUS
 62
    7
 10
1576.6056009355962
 20
708.70088118315505
 11
1569.1806263468718
 21
708.70088118315505
  0
LINE
  8
_0-0_0
  6
CONTINUOUS
 62
    7
 10
1569.1806263468718
 20
708.70088118315505
 11
1569.1806263468718
 21
726.52084601738852
  0
CIRCLE
  8
_0-0_0
  6
CONTINUOUS
 62
    7
 10
1592.8759297965364
 20
717.70703680881365
 40
8.909982417116705
  0
LINE
  8
_0-0_0
  6
CONTINUOUS
 62
    7
 10
1431.0746189093247
 20
722.06586287798496
 11
1509.7760792648724
 21
722.06586287798496
  0
LINE
  8
_0-0_0
  6
CONTINUOUS
 62
    7
 10
1509.7760792648724
 20
722.06430362804758
 11
1569.1806263468718
 21
723.92261820599072
  0
ARC
  8
_0-0_0
  6
CONTINUOUS
 62
    7
 10
1430.9948227768123
 20
719.09104575656841
 40
2.9758871498492199
 50
88.463473431715343
 51
166.13379640606391
  0
LINE
  8
_0-0_0
  6
CONTINUOUS
 62
    7
 10
1431.0746189093247
 20
713.15586432255918
 11
1509.7760792648724
 21
713.15586432255918
  0
LINE
  8
_0-0_0
  6
CONTINUOUS
 62
    7
 10
1509.7760792648724
 20
713.15742357249667
 11
1569.1806263468718
 21
711.29910899455331
  0
ARC
  8
_0-0_0
  6
CONTINUOUS
 62
    7
 10
1430.9948227768114
 20
716.13068144397573
 40
2.9758871498490436
 50
193.86620359393439
 51
271.53652656828473
  0
LINE
  8
_0-0_0
  6
CONTINUOUS
 62
    7
 10
1428.1056588908082
 20
719.8042332273269
 11
1428.1056588908082
 21
715.41749397321723
  0
LINE
  8
_0-0_0
  6
AI9-LType4
 62
    7
 10
1613.0405043841592
 20
717.70703680881365
 11
1416.8510667203013
 21
717.70703680881365
  0
LINE
  8
_0-0_0
  6
AI9-LType4
 62
    7
 10
1593.1573408614072
 20
697.54246222118979
 11
1593.1573408614072
 21
737.87161139643649
  0
LINE
  8
_0-0_0
  6
CONTINUOUS
 62
    7
 10
1306.5065845746067
 20
572.88120699577644
 11
1337.4597339886686
 21
593.46444674187057
  0
LINE
  8
_0-0_0
  6
CONTINUOUS
 62
    7
 10
1337.4597339886686
 20
593.46444674187057
 11
1479.7082349052062
 21
593.46444674187057
  0
LINE
  8
_0-0_0
  6
CONTINUOUS
 62
    7
 10
1598.9682958050064
 20
653.36422509545946
 11
1402.3544786335415
 21
653.36422509545946
  0
LINE
  8
_0-0_0
  6
CONTINUOUS
 62
    7
 10
1402.3544786335415
 20
653.36422509545946
 11
1402.3544786335415
 21
677.97047509545928
  0
LINE
  8
_0-0_0
  6
CONTINUOUS
 62
    7
 10
1402.3544786335415
 20
677.97047509545928
 11
1598.9682958050064
 21
677.97047509545928
  0
LINE
  8
_0-0_0
  6
CONTINUOUS
 62
    7
 10
1598.9682958050064
 20
677.97047509545928
 11
1598.9682958050064
 21
653.36422509545946
  0
LINE
  8
_0-5_D-BYP-STR1
  6
CONTINUOUS
 62
    7
 10
1576.6011558119785
 20
760.29931515726093
 11
1428.1056588908082
 21
760.29931515726093
  0
TEXT
  8
_0-5_D-BYP-STR1
 62
    7
 10
1491.1034073513929
 20
762.92431515726093
 40
15
 41
1
 50
0
  1
100
  0
LINE
  8
_0-5_D-BYP-STR1
  6
CONTINUOUS
 62
    7
 10
1397.49776470181
 20
713.15586432255918
 11
1397.49776470181
 21
722.06693290641783
  0
TEXT
  8
_0-5_D-BYP-STR1
 62
    7
 10
1394.87276470181
 20
713.86139861448862
 40
15
 41
1
 50
90
  1
6
  0
LINE
  8
_0-5_D-BYP-STR1
  6
CONTINUOUS
 62
    7
 10
1576.6056009355962
 20
743.55078611976046
 11
1569.1806263468718
 21
743.55078611976046
  0
TEXT
  8
_0-3_D-STR-TXT
 62
    7
 10
1352.3339844469374
 20
592.71444674187057
 40
15
 41
1
 50
0
  1
セットピン(2本)
  0
TEXT
  8
_0-0_0
 62
    7
 10
1496.4440625125633
 20
658.60899811107936
 40
15
 41
1
 50
0
  1
　
  0
LINE
  8
_0-5_D-BYP-STR1
  6
CONTINUOUS
 62
    7
 10
1626.6543989364088
 20
708.80149951531462
 11
1626.6543989364088
 21
760.29931515726093
  0
LINE
  8
_0-5_D-BYP-STR1
  6
CONTINUOUS
 62
    7
 10
1603.7784973891362
 20
726.61257410231212
 11
1626.6543989364088
 21
726.61257410231212
  0
LINE
  8
_0-5_D-BYP-STR1
  6
CONTINUOUS
 62
    7
 10
1603.7784973891362
 20
708.80149951531462
 11
1626.6543989364088
 21
708.80149951531462
  0
LINE
  8
_0-5_D-BYP-STR1
  6
CONTINUOUS
 62
    7
 10
1576.6011558119785
 20
730.78867909435712
 11
1576.6011558119785
 21
760.29931515726093
  0
LINE
  8
_0-5_D-BYP-STR1
  6
CONTINUOUS
 62
    7
 10
1569.1806263468718
 20
730.78867909435712
 11
1569.1806263468718
 21
743.55078611976046
  0
LINE
  8
_0-5_D-BYP-STR1
  6
CONTINUOUS
 62
    7
 10
1428.1056588908082
 20
730.78867909435712
 11
1428.1056588908082
 21
760.29931515726093
  0
LINE
  8
_0-5_D-BYP-STR1
  6
CONTINUOUS
 62
    7
 10
1422.5684433879592
 20
722.06693290641783
 11
1397.49776470181
 21
722.06693290641783
  0
LINE
  8
_0-5_D-BYP-STR1
  6
CONTINUOUS
 62
    7
 10
1422.5684433879592
 20
713.15586432255918
 11
1397.49776470181
 21
713.15586432255918
  0
TEXT
  8
_0-5_D-BYP-STR1
 62
    7
 10
1569.190996971392
 20
742.99924637167805
 40
15
 41
1
 50
0
  1
5
  0
TEXT
  8
_0-3_D-STR-TXT
 62
    7
 10
1444.4113872192736
 20
658.16735009545937
 40
15
 41
1
 50
0
  1
セットピン(2本)
  0
LINE
  8
_0-0_0
  6
AI9-LType1
 62
    7
 10
1304.7172085003876
 20
559.07793003010374
 11
1304.7172085003876
 21
581.64749210041612
  0
CIRCLE
  8
_0-0_0
  6
CONTINUOUS
 62
    7
 10
1304.7164333539031
 20
570.3811160652599
 40
5.41594848632813
  0
CIRCLE
  8
_0-0_0
  6
CONTINUOUS
 62
    7
 10
1270.361166019919
 20
570.3811160652599
 40
5.4167236328124755
  0
CIRCLE
  8
_0-0_0
  6
CONTINUOUS
 62
    7
 10
1270.3607784466769
 20
570.3811160652599
 40
6.3294586181640575
  0
CIRCLE
  8
_0-0_0
  6
CONTINUOUS
 62
    7
 10
1304.7164333539031
 20
570.3811160652599
 40
6.3290710449218892
  0
LINE
  8
_0-0_0
  6
AI9-LType1
 62
    7
 10
1321.8935288578532
 20
570.3811160652599
 11
1253.177994379294
 21
570.3811160652599
  0
LINE
  8
_0-0_0
  6
AI9-LType3
 62
    7
 10
1323.5357616185738
 20
537.27396578483899
 11
1251.5357616185738
 21
537.27396578483899
  0
LINE
  8
_0-0_0
  6
CONTINUOUS
 62
    7
 10
1251.5357616185738
 20
601.91057467155781
 11
1323.5357616185738
 21
601.91057467155781
  0
LINE
  8
_0-0_0
  6
CONTINUOUS
 62
    7
 10
1323.5357616185738
 20
624.41057467155781
 11
1251.5357616185738
 21
624.41057467155781
  0
LINE
  8
_0-0_0
  6
CONTINUOUS
 62
    7
 10
1251.5357616185738
 20
608.1228921226791
 11
1323.5357616185738
 21
608.1228921226791
  0
LINE
  8
_0-0_0
  6
CONTINUOUS
 62
    7
 10
1251.5357616185738
 20
613.52289212267908
 11
1323.5357616185738
 21
613.52289212267908
  0
LINE
  8
_0-0_0
  6
CONTINUOUS
 62
    7
 10
1251.5357616185738
 20
618.92289212267906
 11
1323.5357616185738
 21
618.92289212267906
  0
LINE
  8
_0-5_D-BYP-STR1
  6
CONTINUOUS
 62
    7
 10
1145.4148670453096
 20
533.84869607438668
 11
1145.4148670453096
 21
624.41057467155781
  0
LINE
  8
_0-5_D-BYP-STR1
  6
CONTINUOUS
 62
    7
 10
1145.4148670453096
 20
624.41057467155781
 11
1194.9653309124972
 21
624.41057467155781
  0
LINE
  8
_0-5_D-BYP-STR1
  6
CONTINUOUS
 62
    7
 10
1194.9653309124972
 20
601.91057467155781
 11
1145.4148670453096
 21
601.91057467155781
  0
TEXT
  8
_0-5_D-BYP-STR1
 62
    7
 10
1146.1648670453096
 20
605.66057467155781
 40
15
 41
1
 50
90
  1
25
  0
LINE
  8
_0-0_0
  6
CONTINUOUS
 62
    7
 10
1662.0280849652313
 20
601.91057467155781
 11
1734.028084965232
 21
601.91057467155781
  0
LINE
  8
_0-0_0
  6
CONTINUOUS
 62
    7
 10
1734.028084965232
 20
624.41057467155781
 11
1662.0280849652313
 21
624.41057467155781
  0
LINE
  8
_0-0_0
  6
CONTINUOUS
 62
    7
 10
1662.0280849652313
 20
608.1228921226791
 11
1734.028084965232
 21
608.1228921226791
  0
LINE
  8
_0-0_0
  6
CONTINUOUS
 62
    7
 10
1662.0280849652313
 20
613.52289212267908
 11
1734.028084965232
 21
613.52289212267908
  0
LINE
  8
_0-0_0
  6
CONTINUOUS
 62
    7
 10
1662.0280849652313
 20
618.92289212267906
 11
1734.028084965232
 21
618.92289212267906
  0
LINE
  8
_0-0_0
  6
CONTINUOUS
 62
    7
 10
1239.8391872601533
 20
578.92195579827398
 11
1335.2391872601534
 21
578.92195579827398
  0
LINE
  8
_0-0_0
  6
AI9-LType3
 62
    7
 10
1251.5357616185738
 20
578.92195579827398
 11
1251.5357616185738
 21
537.27396578483899
  0
LINE
  8
_0-0_0
  6
AI9-LType3
 62
    7
 10
1254.6857616185739
 20
578.92195579827398
 11
1254.6857616185739
 21
537.27396578483899
  0
LINE
  8
_0-0_0
  6
AI9-LType3
 62
    7
 10
1320.3857616185742
 20
578.92195579827398
 11
1320.3857616185742
 21
537.27396578483899
  0
LINE
  8
_0-0_0
  6
AI9-LType3
 62
    7
 10
1323.5357616185738
 20
578.92195579827398
 11
1323.5357616185738
 21
537.27396578483899
  0
LINE
  8
_0-0_0
  6
CONTINUOUS
 62
    7
 10
1411.3759604722218
 20
534.41057467155792
 11
1166.9605601644982
 21
534.41057467155792
  0
LINE
  8
_0-0_0
  6
CONTINUOUS
 62
    7
 10
1400.0391872601533
 20
536.4476596324954
 11
1175.0391872601535
 21
536.4476596324954
  0
LINE
  8
_0-0_0
  6
CONTINUOUS
 62
    7
 10
1335.2266352315457
 20
578.92195579827398
 11
1335.2391872601534
 21
578.90927368249811
  0
LINE
  8
_0-0_0
  6
CONTINUOUS
 62
    7
 10
1239.8391872601533
 20
578.92195579827398
 11
1175.0391872601535
 21
536.4476596324954
  0
LINE
  8
_0-0_0
  6
CONTINUOUS
 62
    7
 10
1335.2391872601534
 20
578.90927368249811
 11
1400.0391872601533
 21
536.4476596324954
  0
LINE
  8
_0-0_0
  6
CONTINUOUS
 62
    7
 10
1175.0391872601535
 20
536.4476596324954
 11
1177.0762722210909
 21
534.41057467155792
  0
LINE
  8
_0-0_0
  6
CONTINUOUS
 62
    7
 10
1225.8161113964761
 20
563.33107253092112
 11
1225.1752871533804
 21
563.72182428465294
  0
LINE
  8
_0-0_0
  6
CONTINUOUS
 62
    7
 10
1225.1752871533804
 20
563.72182428465294
 11
1224.0611215276138
 21
563.75563221453558
  0
LINE
  8
_0-0_0
  6
CONTINUOUS
 62
    7
 10
1224.0611215276138
 20
563.75563221453558
 11
1222.5074678779201
 21
563.43146908372728
  0
LINE
  8
_0-0_0
  6
CONTINUOUS
 62
    7
 10
1222.5074678779201
 20
563.43146908372728
 11
1220.5615331842587
 21
562.75918442492309
  0
LINE
  8
_0-0_0
  6
CONTINUOUS
 62
    7
 10
1220.5615331842587
 20
562.75918442492309
 11
1218.2824436876058
 21
561.75920526728828
  0
LINE
  8
_0-0_0
  6
CONTINUOUS
 62
    7
 10
1218.2824436876058
 20
561.75920526728828
 11
1215.7394483690423
 21
560.46191547151398
  0
LINE
  8
_0-0_0
  6
CONTINUOUS
 62
    7
 10
1215.7394483690423
 20
560.46191547151398
 11
1213.0098148545048
 21
558.90673253158411
  0
LINE
  8
_0-0_0
  6
CONTINUOUS
 62
    7
 10
1213.0098148545048
 20
558.90673253158411
 11
1210.1764816770719
 21
557.14090989416832
  0
LINE
  8
_0-0_0
  6
CONTINUOUS
 62
    7
 10
1210.1764816770719
 20
557.14090989416832
 11
1207.3255382316038
 21
555.2181011865548
  0
LINE
  8
_0-0_0
  6
CONTINUOUS
 62
    7
 10
1207.3255382316038
 20
555.2181011865548
 11
1204.543608992044
 21
553.19672997833629
  0
LINE
  8
_0-0_0
  6
CONTINUOUS
 62
    7
 10
1204.543608992044
 20
553.19672997833629
 11
1201.9152214706128
 21
551.13821461081147
  0
LINE
  8
_0-0_0
  6
CONTINUOUS
 62
    7
 10
1201.9152214706128
 20
551.13821461081147
 11
1199.5202378921199
 21
549.10510203176329
  0
LINE
  8
_0-0_0
  6
CONTINUOUS
 62
    7
 10
1199.5202378921199
 20
549.10510203176329
 11
1197.4314286206784
 21
547.15916733810172
  0
LINE
  8
_0-0_0
  6
CONTINUOUS
 62
    7
 10
1197.4314286206784
 20
547.15916733810172
 11
1195.7122610690121
 21
545.35953677080306
  0
LINE
  8
_0-0_0
  6
CONTINUOUS
 62
    7
 10
1195.7122610690121
 20
545.35953677080306
 11
1194.4149712732376
 21
543.76089119399796
  0
LINE
  8
_0-0_0
  6
CONTINUOUS
 62
    7
 10
1194.4149712732376
 20
543.76089119399796
 11
1193.5789767273395
 21
542.41180464458364
  0
LINE
  8
_0-0_0
  6
CONTINUOUS
 62
    7
 10
1193.5789767273395
 20
542.41180464458364
 11
1193.2296787025612
 21
541.3532684346934
  0
LINE
  8
_0-0_0
  6
CONTINUOUS
 62
    7
 10
1193.2296787025612
 20
541.3532684346934
 11
1193.377690442632
 21
540.61744565141976
  0
LINE
  8
_0-0_0
  6
CONTINUOUS
 62
    7
 10
1193.377690442632
 20
540.61744565141976
 11
1194.0185146857275
 21
540.22669389768782
  0
LINE
  8
_0-0_0
  6
CONTINUOUS
 62
    7
 10
1194.0185146857275
 20
540.22669389768782
 11
1195.1326803114941
 21
540.19288596780518
  0
LINE
  8
_0-0_0
  6
CONTINUOUS
 62
    7
 10
1195.1326803114941
 20
540.19288596780518
 11
1196.6863339611878
 21
540.5170490986136
  0
LINE
  8
_0-0_0
  6
CONTINUOUS
 62
    7
 10
1196.6863339611878
 20
540.5170490986136
 11
1198.6322686548494
 21
541.18933375741767
  0
LINE
  8
_0-0_0
  6
CONTINUOUS
 62
    7
 10
1198.6322686548494
 20
541.18933375741767
 11
1200.9113581515023
 21
542.18931291505237
  0
LINE
  8
_0-0_0
  6
CONTINUOUS
 62
    7
 10
1200.9113581515023
 20
542.18931291505237
 11
1203.4543534700658
 21
543.48660271082679
  0
LINE
  8
_0-0_0
  6
CONTINUOUS
 62
    7
 10
1203.4543534700658
 20
543.48660271082679
 11
1206.1839869846031
 21
545.04178565075642
  0
LINE
  8
_0-0_0
  6
CONTINUOUS
 62
    7
 10
1206.1839869846031
 20
545.04178565075642
 11
1209.017320162036
 21
546.80760828817245
  0
LINE
  8
_0-0_0
  6
CONTINUOUS
 62
    7
 10
1209.017320162036
 20
546.80760828817245
 11
1211.8682636075041
 21
548.73041699578596
  0
LINE
  8
_0-0_0
  6
CONTINUOUS
 62
    7
 10
1211.8682636075041
 20
548.73041699578596
 11
1214.6501928470639
 21
550.75178820400447
  0
LINE
  8
_0-0_0
  6
CONTINUOUS
 62
    7
 10
1214.6501928470639
 20
550.75178820400447
 11
1217.2785803684951
 21
552.8103035715294
  0
LINE
  8
_0-0_0
  6
CONTINUOUS
 62
    7
 10
1217.2785803684951
 20
552.8103035715294
 11
1219.673563946988
 21
554.84341615057747
  0
LINE
  8
_0-0_0
  6
CONTINUOUS
 62
    7
 10
1219.673563946988
 20
554.84341615057747
 11
1221.7623732184297
 21
556.78935084423904
  0
LINE
  8
_0-0_0
  6
CONTINUOUS
 62
    7
 10
1221.7623732184297
 20
556.78935084423904
 11
1223.4815407700958
 21
558.58898141153759
  0
LINE
  8
_0-0_0
  6
CONTINUOUS
 62
    7
 10
1223.4815407700958
 20
558.58898141153759
 11
1224.7788305658705
 21
560.1876269883428
  0
LINE
  8
_0-0_0
  6
CONTINUOUS
 62
    7
 10
1224.7788305658705
 20
560.1876269883428
 11
1225.6148251117684
 21
561.53671353775712
  0
LINE
  8
_0-0_0
  6
CONTINUOUS
 62
    7
 10
1225.6148251117684
 20
561.53671353775712
 11
1225.964123136547
 21
562.59524974764724
  0
LINE
  8
_0-0_0
  6
CONTINUOUS
 62
    7
 10
1225.964123136547
 20
562.59524974764724
 11
1225.8161113964761
 21
563.33107253092112
  0
LINE
  8
_0-0_0
  6
CONTINUOUS
 62
    7
 10
1349.255411840672
 20
563.33107253092112
 11
1349.1074001006011
 21
562.59524974764736
  0
LINE
  8
_0-0_0
  6
CONTINUOUS
 62
    7
 10
1349.1074001006011
 20
562.59524974764736
 11
1349.4566981253797
 21
561.53671353775712
  0
LINE
  8
_0-0_0
  6
CONTINUOUS
 62
    7
 10
1349.4566981253797
 20
561.53671353775712
 11
1350.2926926712776
 21
560.18762698834291
  0
LINE
  8
_0-0_0
  6
CONTINUOUS
 62
    7
 10
1350.2926926712776
 20
560.18762698834291
 11
1351.5899824670519
 21
558.58898141153759
  0
LINE
  8
_0-0_0
  6
CONTINUOUS
 62
    7
 10
1351.5899824670519
 20
558.58898141153759
 11
1353.3091500187184
 21
556.78935084423904
  0
LINE
  8
_0-0_0
  6
CONTINUOUS
 62
    7
 10
1353.3091500187184
 20
556.78935084423904
 11
1355.3979592901601
 21
554.84341615057747
  0
LINE
  8
_0-0_0
  6
CONTINUOUS
 62
    7
 10
1355.3979592901601
 20
554.84341615057747
 11
1357.7929428686525
 21
552.8103035715294
  0
LINE
  8
_0-0_0
  6
CONTINUOUS
 62
    7
 10
1357.7929428686525
 20
552.8103035715294
 11
1360.421330390084
 21
550.75178820400447
  0
LINE
  8
_0-0_0
  6
CONTINUOUS
 62
    7
 10
1360.421330390084
 20
550.75178820400447
 11
1363.2032596296435
 21
548.73041699578596
  0
LINE
  8
_0-0_0
  6
CONTINUOUS
 62
    7
 10
1363.2032596296435
 20
548.73041699578596
 11
1366.0542030751117
 21
546.80760828817245
  0
LINE
  8
_0-0_0
  6
CONTINUOUS
 62
    7
 10
1366.0542030751117
 20
546.80760828817245
 11
1368.8875362525446
 21
545.04178565075654
  0
LINE
  8
_0-0_0
  6
CONTINUOUS
 62
    7
 10
1368.8875362525446
 20
545.04178565075654
 11
1371.617169767082
 21
543.48660271082679
  0
LINE
  8
_0-0_0
  6
CONTINUOUS
 62
    7
 10
1371.617169767082
 20
543.48660271082679
 11
1374.160165085646
 21
542.18931291505237
  0
LINE
  8
_0-0_0
  6
CONTINUOUS
 62
    7
 10
1374.160165085646
 20
542.18931291505237
 11
1376.4392545822989
 21
541.18933375741767
  0
LINE
  8
_0-0_0
  6
CONTINUOUS
 62
    7
 10
1376.4392545822989
 20
541.18933375741767
 11
1378.3851892759599
 21
540.5170490986136
  0
LINE
  8
_0-0_0
  6
CONTINUOUS
 62
    7
 10
1378.3851892759599
 20
540.5170490986136
 11
1379.9388429256537
 21
540.19288596780518
  0
LINE
  8
_0-0_0
  6
CONTINUOUS
 62
    7
 10
1379.9388429256537
 20
540.19288596780518
 11
1381.0530085514206
 21
540.22669389768782
  0
LINE
  8
_0-0_0
  6
CONTINUOUS
 62
    7
 10
1381.0530085514206
 20
540.22669389768782
 11
1381.6938327945159
 21
540.61744565141976
  0
LINE
  8
_0-0_0
  6
CONTINUOUS
 62
    7
 10
1381.6938327945159
 20
540.61744565141976
 11
1381.8418445345869
 21
541.3532684346934
  0
LINE
  8
_0-0_0
  6
CONTINUOUS
 62
    7
 10
1381.8418445345869
 20
541.3532684346934
 11
1381.4925465098081
 21
542.41180464458364
  0
LINE
  8
_0-0_0
  6
CONTINUOUS
 62
    7
 10
1381.4925465098081
 20
542.41180464458364
 11
1380.6565519639103
 21
543.76089119399796
  0
LINE
  8
_0-0_0
  6
CONTINUOUS
 62
    7
 10
1380.6565519639103
 20
543.76089119399796
 11
1379.359262168136
 21
545.35953677080306
  0
LINE
  8
_0-0_0
  6
CONTINUOUS
 62
    7
 10
1379.359262168136
 20
545.35953677080306
 11
1377.6400946164695
 21
547.15916733810172
  0
LINE
  8
_0-0_0
  6
CONTINUOUS
 62
    7
 10
1377.6400946164695
 20
547.15916733810172
 11
1375.5512853450275
 21
549.10510203176318
  0
LINE
  8
_0-0_0
  6
CONTINUOUS
 62
    7
 10
1375.5512853450275
 20
549.10510203176318
 11
1373.1563017665351
 21
551.13821461081136
  0
LINE
  8
_0-0_0
  6
CONTINUOUS
 62
    7
 10
1373.1563017665351
 20
551.13821461081136
 11
1370.5279142451036
 21
553.19672997833629
  0
LINE
  8
_0-0_0
  6
CONTINUOUS
 62
    7
 10
1370.5279142451036
 20
553.19672997833629
 11
1367.7459850055441
 21
555.21810118655469
  0
LINE
  8
_0-0_0
  6
CONTINUOUS
 62
    7
 10
1367.7459850055441
 20
555.21810118655469
 11
1364.8950415600759
 21
557.14090989416832
  0
LINE
  8
_0-0_0
  6
CONTINUOUS
 62
    7
 10
1364.8950415600759
 20
557.14090989416832
 11
1362.0617083826432
 21
558.90673253158411
  0
LINE
  8
_0-0_0
  6
CONTINUOUS
 62
    7
 10
1362.0617083826432
 20
558.90673253158411
 11
1359.332074868106
 21
560.46191547151386
  0
LINE
  8
_0-0_0
  6
CONTINUOUS
 62
    7
 10
1359.332074868106
 20
560.46191547151386
 11
1356.7890795495423
 21
561.75920526728828
  0
LINE
  8
_0-0_0
  6
CONTINUOUS
 62
    7
 10
1356.7890795495423
 20
561.75920526728828
 11
1354.5099900528894
 21
562.75918442492309
  0
LINE
  8
_0-0_0
  6
CONTINUOUS
 62
    7
 10
1354.5099900528894
 20
562.75918442492309
 11
1352.564055359228
 21
563.43146908372728
  0
LINE
  8
_0-0_0
  6
CONTINUOUS
 62
    7
 10
1352.564055359228
 20
563.43146908372728
 11
1351.0104017095341
 21
563.75563221453558
  0
LINE
  8
_0-0_0
  6
CONTINUOUS
 62
    7
 10
1351.0104017095341
 20
563.75563221453558
 11
1349.8962360837677
 21
563.72182428465294
  0
LINE
  8
_0-0_0
  6
CONTINUOUS
 62
    7
 10
1349.8962360837677
 20
563.72182428465294
 11
1349.255411840672
 21
563.33107253092112
  0
LINE
  8
_0-0_0
  6
CONTINUOUS
 62
    7
 10
1400.0391872601533
 20
536.4476596324954
 11
1398.0021022992159
 21
534.41057467155792
  0
LINE
  8
_0-0_0
  6
AI9-LType1
 62
    7
 10
1680.8534893665762
 20
559.07793003010374
 11
1680.8534893665762
 21
581.64749210041612
  0
LINE
  8
_0-0_0
  6
AI9-LType1
 62
    7
 10
1715.2095318470458
 20
559.07793003010374
 11
1715.2095318470458
 21
581.64749210041612
  0
CIRCLE
  8
_0-0_0
  6
CONTINUOUS
 62
    7
 10
1715.2087567005606
 20
570.3811160652599
 40
5.41594848632813
  0
CIRCLE
  8
_0-0_0
  6
CONTINUOUS
 62
    7
 10
1680.8534893665762
 20
570.3811160652599
 40
5.4167236328124755
  0
LINE
  8
_0-0_0
  6
AI9-LType1
 62
    7
 10
1732.3858522045105
 20
570.3811160652599
 11
1663.6703177259521
 21
570.3811160652599
  0
LINE
  8
_0-0_0
  6
AI9-LType3
 62
    7
 10
1734.028084965232
 20
537.27396578483899
 11
1662.0280849652313
 21
537.27396578483899
  0
LINE
  8
_0-0_0
  6
CONTINUOUS
 62
    7
 10
1650.3315106068108
 20
578.92195579827398
 11
1745.7315106068113
 21
578.92195579827398
  0
LINE
  8
_0-0_0
  6
AI9-LType3
 62
    7
 10
1662.0280849652313
 20
578.92195579827398
 11
1662.0280849652313
 21
537.27396578483899
  0
LINE
  8
_0-0_0
  6
AI9-LType3
 62
    7
 10
1665.1780849652318
 20
578.92195579827398
 11
1665.1780849652318
 21
537.27396578483899
  0
LINE
  8
_0-0_0
  6
AI9-LType3
 62
    7
 10
1730.8780849652314
 20
578.92195579827398
 11
1730.8780849652314
 21
537.27396578483899
  0
LINE
  8
_0-0_0
  6
AI9-LType3
 62
    7
 10
1734.028084965232
 20
578.92195579827398
 11
1734.028084965232
 21
537.27396578483899
  0
LINE
  8
_0-0_0
  6
CONTINUOUS
 62
    7
 10
1821.8682838188793
 20
534.41057467155792
 11
1577.452883511156
 21
534.41057467155792
  0
LINE
  8
_0-0_0
  6
CONTINUOUS
 62
    7
 10
1810.5315106068117
 20
536.4476596324954
 11
1585.531510606811
 21
536.4476596324954
  0
LINE
  8
_0-0_0
  6
CONTINUOUS
 62
    7
 10
1745.7189585782035
 20
578.92195579827398
 11
1745.7315106068113
 21
578.90927368249811
  0
LINE
  8
_0-0_0
  6
CONTINUOUS
 62
    7
 10
1650.3315106068108
 20
578.92195579827398
 11
1585.531510606811
 21
536.4476596324954
  0
LINE
  8
_0-0_0
  6
CONTINUOUS
 62
    7
 10
1745.7315106068113
 20
578.90927368249811
 11
1810.5315106068117
 21
536.4476596324954
  0
LINE
  8
_0-0_0
  6
CONTINUOUS
 62
    7
 10
1585.531510606811
 20
536.4476596324954
 11
1587.5685955677486
 21
534.41057467155792
  0
LINE
  8
_0-0_0
  6
CONTINUOUS
 62
    7
 10
1810.5315106068117
 20
536.4476596324954
 11
1808.4944256458737
 21
534.41057467155792
  0
ARC
  8
_0-0_0
  6
CONTINUOUS
 62
    7
 10
1698.028084965232
 20
496.95000020114128
 40
47.26344881537733
 50
74.746160750132816
 51
105.25383924986699
  0
LINE
  8
_0-0_0
  6
CONTINUOUS
 62
    7
 10
1712.0287992327255
 20
543.40801249669551
 11
1714.2472954421542
 21
545.02276387654592
  0
LINE
  8
_0-0_0
  6
CONTINUOUS
 62
    7
 10
1714.2472954421542
 20
545.02276387654592
 11
1715.9729791485568
 21
546.84826594539823
  0
LINE
  8
_0-0_0
  6
CONTINUOUS
 62
    7
 10
1715.9729791485568
 20
546.84826594539823
 11
1717.153416325755
 21
548.82905174663904
  0
LINE
  8
_0-0_0
  6
CONTINUOUS
 62
    7
 10
1717.153416325755
 20
548.82905174663904
 11
1717.752739987448
 21
550.90493610602323
  0
LINE
  8
_0-0_0
  6
CONTINUOUS
 62
    7
 10
1717.752739987448
 20
550.90493610602323
 11
1717.752739987448
 21
553.01284432773946
  0
LINE
  8
_0-0_0
  6
CONTINUOUS
 62
    7
 10
1717.752739987448
 20
553.01284432773946
 11
1717.153416325755
 21
555.08872868712365
  0
LINE
  8
_0-0_0
  6
CONTINUOUS
 62
    7
 10
1717.153416325755
 20
555.08872868712365
 11
1715.9729791485568
 21
557.06951448836435
  0
LINE
  8
_0-0_0
  6
CONTINUOUS
 62
    7
 10
1715.9729791485568
 20
557.06951448836435
 11
1714.2472954421542
 21
558.89501655721665
  0
LINE
  8
_0-0_0
  6
CONTINUOUS
 62
    7
 10
1714.2472954421542
 20
558.89501655721665
 11
1712.0287992327255
 21
560.50976793706718
  0
LINE
  8
_0-0_0
  6
CONTINUOUS
 62
    7
 10
1712.0287992327255
 20
560.50976793706718
 11
1709.3848984049826
 21
561.86470522434263
  0
LINE
  8
_0-0_0
  6
CONTINUOUS
 62
    7
 10
1709.3848984049826
 20
561.86470522434263
 11
1706.3959265476981
 21
562.9186593352008
  0
LINE
  8
_0-0_0
  6
CONTINUOUS
 62
    7
 10
1706.3959265476981
 20
562.9186593352008
 11
1703.1527020582614
 21
563.63960640730954
  0
LINE
  8
_0-0_0
  6
CONTINUOUS
 62
    7
 10
1703.1527020582614
 20
563.63960640730954
 11
1699.7537686716353
 21
564.00564082869971
  0
LINE
  8
_0-0_0
  6
CONTINUOUS
 62
    7
 10
1699.7537686716353
 20
564.00564082869971
 11
1696.302401258828
 21
564.00564082869971
  0
LINE
  8
_0-0_0
  6
CONTINUOUS
 62
    7
 10
1696.302401258828
 20
564.00564082869971
 11
1692.9034678722026
 21
563.63960640730954
  0
LINE
  8
_0-0_0
  6
CONTINUOUS
 62
    7
 10
1692.9034678722026
 20
563.63960640730954
 11
1689.6602433827659
 21
562.9186593352008
  0
LINE
  8
_0-0_0
  6
CONTINUOUS
 62
    7
 10
1689.6602433827659
 20
562.9186593352008
 11
1686.6712715254814
 21
561.86470522434274
  0
LINE
  8
_0-0_0
  6
CONTINUOUS
 62
    7
 10
1686.6712715254814
 20
561.86470522434274
 11
1684.0273706977384
 21
560.50976793706729
  0
LINE
  8
_0-0_0
  6
CONTINUOUS
 62
    7
 10
1684.0273706977384
 20
560.50976793706729
 11
1681.8088744883091
 21
558.89501655721676
  0
LINE
  8
_0-0_0
  6
CONTINUOUS
 62
    7
 10
1681.8088744883091
 20
558.89501655721676
 11
1680.0831907819065
 21
557.06951448836435
  0
LINE
  8
_0-0_0
  6
CONTINUOUS
 62
    7
 10
1680.0831907819065
 20
557.06951448836435
 11
1678.902753604709
 21
555.08872868712376
  0
LINE
  8
_0-0_0
  6
CONTINUOUS
 62
    7
 10
1678.902753604709
 20
555.08872868712376
 11
1678.3034299430153
 21
553.01284432773946
  0
LINE
  8
_0-0_0
  6
CONTINUOUS
 62
    7
 10
1678.3034299430153
 20
553.01284432773946
 11
1678.3034299430153
 21
550.90493610602334
  0
LINE
  8
_0-0_0
  6
CONTINUOUS
 62
    7
 10
1678.3034299430153
 20
550.90493610602334
 11
1678.902753604709
 21
548.82905174663904
  0
LINE
  8
_0-0_0
  6
CONTINUOUS
 62
    7
 10
1678.902753604709
 20
548.82905174663904
 11
1680.0831907819065
 21
546.84826594539834
  0
LINE
  8
_0-0_0
  6
CONTINUOUS
 62
    7
 10
1680.0831907819065
 20
546.84826594539834
 11
1681.8088744883091
 21
545.02276387654592
  0
LINE
  8
_0-0_0
  6
CONTINUOUS
 62
    7
 10
1681.8088744883091
 20
545.02276387654592
 11
1684.0273706977384
 21
543.40801249669551
  0
LINE
  8
_0-0_0
  6
CONTINUOUS
 62
    7
 10
1684.0273706977384
 20
543.40801249669551
 11
1686.6712715254814
 21
542.05307520941994
  0
LINE
  8
_0-0_0
  6
CONTINUOUS
 62
    7
 10
1686.6712715254814
 20
542.05307520941994
 11
1689.6602433827659
 21
540.99912109856189
  0
LINE
  8
_0-0_0
  6
CONTINUOUS
 62
    7
 10
1689.6602433827659
 20
540.99912109856189
 11
1692.9034678722026
 21
540.27817402645314
  0
LINE
  8
_0-0_0
  6
CONTINUOUS
 62
    7
 10
1692.9034678722026
 20
540.27817402645314
 11
1696.302401258828
 21
539.91213960506298
  0
LINE
  8
_0-0_0
  6
CONTINUOUS
 62
    7
 10
1696.302401258828
 20
539.91213960506298
 11
1699.7537686716353
 21
539.91213960506298
  0
LINE
  8
_0-0_0
  6
CONTINUOUS
 62
    7
 10
1699.7537686716353
 20
539.91213960506298
 11
1703.1527020582614
 21
540.27817402645314
  0
LINE
  8
_0-0_0
  6
CONTINUOUS
 62
    7
 10
1703.1527020582614
 20
540.27817402645314
 11
1706.3959265476981
 21
540.99912109856177
  0
LINE
  8
_0-0_0
  6
CONTINUOUS
 62
    7
 10
1706.3959265476981
 20
540.99912109856177
 11
1709.3848984049826
 21
542.05307520941994
  0
LINE
  8
_0-0_0
  6
CONTINUOUS
 62
    7
 10
1709.3848984049826
 20
542.05307520941994
 11
1712.0287992327255
 21
543.40801249669539
  0
TEXT
  8
_0-5_D-BYP-STR1
 62
    7
 10
1625.5845542839656
 20
729.45891123830552
 40
15
 41
1
 50
90
  1
φ12
  0
LINE
  8
_0-5_D-BYP-STR1
  6
CONTINUOUS
 62
    7
 10
1194.9653309124972
 20
578.92195579827398
 11
1145.4148670453096
 21
578.92195579827398
  0
TEXT
  8
_0-5_D-BYP-STR1
 62
    7
 10
1146.1648670453096
 20
537.63532593633022
 40
15
 41
1
 50
90
  1
50±2
  0
TEXT
  8
_0-5_D-BYP-STR1
 62
    7
 10
1146.1648670453096
 20
582.91626523491584
 40
15
 41
1
 50
90
  1
25
  0
LINE
  8
_0-0_0
  6
CONTINUOUS
 62
    7
 10
1285.6673780597216
 20
516.8566477305834
 11
1285.5141872600989
 21
534.41057467155781
  0
LINE
  8
_0-0_0
  6
CONTINUOUS
 62
    7
 10
1298.339187259528
 20
496.6105752460403
 11
1276.7391872595276
 21
496.6105752460403
  0
LINE
  8
_0-0_0
  6
CONTINUOUS
 62
    7
 10
1298.339187259528
 20
493.91057524604025
 11
1276.7391872595276
 21
493.91057524604025
  0
LINE
  8
_0-0_0
  6
CONTINUOUS
 62
    7
 10
1298.339187259528
 20
499.31057524604029
 11
1276.7391872595276
 21
499.31057524604029
  0
LINE
  8
_0-0_0
  6
CONTINUOUS
 62
    7
 10
1298.339187259528
 20
502.01057524604028
 11
1276.7391872595276
 21
502.01057524604028
  0
LINE
  8
_0-0_0
  6
CONTINUOUS
 62
    7
 10
1298.339187259528
 20
504.71057524604032
 11
1276.7391872595276
 21
504.71057524604032
  0
LINE
  8
_0-0_0
  6
CONTINUOUS
 62
    7
 10
1298.339187259528
 20
507.41057524604025
 11
1276.7391872595276
 21
507.41057524604025
  0
LINE
  8
_0-0_0
  6
CONTINUOUS
 62
    7
 10
1298.339187259528
 20
510.1105752460403
 11
1276.7391872595276
 21
510.1105752460403
  0
LINE
  8
_0-0_0
  6
CONTINUOUS
 62
    7
 10
1298.339187259528
 20
512.81057524604034
 11
1276.7391872595276
 21
512.81057524604034
  0
LINE
  8
_0-0_0
  6
CONTINUOUS
 62
    7
 10
1298.339187259528
 20
515.51057524604028
 11
1276.7391872595276
 21
515.51057524604028
  0
LINE
  8
_0-0_0
  6
CONTINUOUS
 62
    7
 10
1298.339187259528
 20
491.66057524604014
 11
1298.339187259528
 21
516.41057524604037
  0
LINE
  8
_0-0_0
  6
CONTINUOUS
 62
    7
 10
1276.7391872595276
 20
491.66057524604014
 11
1276.7391872595276
 21
516.41057524604037
  0
LINE
  8
_0-0_0
  6
CONTINUOUS
 62
    7
 10
1298.339187259528
 20
491.66057524604014
 11
1276.7391872595276
 21
491.66057524604014
  0
LINE
  8
_0-0_0
  6
CONTINUOUS
 62
    7
 10
1289.4109964604768
 20
516.8566477305834
 11
1289.5641872600991
 21
534.41057467155781
  0
LINE
  8
_0-0_0
  6
CONTINUOUS
 62
    7
 10
1297.3984964607707
 20
516.8566477305834
 11
1297.5516872603935
 21
534.41057467155781
  0
LINE
  8
_0-0_0
  6
CONTINUOUS
 62
    7
 10
1277.5266872598195
 20
534.41057467155804
 11
1277.6798780594418
 21
516.8566477305834
  0
LINE
  8
_0-0_0
  6
CONTINUOUS
 62
    7
 10
1303.245752286457
 20
516.8566477305834
 11
1303.39894308608
 21
534.41057467155781
  0
LINE
  8
_0-0_0
  6
CONTINUOUS
 62
    7
 10
1271.6794314341726
 20
534.41057467155804
 11
1271.8326222337951
 21
516.8566477305834
  0
LINE
  8
_0-0_0
  6
CONTINUOUS
 62
    7
 10
1305.3859964611047
 20
516.8566477305834
 11
1305.5391872607274
 21
534.41057467155781
  0
LINE
  8
_0-0_0
  6
CONTINUOUS
 62
    7
 10
1269.5391872595792
 20
534.41057467155804
 11
1269.6923780592019
 21
516.8566477305834
  0
LINE
  8
_0-0_0
  6
CONTINUOUS
 62
    7
 10
1304.9360135957259
 20
516.4105746715577
 11
1270.1423609245808
 21
516.4105746715577
  0
ARC
  8
_0-0_0
  6
CONTINUOUS
 62
    7
 10
1288.9610135950975
 20
516.86057467155774
 40
0.4499999999999999
 50
270
 51
359.50000000000188
  0
ARC
  8
_0-0_0
  6
CONTINUOUS
 62
    7
 10
1286.1173609251005
 20
516.86057467155774
 40
0.4499999999999999
 50
180.4999999999981
 51
270
  0
ARC
  8
_0-0_0
  6
CONTINUOUS
 62
    7
 10
1296.9485135953914
 20
516.86057467155774
 40
0.4499999999999999
 50
270
 51
359.49999999999858
  0
ARC
  8
_0-0_0
  6
CONTINUOUS
 62
    7
 10
1278.1298609248206
 20
516.86057467155774
 40
0.4499999999999999
 50
180.4999999999981
 51
270
  0
ARC
  8
_0-0_0
  6
CONTINUOUS
 62
    7
 10
1302.7957694210781
 20
516.86057467155774
 40
0.4499999999999999
 50
270
 51
359.50000000000188
  0
ARC
  8
_0-0_0
  6
CONTINUOUS
 62
    7
 10
1272.2826050991739
 20
516.86057467155774
 40
0.4499999999999999
 50
180.4999999999981
 51
270
  0
ARC
  8
_0-0_0
  6
CONTINUOUS
 62
    7
 10
1304.9360135957259
 20
516.86057467155774
 40
0.4499999999999999
 50
270
 51
359.50000000000188
  0
ARC
  8
_0-0_0
  6
CONTINUOUS
 62
    7
 10
1270.1423609245808
 20
516.86057467155774
 40
0.4499999999999999
 50
180.4999999999981
 51
270
  0
LINE
  8
_0-0_0
  6
CONTINUOUS
 62
    7
 10
1190.7683498814511
 20
477.72801453320824
 11
1390.1980373315937
 21
477.72801453320824
  0
LINE
  8
_0-0_0
  6
CONTINUOUS
 62
    7
 10
1203.6016750735555
 20
477.12029968961019
 11
1193.2829250761351
 21
471.96092469090024
  0
LINE
  8
_0-0_0
  6
CONTINUOUS
 62
    7
 10
1209.5548000720671
 20
477.12029968961019
 11
1191.2985500766313
 21
467.99217469189222
  0
LINE
  8
_0-0_0
  6
CONTINUOUS
 62
    7
 10
1215.5079250705787
 20
477.12029968961019
 11
1187.9251125774742
 21
463.77537781794661
  0
LINE
  8
_0-0_0
  6
CONTINUOUS
 62
    7
 10
1221.4610500690906
 20
477.12029968961019
 11
1193.8782375759861
 21
463.77537781794661
  0
LINE
  8
_0-0_0
  6
CONTINUOUS
 62
    7
 10
1227.4141750676022
 20
477.12029968961019
 11
1199.8313625744977
 21
463.77537781794661
  0
LINE
  8
_0-0_0
  6
CONTINUOUS
 62
    7
 10
1233.3673000661138
 20
477.12029968961019
 11
1205.7844875730098
 21
463.77537781794661
  0
LINE
  8
_0-0_0
  6
CONTINUOUS
 62
    7
 10
1239.3204250646254
 20
477.12029968961019
 11
1211.7376125715214
 21
463.77537781794661
  0
LINE
  8
_0-0_0
  6
CONTINUOUS
 62
    7
 10
1245.2735500631375
 20
477.12029968961019
 11
1217.6907375700334
 21
463.77537781794661
  0
LINE
  8
_0-0_0
  6
CONTINUOUS
 62
    7
 10
1251.2266750616491
 20
477.12029968961019
 11
1223.643862568545
 21
463.77537781794661
  0
LINE
  8
_0-0_0
  6
CONTINUOUS
 62
    7
 10
1257.1798000601609
 20
477.12029968961019
 11
1229.5969875670562
 21
463.77537781794661
  0
LINE
  8
_0-0_0
  6
CONTINUOUS
 62
    7
 10
1263.1329250586728
 20
477.12029968961019
 11
1235.5501125655685
 21
463.77537781794661
  0
LINE
  8
_0-0_0
  6
CONTINUOUS
 62
    7
 10
1269.0860500571841
 20
477.12029968961019
 11
1241.5032375640799
 21
463.77537781794661
  0
LINE
  8
_0-0_0
  6
CONTINUOUS
 62
    7
 10
1275.0391750556962
 20
477.12029968961019
 11
1247.4563625625917
 21
463.77537781794661
  0
LINE
  8
_0-0_0
  6
CONTINUOUS
 62
    7
 10
1280.9923000542076
 20
477.12029968961019
 11
1253.4094875611033
 21
463.77537781794661
  0
LINE
  8
_0-0_0
  6
CONTINUOUS
 62
    7
 10
1286.9454250527194
 20
477.12029968961019
 11
1259.3626125596152
 21
463.77537781794661
  0
LINE
  8
_0-0_0
  6
CONTINUOUS
 62
    7
 10
1292.898550051231
 20
477.12029968961019
 11
1265.3157375581268
 21
463.77537781794661
  0
LINE
  8
_0-0_0
  6
CONTINUOUS
 62
    7
 10
1298.8516750497429
 20
477.12029968961019
 11
1271.2688625566384
 21
463.77537781794661
  0
LINE
  8
_0-0_0
  6
CONTINUOUS
 62
    7
 10
1304.8048000482545
 20
477.12029968961019
 11
1277.22198755515
 21
463.77537781794661
  0
LINE
  8
_0-0_0
  6
CONTINUOUS
 62
    7
 10
1310.7579250467661
 20
477.12029968961019
 11
1283.1751125536621
 21
463.77537781794661
  0
LINE
  8
_0-0_0
  6
CONTINUOUS
 62
    7
 10
1316.7110500452782
 20
477.12029968961019
 11
1289.1282375521737
 21
463.77537781794661
  0
LINE
  8
_0-0_0
  6
CONTINUOUS
 62
    7
 10
1322.6641750437898
 20
477.12029968961019
 11
1295.0813625506858
 21
463.77537781794661
  0
LINE
  8
_0-0_0
  6
CONTINUOUS
 62
    7
 10
1328.6173000423014
 20
477.12029968961019
 11
1301.0344875491974
 21
463.77537781794661
  0
LINE
  8
_0-0_0
  6
CONTINUOUS
 62
    7
 10
1334.5704250408135
 20
477.12029968961019
 11
1306.987612547709
 21
463.77537781794661
  0
LINE
  8
_0-0_0
  6
CONTINUOUS
 62
    7
 10
1340.5235500393246
 20
477.12029968961019
 11
1312.9407375462206
 21
463.77537781794661
  0
LINE
  8
_0-0_0
  6
CONTINUOUS
 62
    7
 10
1346.4766750378367
 20
477.12029968961019
 11
1318.8938625447324
 21
463.77537781794661
  0
LINE
  8
_0-0_0
  6
CONTINUOUS
 62
    7
 10
1352.4298000363483
 20
477.12029968961019
 11
1324.846987543244
 21
463.77537781794661
  0
LINE
  8
_0-0_0
  6
CONTINUOUS
 62
    7
 10
1358.3829250348601
 20
477.12029968961019
 11
1330.8001125417559
 21
463.77537781794661
  0
LINE
  8
_0-0_0
  6
CONTINUOUS
 62
    7
 10
1364.3360500333717
 20
477.12029968961019
 11
1336.7532375402675
 21
463.77537781794661
  0
LINE
  8
_0-0_0
  6
CONTINUOUS
 62
    7
 10
1370.2891750318836
 20
477.12029968961019
 11
1342.7063625387791
 21
463.77537781794661
  0
LINE
  8
_0-0_0
  6
CONTINUOUS
 62
    7
 10
1376.2423000303952
 20
477.12029968961019
 11
1348.6594875372912
 21
463.77537781794661
  0
LINE
  8
_0-0_0
  6
CONTINUOUS
 62
    7
 10
1382.1954250289068
 20
477.12029968961019
 11
1354.6126125358028
 21
463.77537781794661
  0
LINE
  8
_0-0_0
  6
CONTINUOUS
 62
    7
 10
1308.6882839340024
 20
432.3199334898726
 11
1266.3900905852024
 21
432.3199334898726
  0
LINE
  8
_0-0_0
  6
CONTINUOUS
 62
    7
 10
1266.3900905852024
 20
432.3199334898726
 11
1266.3900905852024
 21
477.32028748252878
  0
LINE
  8
_0-0_0
  6
CONTINUOUS
 62
    7
 10
1266.3900905852024
 20
477.32028748252878
 11
1308.6882839340024
 21
477.32028748252878
  0
LINE
  8
_0-0_0
  6
CONTINUOUS
 62
    7
 10
1308.6882839340024
 20
477.32028748252878
 11
1308.6882839340024
 21
432.3199334898726
  0
LINE
  8
_0-0_0
  6
CONTINUOUS
 62
    7
 10
1269.8348415609034
 20
477.16990906459773
 11
1270.3185329670325
 21
460.11203553370598
  0
LINE
  8
_0-0_0
  6
CONTINUOUS
 62
    7
 10
1270.3185329670325
 20
460.11203553370598
 11
1305.0823024895917
 21
460.00351502592082
  0
LINE
  8
_0-0_0
  6
CONTINUOUS
 62
    7
 10
1305.0823024895917
 20
460.00351502592082
 11
1305.8295437003421
 21
477.24587342004736
  0
LINE
  8
_0-0_0
  6
CONTINUOUS
 62
    7
 10
1276.3150661686586
 20
460.07792908840224
 11
1278.5598903868472
 21
458.02069031938515
  0
LINE
  8
_0-0_0
  6
CONTINUOUS
 62
    7
 10
1278.5598903868472
 20
458.02069031938515
 11
1278.9428127500325
 21
433.34467714196074
  0
LINE
  8
_0-0_0
  6
CONTINUOUS
 62
    7
 10
1278.9428127500325
 20
433.34467714196074
 11
1296.0642482926273
 21
433.28886659509925
  0
LINE
  8
_0-0_0
  6
CONTINUOUS
 62
    7
 10
1296.0642482926273
 20
433.28886659509925
 11
1296.9835720228664
 21
457.86721131551718
  0
LINE
  8
_0-0_0
  6
CONTINUOUS
 62
    7
 10
1296.9835720228664
 20
457.86721131551718
 11
1299.3198635261883
 21
460.12133729151628
  0
LINE
  8
_0-0_0
  6
CONTINUOUS
 62
    7
 10
1278.5598903868472
 20
458.02069031938515
 11
1297.0998439954933
 21
458.02069031938515
  0
LINE
  8
_0-0_0
  6
CONTINUOUS
 62
    7
 10
1266.2505642180495
 20
453.24733826979718
 11
1308.6200710433945
 21
453.24733826979718
  0
LINE
  8
_0-0_0
  6
CONTINUOUS
 62
    7
 10
1267.5481594325686
 20
451.54821717647201
 11
1307.5751735827184
 21
451.54821717647201
  0
LINE
  8
_0-0_0
  6
CONTINUOUS
 62
    7
 10
1286.0167995646705
 20
451.56992127802937
 11
1285.9640896037458
 21
434.40197694638357
  0
LINE
  8
_0-0_0
  6
CONTINUOUS
 62
    7
 10
1289.1127346224903
 20
451.46760194211703
 11
1289.0615749545341
 21
434.45158632137117
  0
LINE
  8
_0-0_0
  6
CONTINUOUS
 62
    7
 10
1271.7727077713562
 20
449.89250428626076
 11
1303.0979274900878
 21
449.89250428626076
  0
LINE
  8
_0-0_0
  6
CONTINUOUS
 62
    7
 10
1308.5425563949761
 20
434.26555116516789
 11
1266.1265407805804
 21
434.26555116516789
  0
LINE
  8
_0-0_0
  6
CONTINUOUS
 62
    7
 10
1145.4182926868891
 20
477.72801453320824
 11
1145.4182926868891
 21
432.3199334898726
  0
LINE
  8
_0-0_0
  6
CONTINUOUS
 62
    7
 10
1180.213068077514
 20
477.72801453320824
 11
1145.4182926868891
 21
477.72801453320824
  0
LINE
  8
_0-0_0
  6
CONTINUOUS
 62
    7
 10
1180.213068077514
 20
432.3199334898726
 11
1145.4182926868891
 21
432.3199334898726
  0
LINE
  8
_0-0_0
  6
CONTINUOUS
 62
    7
 10
1266.3900905852024
 20
407.8246796176382
 11
1308.6882839340024
 21
407.8246796176382
  0
TEXT
  8
_0-0_0
 62
    7
 10
1268.7891872596022
 20
393.5746796176382
 40
15
 41
1
 50
0
  1
47±2
  0
TEXT
  8
_0-0_0
 62
    7
 10
1146.1682926868891
 20
436.27397401154036
 40
15
 41
1
 50
90
  1
50±2
  0
LINE
  8
_0-0_0
  6
CONTINUOUS
 62
    7
 10
1287.700417728312
 20
460.05777527981343
 11
1319.3263734780608
 21
428.43181953006484
  0
LINE
  8
_0-0_0
  6
CONTINUOUS
 62
    7
 10
1319.3263734780608
 20
428.43181953006484
 11
1518.0230152793188
 21
428.43181953006484
  0
TEXT
  8
_0-0_0
 62
    7
 10
1391.5043163172786
 20
429.79841507659847
 40
15
 41
1
 50
0
  1
アンカーナット
  0
LINE
  8
_0-0_0
  6
CONTINUOUS
 62
    7
 10
1266.3900905852024
 20
426.99591225652085
 11
1266.3900905852024
 21
407.8246796176382
  0
LINE
  8
_0-0_0
  6
CONTINUOUS
 62
    7
 10
1308.6882839340024
 20
426.99591225652085
 11
1308.6882839340024
 21
407.8246796176382
  0
LINE
  8
_0-0_0
  6
CONTINUOUS
 62
    7
 10
1287.5391872595278
 20
514.16057524604025
 11
1304.9125144808459
 21
496.7872480247222
  0
LINE
  8
_0-0_0
  6
CONTINUOUS
 62
    7
 10
1304.9125144808459
 20
496.7872480247222
 11
1518.0230152793188
 21
496.7872480247222
  0
TEXT
  8
_0-0_0
 62
    7
 10
1412.0391996186188
 20
497.49258395994389
 40
15
 41
1
 50
0
  1
M24ボルト
  0
LINE
  8
_0-0_0
  6
CONTINUOUS
 62
    7
 10
1696.1597014063791
 20
516.85664773058352
 11
1696.0065106067566
 21
534.41057467155781
  0
LINE
  8
_0-0_0
  6
CONTINUOUS
 62
    7
 10
1708.8315106061852
 20
496.6105752460403
 11
1687.2315106061858
 21
496.6105752460403
  0
LINE
  8
_0-0_0
  6
CONTINUOUS
 62
    7
 10
1708.8315106061852
 20
493.91057524604025
 11
1687.2315106061858
 21
493.91057524604025
  0
LINE
  8
_0-0_0
  6
CONTINUOUS
 62
    7
 10
1708.8315106061852
 20
499.31057524604029
 11
1687.2315106061858
 21
499.31057524604029
  0
LINE
  8
_0-0_0
  6
CONTINUOUS
 62
    7
 10
1708.8315106061852
 20
502.01057524604028
 11
1687.2315106061858
 21
502.01057524604028
  0
LINE
  8
_0-0_0
  6
CONTINUOUS
 62
    7
 10
1708.8315106061852
 20
504.71057524604032
 11
1687.2315106061858
 21
504.71057524604032
  0
LINE
  8
_0-0_0
  6
CONTINUOUS
 62
    7
 10
1708.8315106061852
 20
507.41057524604025
 11
1687.2315106061858
 21
507.41057524604025
  0
LINE
  8
_0-0_0
  6
CONTINUOUS
 62
    7
 10
1708.8315106061852
 20
510.1105752460403
 11
1687.2315106061858
 21
510.1105752460403
  0
LINE
  8
_0-0_0
  6
CONTINUOUS
 62
    7
 10
1708.8315106061852
 20
512.81057524604034
 11
1687.2315106061858
 21
512.81057524604034
  0
LINE
  8
_0-0_0
  6
CONTINUOUS
 62
    7
 10
1708.8315106061852
 20
515.51057524604028
 11
1687.2315106061858
 21
515.51057524604028
  0
LINE
  8
_0-0_0
  6
CONTINUOUS
 62
    7
 10
1708.8315106061852
 20
491.66057524604014
 11
1708.8315106061852
 21
516.41057524604037
  0
LINE
  8
_0-0_0
  6
CONTINUOUS
 62
    7
 10
1687.2315106061858
 20
491.66057524604014
 11
1687.2315106061858
 21
516.41057524604037
  0
LINE
  8
_0-0_0
  6
CONTINUOUS
 62
    7
 10
1708.8315106061852
 20
491.66057524604014
 11
1687.2315106061858
 21
491.66057524604014
  0
LINE
  8
_0-0_0
  6
CONTINUOUS
 62
    7
 10
1699.9033198071345
 20
516.85664773058352
 11
1700.0565106067563
 21
534.41057467155781
  0
LINE
  8
_0-0_0
  6
CONTINUOUS
 62
    7
 10
1707.8908198074282
 20
516.85664773058352
 11
1708.0440106070507
 21
534.41057467155781
  0
LINE
  8
_0-0_0
  6
CONTINUOUS
 62
    7
 10
1688.0190106064772
 20
534.41057467155804
 11
1688.172201406099
 21
516.85664773058352
  0
LINE
  8
_0-0_0
  6
CONTINUOUS
 62
    7
 10
1713.7380756331152
 20
516.85664773058329
 11
1713.8912664327377
 21
534.41057467155781
  0
LINE
  8
_0-0_0
  6
CONTINUOUS
 62
    7
 10
1682.1717547808305
 20
534.41057467155804
 11
1682.3249455804523
 21
516.85664773058352
  0
LINE
  8
_0-0_0
  6
CONTINUOUS
 62
    7
 10
1715.8783198077629
 20
516.85664773058329
 11
1716.0315106073847
 21
534.41057467155781
  0
LINE
  8
_0-0_0
  6
CONTINUOUS
 62
    7
 10
1680.0315106062374
 20
534.41057467155804
 11
1680.1847014058592
 21
516.85664773058352
  0
LINE
  8
_0-0_0
  6
CONTINUOUS
 62
    7
 10
1715.4283369423836
 20
516.4105746715577
 11
1680.6346842712385
 21
516.4105746715577
  0
ARC
  8
_0-0_0
  6
CONTINUOUS
 62
    7
 10
1699.4533369417552
 20
516.86057467155774
 40
0.4499999999999999
 50
270
 51
359.50000000000188
  0
ARC
  8
_0-0_0
  6
CONTINUOUS
 62
    7
 10
1696.6096842717584
 20
516.86057467155774
 40
0.4499999999999999
 50
180.4999999999981
 51
270
  0
ARC
  8
_0-0_0
  6
CONTINUOUS
 62
    7
 10
1707.4408369420496
 20
516.86057467155774
 40
0.4499999999999999
 50
270
 51
359.49999999999858
  0
ARC
  8
_0-0_0
  6
CONTINUOUS
 62
    7
 10
1688.6221842714783
 20
516.86057467155774
 40
0.4499999999999999
 50
180.4999999999981
 51
270
  0
ARC
  8
_0-0_0
  6
CONTINUOUS
 62
    7
 10
1713.2880927677359
 20
516.86057467155774
 40
0.4499999999999999
 50
270
 51
359.50000000000188
  0
ARC
  8
_0-0_0
  6
CONTINUOUS
 62
    7
 10
1682.7749284458316
 20
516.86057467155774
 40
0.4499999999999999
 50
180.4999999999981
 51
270
  0
ARC
  8
_0-0_0
  6
CONTINUOUS
 62
    7
 10
1715.4283369423836
 20
516.86057467155774
 40
0.4499999999999999
 50
270
 51
359.50000000000188
  0
ARC
  8
_0-0_0
  6
CONTINUOUS
 62
    7
 10
1680.6346842712385
 20
516.86057467155774
 40
0.4499999999999999
 50
180.4999999999981
 51
270
  0
LINE
  8
_0-0_0
  6
CONTINUOUS
 62
    7
 10
1601.2606732281088
 20
477.72801453320824
 11
1800.6903606782519
 21
477.72801453320824
  0
LINE
  8
_0-0_0
  6
CONTINUOUS
 62
    7
 10
1614.0939984202132
 20
477.12029968961019
 11
1603.7752484227926
 21
471.96092469090024
  0
LINE
  8
_0-0_0
  6
CONTINUOUS
 62
    7
 10
1620.0471234187248
 20
477.12029968961019
 11
1601.7908734232888
 21
467.99217469189222
  0
LINE
  8
_0-0_0
  6
CONTINUOUS
 62
    7
 10
1626.0002484172364
 20
477.12029968961019
 11
1598.417435924132
 21
463.77537781794661
  0
LINE
  8
_0-0_0
  6
CONTINUOUS
 62
    7
 10
1631.953373415748
 20
477.12029968961019
 11
1604.370560922644
 21
463.77537781794661
  0
LINE
  8
_0-0_0
  6
CONTINUOUS
 62
    7
 10
1637.9064984142601
 20
477.12029968961019
 11
1610.3236859211556
 21
463.77537781794661
  0
LINE
  8
_0-0_0
  6
CONTINUOUS
 62
    7
 10
1643.8596234127717
 20
477.12029968961019
 11
1616.2768109196675
 21
463.77537781794661
  0
LINE
  8
_0-0_0
  6
CONTINUOUS
 62
    7
 10
1649.8127484112833
 20
477.12029968961019
 11
1622.2299359181791
 21
463.77537781794661
  0
LINE
  8
_0-0_0
  6
CONTINUOUS
 62
    7
 10
1655.7658734097952
 20
477.12029968961019
 11
1628.1830609166907
 21
463.77537781794661
  0
LINE
  8
_0-0_0
  6
CONTINUOUS
 62
    7
 10
1661.7189984083068
 20
477.12029968961019
 11
1634.1361859152023
 21
463.77537781794661
  0
LINE
  8
_0-0_0
  6
CONTINUOUS
 62
    7
 10
1667.6721234068184
 20
477.12029968961019
 11
1640.0893109137139
 21
463.77537781794661
  0
LINE
  8
_0-0_0
  6
CONTINUOUS
 62
    7
 10
1673.62524840533
 20
477.12029968961019
 11
1646.0424359122262
 21
463.77537781794661
  0
LINE
  8
_0-0_0
  6
CONTINUOUS
 62
    7
 10
1679.5783734038416
 20
477.12029968961019
 11
1651.9955609107378
 21
463.77537781794661
  0
LINE
  8
_0-0_0
  6
CONTINUOUS
 62
    7
 10
1685.5314984023539
 20
477.12029968961019
 11
1657.9486859092494
 21
463.77537781794661
  0
LINE
  8
_0-0_0
  6
CONTINUOUS
 62
    7
 10
1691.4846234008655
 20
477.12029968961019
 11
1663.901810907761
 21
463.77537781794661
  0
LINE
  8
_0-0_0
  6
CONTINUOUS
 62
    7
 10
1697.4377483993771
 20
477.12029968961019
 11
1669.8549359062727
 21
463.77537781794661
  0
LINE
  8
_0-0_0
  6
CONTINUOUS
 62
    7
 10
1703.3908733978888
 20
477.12029968961019
 11
1675.808060904785
 21
463.77537781794661
  0
LINE
  8
_0-0_0
  6
CONTINUOUS
 62
    7
 10
1709.343998396401
 20
477.12029968961019
 11
1681.7611859032966
 21
463.77537781794661
  0
LINE
  8
_0-0_0
  6
CONTINUOUS
 62
    7
 10
1715.2971233949127
 20
477.12029968961019
 11
1687.7143109018082
 21
463.77537781794661
  0
LINE
  8
_0-0_0
  6
CONTINUOUS
 62
    7
 10
1721.2502483934243
 20
477.12029968961019
 11
1693.6674359003198
 21
463.77537781794661
  0
LINE
  8
_0-0_0
  6
CONTINUOUS
 62
    7
 10
1727.2033733919359
 20
477.12029968961019
 11
1699.6205608988314
 21
463.77537781794661
  0
LINE
  8
_0-0_0
  6
CONTINUOUS
 62
    7
 10
1733.1564983904475
 20
477.12029968961019
 11
1705.573685897343
 21
463.77537781794661
  0
LINE
  8
_0-0_0
  6
CONTINUOUS
 62
    7
 10
1739.1096233889591
 20
477.12029968961019
 11
1711.5268108958546
 21
463.77537781794661
  0
LINE
  8
_0-0_0
  6
CONTINUOUS
 62
    7
 10
1745.0627483874707
 20
477.12029968961019
 11
1717.4799358943662
 21
463.77537781794661
  0
LINE
  8
_0-0_0
  6
CONTINUOUS
 62
    7
 10
1751.0158733859823
 20
477.12029968961019
 11
1723.4330608928778
 21
463.77537781794661
  0
LINE
  8
_0-0_0
  6
CONTINUOUS
 62
    7
 10
1756.9689983844939
 20
477.12029968961019
 11
1729.3861858913901
 21
463.77537781794661
  0
LINE
  8
_0-0_0
  6
CONTINUOUS
 62
    7
 10
1762.9221233830056
 20
477.12029968961019
 11
1735.3393108899018
 21
463.77537781794661
  0
LINE
  8
_0-0_0
  6
CONTINUOUS
 62
    7
 10
1768.8752483815178
 20
477.12029968961019
 11
1741.2924358884134
 21
463.77537781794661
  0
LINE
  8
_0-0_0
  6
CONTINUOUS
 62
    7
 10
1774.8283733800295
 20
477.12029968961019
 11
1747.245560886925
 21
463.77537781794661
  0
LINE
  8
_0-0_0
  6
CONTINUOUS
 62
    7
 10
1780.7814983785411
 20
477.12029968961019
 11
1753.1986858854366
 21
463.77537781794661
  0
LINE
  8
_0-0_0
  6
CONTINUOUS
 62
    7
 10
1786.7346233770527
 20
477.12029968961019
 11
1759.1518108839489
 21
463.77537781794661
  0
LINE
  8
_0-0_0
  6
CONTINUOUS
 62
    7
 10
1792.6877483755643
 20
477.12029968961019
 11
1765.1049358824605
 21
463.77537781794661
  0
LINE
  8
_0-0_0
  6
CONTINUOUS
 62
    7
 10
1719.1806072806601
 20
432.3199334898726
 11
1676.8824139318597
 21
432.3199334898726
  0
LINE
  8
_0-0_0
  6
CONTINUOUS
 62
    7
 10
1676.8824139318597
 20
432.3199334898726
 11
1676.8824139318597
 21
477.32028748252878
  0
LINE
  8
_0-0_0
  6
CONTINUOUS
 62
    7
 10
1676.8824139318597
 20
477.32028748252878
 11
1719.1806072806601
 21
477.32028748252878
  0
LINE
  8
_0-0_0
  6
CONTINUOUS
 62
    7
 10
1719.1806072806601
 20
477.32028748252878
 11
1719.1806072806601
 21
432.3199334898726
  0
LINE
  8
_0-0_0
  6
CONTINUOUS
 62
    7
 10
1680.3271649075607
 20
477.16990906459773
 11
1680.8108563136902
 21
460.11203553370598
  0
LINE
  8
_0-0_0
  6
CONTINUOUS
 62
    7
 10
1680.8108563136902
 20
460.11203553370598
 11
1715.574625836249
 21
460.00351502592082
  0
LINE
  8
_0-0_0
  6
CONTINUOUS
 62
    7
 10
1715.574625836249
 20
460.00351502592082
 11
1716.3218670469996
 21
477.24587342004736
  0
LINE
  8
_0-0_0
  6
CONTINUOUS
 62
    7
 10
1686.8073895153159
 20
460.07792908840219
 11
1689.0522137335054
 21
458.02069031938515
  0
LINE
  8
_0-0_0
  6
CONTINUOUS
 62
    7
 10
1689.0522137335054
 20
458.02069031938515
 11
1689.4351360966903
 21
433.34467714196074
  0
LINE
  8
_0-0_0
  6
CONTINUOUS
 62
    7
 10
1689.4351360966903
 20
433.34467714196074
 11
1706.556571639285
 21
433.28886659509925
  0
LINE
  8
_0-0_0
  6
CONTINUOUS
 62
    7
 10
1706.556571639285
 20
433.28886659509925
 11
1707.4758953695241
 21
457.86721131551718
  0
LINE
  8
_0-0_0
  6
CONTINUOUS
 62
    7
 10
1707.4758953695241
 20
457.86721131551718
 11
1709.8121868728456
 21
460.12133729151628
  0
LINE
  8
_0-0_0
  6
CONTINUOUS
 62
    7
 10
1689.0522137335054
 20
458.02069031938515
 11
1707.592167342151
 21
458.02069031938515
  0
LINE
  8
_0-0_0
  6
CONTINUOUS
 62
    7
 10
1676.742887564707
 20
453.24733826979718
 11
1719.1123943900518
 21
453.24733826979718
  0
LINE
  8
_0-0_0
  6
CONTINUOUS
 62
    7
 10
1678.0404827792263
 20
451.54821717647201
 11
1718.0674969293759
 21
451.54821717647201
  0
LINE
  8
_0-0_0
  6
CONTINUOUS
 62
    7
 10
1696.5091229113282
 20
451.56992127802926
 11
1696.4564129504035
 21
434.40197694638357
  0
LINE
  8
_0-0_0
  6
CONTINUOUS
 62
    7
 10
1699.6050579691478
 20
451.46760194211703
 11
1699.5538983011922
 21
434.45158632137117
  0
LINE
  8
_0-0_0
  6
CONTINUOUS
 62
    7
 10
1682.2650311180143
 20
449.89250428626076
 11
1713.5902508367451
 21
449.89250428626076
  0
LINE
  8
_0-0_0
  6
CONTINUOUS
 62
    7
 10
1719.0348797416343
 20
434.26555116516789
 11
1676.6188641272379
 21
434.26555116516789
  0
LINE
  8
_0-0_0
  6
CONTINUOUS
 62
    7
 10
1194.9653309124969
 20
1073.8487318751677
 11
1145.4148670453096
 21
1073.8487318751677
  0
LINE
  8
_0-0_0
  6
CONTINUOUS
 62
    7
 10
1145.4148670453096
 20
848.84880392837476
 11
1145.4148670453096
 21
1118.8487174645265
  0
TEXT
  8
_0-0_0
 62
    7
 10
1142.7898670453094
 20
1088.8487246698464
 40
15
 41
1
 50
90
  1
50
  0
LINE
  8
_0-0_0
  6
CONTINUOUS
 62
    7
 10
1194.9653309124969
 20
1028.8487462858093
 11
1145.4148670453096
 21
1028.8487462858093
  0
TEXT
  8
_0-0_0
 62
    7
 10
1142.7898670453094
 20
1043.8487390804885
 40
15
 41
1
 50
90
  1
50
  0
LINE
  8
_0-0_0
  6
CONTINUOUS
 62
    7
 10
1194.9653309124969
 20
983.84876069645088
 11
1145.4148670453096
 21
983.84876069645088
  0
TEXT
  8
_0-0_0
 62
    7
 10
1142.7898670453094
 20
998.84875349113008
 40
15
 41
1
 50
90
  1
50
  0
LINE
  8
_0-0_0
  6
CONTINUOUS
 62
    7
 10
1194.9653309124969
 20
938.84877510709202
 11
1145.4148670453096
 21
938.84877510709202
  0
TEXT
  8
_0-0_0
 62
    7
 10
1142.7898670453094
 20
953.84876790177123
 40
15
 41
1
 50
90
  1
50
  0
LINE
  8
_0-0_0
  6
CONTINUOUS
 62
    7
 10
1194.9653309124969
 20
893.84878951773374
 11
1145.4148670453096
 21
893.84878951773374
  0
TEXT
  8
_0-0_0
 62
    7
 10
1142.7898670453096
 20
908.84878231241294
 40
15
 41
1
 50
90
  1
50
  0
LINE
  8
_0-0_0
  6
CONTINUOUS
 62
    7
 10
1194.9653309124969
 20
848.84880392837476
 11
1145.4148670453096
 21
848.84880392837476
  0
TEXT
  8
_0-0_0
 62
    7
 10
1142.7898670453096
 20
863.84879672305419
 40
15
 41
1
 50
90
  1
50
  0
LINE
  8
_0-0_0
  6
CONTINUOUS
 62
    7
 10
1251.5357616185738
 20
1146.9399345374441
 11
1323.5357616185738
 21
1146.9399345374441
  0
LINE
  8
_0-0_0
  6
CONTINUOUS
 62
    7
 10
1251.5357616185738
 20
1128.5546291693204
 11
1251.5357616185738
 21
1146.9399345374441
  0
LINE
  8
_0-0_0
  6
CONTINUOUS
 62
    7
 10
1323.5357616185738
 20
1128.5546291693204
 11
1323.5357616185738
 21
1146.9399345374441
  0
CIRCLE
  8
_0-0_0
  6
CONTINUOUS
 62
    7
 10
1287.5357616185738
 20
1221.1501422061713
 40
4.5
  0
CIRCLE
  8
_0-0_0
  6
CONTINUOUS
 62
    7
 10
1287.5357616185738
 20
1221.1501422061713
 40
41.399999999999999
  0
CIRCLE
  8
_0-0_0
  6
DASHED2
 62
    7
 10
1287.5357616185738
 20
1221.1501422061713
 40
38.25
  0
LINE
  8
_0-0_0
  6
CONTINUOUS
 62
    7
 10
1246.1357616185737
 20
1255.8904241077287
 11
1246.1357616185737
 21
1290.2542164999456
  0
LINE
  8
_0-0_0
  6
CONTINUOUS
 62
    7
 10
1328.9357616185739
 20
1255.8904241077287
 11
1328.9357616185739
 21
1290.2542164999456
  0
LINE
  8
_0-0_0
  6
CONTINUOUS
 62
    7
 10
1246.1357616185737
 20
1290.2542164999456
 11
1328.9357616185739
 21
1290.2542164999456
  0
TEXT
  8
_0-0_0
 62
    7
 10
1268.7857616185738
 20
1289.5042164999456
 40
15
 41
1
 50
0
  1
86±2
  0
CIRCLE
  8
_0-0_0
  6
CONTINUOUS
 62
    7
 10
1698.028084965232
 20
1221.1501422061713
 40
4.5
  0
CIRCLE
  8
_0-0_0
  6
CONTINUOUS
 62
    7
 10
1698.028084965232
 20
1221.1501422061713
 40
41.399999999999999
  0
CIRCLE
  8
_0-0_0
  6
DASHED2
 62
    7
 10
1698.028084965232
 20
1221.1501422061713
 40
38.25
  0
TEXT
  8
_0-0_0
 62
    7
 10
1268.7857616185738
 20
1146.1899345374441
 40
15
 41
1
 50
0
  1
80±2
  0
LINE
  8
_0-0_0
  6
AI9-LType4
 62
    7
 10
1698.028084965232
 20
1161.9518370840842
 11
1698.028084965232
 21
1277.0790568490647
  0
LINE
  8
_0-0_0
  6
AI9-LType4
 62
    7
 10
1287.5357616185738
 20
1161.9518370840842
 11
1287.5357616185738
 21
1277.0790568490647
  0
LINE
  8
_0-0_0
  6
CONTINUOUS
 62
    7
 10
1194.9653309124969
 20
1118.8487174645265
 11
1076.5913830025806
 21
1118.8487174645265
  0
LINE
  8
_0-0_0
  6
CONTINUOUS
 62
    7
 10
1256.0357616185738
 20
1083.7487174645266
 11
1256.0357616185738
 21
808.34871746452632
  0
LINE
  8
_0-0_0
  6
CONTINUOUS
 62
    7
 10
1265.0357616185738
 20
1083.7487174645266
 11
1265.0357616185738
 21
808.34871746452632
  0
LINE
  8
_0-0_0
  6
CONTINUOUS
 62
    7
 10
1274.0357616185738
 20
808.34871746452632
 11
1274.0357616185738
 21
1083.7487174645266
  0
LINE
  8
_0-0_0
  6
CONTINUOUS
 62
    7
 10
1283.0357616185738
 20
808.34871746452632
 11
1283.0357616185738
 21
1083.7487174645266
  0
LINE
  8
_0-0_0
  6
CONTINUOUS
 62
    7
 10
1292.0357616185738
 20
808.34871746452632
 11
1292.0357616185738
 21
1083.7487174645266
  0
LINE
  8
_0-0_0
  6
CONTINUOUS
 62
    7
 10
1301.0357616185734
 20
808.34871746452632
 11
1301.0357616185734
 21
1083.7487174645266
  0
LINE
  8
_0-0_0
  6
CONTINUOUS
 62
    7
 10
1310.0357616185736
 20
808.34871746452632
 11
1310.0357616185736
 21
1083.7487174645266
  0
LINE
  8
_0-0_0
  6
CONTINUOUS
 62
    7
 10
1319.0357616185738
 20
808.34871746452632
 11
1319.0357616185738
 21
1083.7487174645266
  0
ARC
  8
_0-0_0
  6
CONTINUOUS
 62
    7
 10
1251.5357616185738
 20
808.34871746452632
 40
4.5
 50
270
 51
0
  0
ARC
  8
_0-0_0
  6
CONTINUOUS
 62
    7
 10
1269.5357616185738
 20
808.34871746452632
 40
4.5
 50
180
 51
0
  0
ARC
  8
_0-0_0
  6
CONTINUOUS
 62
    7
 10
1287.5357616185738
 20
808.34871746452632
 40
4.5
 50
180
 51
0
  0
ARC
  8
_0-0_0
  6
CONTINUOUS
 62
    7
 10
1305.5357616185738
 20
808.34871746452632
 40
4.5
 50
180
 51
0
  0
ARC
  8
_0-0_0
  6
CONTINUOUS
 62
    7
 10
1323.5357616185738
 20
808.34871746452632
 40
4.5
 50
180
 51
270
  0
ARC
  8
_0-0_0
  6
CONTINUOUS
 62
    7
 10
1260.5357616185738
 20
1083.7487174645266
 40
4.5
 50
0
 51
180
  0
ARC
  8
_0-0_0
  6
CONTINUOUS
 62
    7
 10
1278.5357616185738
 20
1083.7487174645266
 40
4.5
 50
0
 51
180
  0
ARC
  8
_0-0_0
  6
CONTINUOUS
 62
    7
 10
1296.5357616185738
 20
1083.7487174645266
 40
4.5
 50
0
 51
180
  0
ARC
  8
_0-0_0
  6
CONTINUOUS
 62
    7
 10
1314.5357616185738
 20
1083.7487174645266
 40
4.5
 50
0
 51
180
  0
LINE
  8
_0-0_0
  6
DASHED2
 62
    7
 10
1251.5357616185738
 20
1091.8487174645265
 11
1251.5357616185738
 21
1118.8487174645265
  0
LINE
  8
_0-0_0
  6
DASHED2
 62
    7
 10
1323.5357616185738
 20
1091.8487174645265
 11
1323.5357616185738
 21
1118.8487174645265
  0
LINE
  8
_0-0_0
  6
CONTINUOUS
 62
    7
 10
1251.5357616185738
 20
1118.8487174645265
 11
1323.5357616185738
 21
1118.8487174645265
  0
LINE
  8
_0-0_0
  6
CONTINUOUS
 62
    7
 10
1248.8357616185738
 20
1118.8487174645265
 11
1326.2357616185739
 21
1118.8487174645265
  0
LINE
  8
_0-0_0
  6
CONTINUOUS
 62
    7
 10
1326.2357616185739
 20
1118.8487174645265
 11
1326.2357616185739
 21
1091.8487174645265
  0
LINE
  8
_0-0_0
  6
CONTINUOUS
 62
    7
 10
1326.2357616185739
 20
1091.8487174645265
 11
1248.8357616185738
 21
1091.8487174645265
  0
LINE
  8
_0-0_0
  6
CONTINUOUS
 62
    7
 10
1248.8357616185738
 20
1091.8487174645265
 11
1248.8357616185738
 21
1118.8487174645265
  0
LINE
  8
_0-0_0
  6
CONTINUOUS
 62
    7
 10
1251.5357616185738
 20
803.84871746452643
 11
1251.5357616185738
 21
1091.8487174645265
  0
LINE
  8
_0-0_0
  6
CONTINUOUS
 62
    7
 10
1323.5357616185738
 20
1091.8487174645265
 11
1323.5357616185738
 21
803.84871746452643
  0
LINE
  8
_0-0_0
  6
CONTINUOUS
 62
    7
 10
1256.0357616185738
 20
1073.8487318751677
 11
1265.0357616185738
 21
1073.8487318751677
  0
LINE
  8
_0-0_0
  6
CONTINUOUS
 62
    7
 10
1256.0357616185738
 20
848.84880392837476
 11
1265.0357616185738
 21
848.84880392837476
  0
LINE
  8
_0-0_0
  6
CONTINUOUS
 62
    7
 10
1256.0357616185738
 20
1028.8487462858093
 11
1265.0357616185738
 21
1028.8487462858093
  0
LINE
  8
_0-0_0
  6
CONTINUOUS
 62
    7
 10
1256.0357616185738
 20
1034.7228921226788
 11
1265.0357616185738
 21
1034.7228921226788
  0
LINE
  8
_0-0_0
  6
CONTINUOUS
 62
    7
 10
1256.0357616185738
 20
1040.1228921226789
 11
1265.0357616185738
 21
1040.1228921226789
  0
LINE
  8
_0-0_0
  6
CONTINUOUS
 62
    7
 10
1256.0357616185738
 20
1045.5228921226785
 11
1265.0357616185738
 21
1045.5228921226785
  0
LINE
  8
_0-0_0
  6
CONTINUOUS
 62
    7
 10
1256.0357616185738
 20
1050.9228921226786
 11
1265.0357616185738
 21
1050.9228921226786
  0
LINE
  8
_0-0_0
  6
CONTINUOUS
 62
    7
 10
1256.0357616185738
 20
1056.3228921226787
 11
1265.0357616185738
 21
1056.3228921226787
  0
LINE
  8
_0-0_0
  6
CONTINUOUS
 62
    7
 10
1256.0357616185738
 20
1061.7228921226788
 11
1265.0357616185738
 21
1061.7228921226788
  0
LINE
  8
_0-0_0
  6
CONTINUOUS
 62
    7
 10
1256.0357616185738
 20
1067.1228921226789
 11
1265.0357616185738
 21
1067.1228921226789
  0
LINE
  8
_0-0_0
  6
CONTINUOUS
 62
    7
 10
1256.0357616185738
 20
983.84876069645088
 11
1265.0357616185738
 21
983.84876069645088
  0
LINE
  8
_0-0_0
  6
CONTINUOUS
 62
    7
 10
1256.0357616185738
 20
938.84877510709202
 11
1265.0357616185738
 21
938.84877510709202
  0
LINE
  8
_0-0_0
  6
CONTINUOUS
 62
    7
 10
1256.0357616185738
 20
893.84878951773374
 11
1265.0357616185738
 21
893.84878951773374
  0
LINE
  8
_0-0_0
  6
CONTINUOUS
 62
    7
 10
1256.0357616185738
 20
944.72292094396175
 11
1265.0357616185738
 21
944.72292094396175
  0
LINE
  8
_0-0_0
  6
CONTINUOUS
 62
    7
 10
1256.0357616185738
 20
950.12292094396184
 11
1265.0357616185738
 21
950.12292094396184
  0
LINE
  8
_0-0_0
  6
CONTINUOUS
 62
    7
 10
1256.0357616185738
 20
955.52292094396182
 11
1265.0357616185738
 21
955.52292094396182
  0
LINE
  8
_0-0_0
  6
CONTINUOUS
 62
    7
 10
1256.0357616185738
 20
960.9229209439618
 11
1265.0357616185738
 21
960.9229209439618
  0
LINE
  8
_0-0_0
  6
CONTINUOUS
 62
    7
 10
1256.0357616185738
 20
966.32292094396189
 11
1265.0357616185738
 21
966.32292094396189
  0
LINE
  8
_0-0_0
  6
CONTINUOUS
 62
    7
 10
1256.0357616185738
 20
971.72292094396175
 11
1265.0357616185738
 21
971.72292094396175
  0
LINE
  8
_0-0_0
  6
CONTINUOUS
 62
    7
 10
1256.0357616185738
 20
977.12292094396184
 11
1265.0357616185738
 21
977.12292094396184
  0
LINE
  8
_0-0_0
  6
CONTINUOUS
 62
    7
 10
1256.0357616185738
 20
854.72294976524461
 11
1265.0357616185738
 21
854.72294976524461
  0
LINE
  8
_0-0_0
  6
CONTINUOUS
 62
    7
 10
1256.0357616185738
 20
860.12294976524458
 11
1265.0357616185738
 21
860.12294976524458
  0
LINE
  8
_0-0_0
  6
CONTINUOUS
 62
    7
 10
1256.0357616185738
 20
865.52294976524468
 11
1265.0357616185738
 21
865.52294976524468
  0
LINE
  8
_0-0_0
  6
CONTINUOUS
 62
    7
 10
1256.0357616185738
 20
870.92294976524454
 11
1265.0357616185738
 21
870.92294976524454
  0
LINE
  8
_0-0_0
  6
CONTINUOUS
 62
    7
 10
1256.0357616185738
 20
876.32294976524463
 11
1265.0357616185738
 21
876.32294976524463
  0
LINE
  8
_0-0_0
  6
CONTINUOUS
 62
    7
 10
1256.0357616185738
 20
881.72294976524461
 11
1265.0357616185738
 21
881.72294976524461
  0
LINE
  8
_0-0_0
  6
CONTINUOUS
 62
    7
 10
1256.0357616185738
 20
887.12294976524458
 11
1265.0357616185738
 21
887.12294976524458
  0
LINE
  8
_0-0_0
  6
CONTINUOUS
 62
    7
 10
1274.0357616185738
 20
1073.8487318751677
 11
1283.0357616185738
 21
1073.8487318751677
  0
LINE
  8
_0-0_0
  6
CONTINUOUS
 62
    7
 10
1274.0357616185738
 20
848.84880392837476
 11
1283.0357616185738
 21
848.84880392837476
  0
LINE
  8
_0-0_0
  6
CONTINUOUS
 62
    7
 10
1274.0357616185738
 20
1028.8487462858093
 11
1283.0357616185738
 21
1028.8487462858093
  0
LINE
  8
_0-0_0
  6
CONTINUOUS
 62
    7
 10
1274.0357616185738
 20
1034.7228921226788
 11
1283.0357616185738
 21
1034.7228921226788
  0
LINE
  8
_0-0_0
  6
CONTINUOUS
 62
    7
 10
1274.0357616185738
 20
1040.1228921226789
 11
1283.0357616185738
 21
1040.1228921226789
  0
LINE
  8
_0-0_0
  6
CONTINUOUS
 62
    7
 10
1274.0357616185738
 20
1045.5228921226785
 11
1283.0357616185738
 21
1045.5228921226785
  0
LINE
  8
_0-0_0
  6
CONTINUOUS
 62
    7
 10
1274.0357616185738
 20
1050.9228921226786
 11
1283.0357616185738
 21
1050.9228921226786
  0
LINE
  8
_0-0_0
  6
CONTINUOUS
 62
    7
 10
1274.0357616185738
 20
1056.3228921226787
 11
1283.0357616185738
 21
1056.3228921226787
  0
LINE
  8
_0-0_0
  6
CONTINUOUS
 62
    7
 10
1274.0357616185738
 20
1061.7228921226788
 11
1283.0357616185738
 21
1061.7228921226788
  0
LINE
  8
_0-0_0
  6
CONTINUOUS
 62
    7
 10
1274.0357616185738
 20
1067.1228921226789
 11
1283.0357616185738
 21
1067.1228921226789
  0
LINE
  8
_0-0_0
  6
CONTINUOUS
 62
    7
 10
1274.0357616185738
 20
983.84876069645088
 11
1283.0357616185738
 21
983.84876069645088
  0
LINE
  8
_0-0_0
  6
CONTINUOUS
 62
    7
 10
1274.0357616185738
 20
938.84877510709202
 11
1283.0357616185738
 21
938.84877510709202
  0
LINE
  8
_0-0_0
  6
CONTINUOUS
 62
    7
 10
1274.0357616185738
 20
893.84878951773374
 11
1283.0357616185738
 21
893.84878951773374
  0
LINE
  8
_0-0_0
  6
CONTINUOUS
 62
    7
 10
1274.0357616185738
 20
944.72292094396175
 11
1283.0357616185738
 21
944.72292094396175
  0
LINE
  8
_0-0_0
  6
CONTINUOUS
 62
    7
 10
1274.0357616185738
 20
950.12292094396184
 11
1283.0357616185738
 21
950.12292094396184
  0
LINE
  8
_0-0_0
  6
CONTINUOUS
 62
    7
 10
1274.0357616185738
 20
955.52292094396182
 11
1283.0357616185738
 21
955.52292094396182
  0
LINE
  8
_0-0_0
  6
CONTINUOUS
 62
    7
 10
1274.0357616185738
 20
960.9229209439618
 11
1283.0357616185738
 21
960.9229209439618
  0
LINE
  8
_0-0_0
  6
CONTINUOUS
 62
    7
 10
1274.0357616185738
 20
966.32292094396189
 11
1283.0357616185738
 21
966.32292094396189
  0
LINE
  8
_0-0_0
  6
CONTINUOUS
 62
    7
 10
1274.0357616185738
 20
971.72292094396175
 11
1283.0357616185738
 21
971.72292094396175
  0
LINE
  8
_0-0_0
  6
CONTINUOUS
 62
    7
 10
1274.0357616185738
 20
977.12292094396184
 11
1283.0357616185738
 21
977.12292094396184
  0
LINE
  8
_0-0_0
  6
CONTINUOUS
 62
    7
 10
1274.0357616185738
 20
854.72294976524461
 11
1283.0357616185738
 21
854.72294976524461
  0
LINE
  8
_0-0_0
  6
CONTINUOUS
 62
    7
 10
1274.0357616185738
 20
860.12294976524458
 11
1283.0357616185738
 21
860.12294976524458
  0
LINE
  8
_0-0_0
  6
CONTINUOUS
 62
    7
 10
1274.0357616185738
 20
865.52294976524468
 11
1283.0357616185738
 21
865.52294976524468
  0
LINE
  8
_0-0_0
  6
CONTINUOUS
 62
    7
 10
1274.0357616185738
 20
870.92294976524454
 11
1283.0357616185738
 21
870.92294976524454
  0
LINE
  8
_0-0_0
  6
CONTINUOUS
 62
    7
 10
1274.0357616185738
 20
876.32294976524463
 11
1283.0357616185738
 21
876.32294976524463
  0
LINE
  8
_0-0_0
  6
CONTINUOUS
 62
    7
 10
1274.0357616185738
 20
881.72294976524461
 11
1283.0357616185738
 21
881.72294976524461
  0
LINE
  8
_0-0_0
  6
CONTINUOUS
 62
    7
 10
1274.0357616185738
 20
887.12294976524458
 11
1283.0357616185738
 21
887.12294976524458
  0
LINE
  8
_0-0_0
  6
CONTINUOUS
 62
    7
 10
1292.0357616185738
 20
1073.8487318751677
 11
1301.0357616185734
 21
1073.8487318751677
  0
LINE
  8
_0-0_0
  6
CONTINUOUS
 62
    7
 10
1292.0357616185738
 20
848.84880392837476
 11
1301.0357616185734
 21
848.84880392837476
  0
LINE
  8
_0-0_0
  6
CONTINUOUS
 62
    7
 10
1292.0357616185738
 20
1028.8487462858093
 11
1301.0357616185734
 21
1028.8487462858093
  0
LINE
  8
_0-0_0
  6
CONTINUOUS
 62
    7
 10
1292.0357616185738
 20
1034.7228921226788
 11
1301.0357616185734
 21
1034.7228921226788
  0
LINE
  8
_0-0_0
  6
CONTINUOUS
 62
    7
 10
1292.0357616185738
 20
1040.1228921226789
 11
1301.0357616185734
 21
1040.1228921226789
  0
LINE
  8
_0-0_0
  6
CONTINUOUS
 62
    7
 10
1292.0357616185738
 20
1045.5228921226785
 11
1301.0357616185734
 21
1045.5228921226785
  0
LINE
  8
_0-0_0
  6
CONTINUOUS
 62
    7
 10
1292.0357616185738
 20
1050.9228921226786
 11
1301.0357616185734
 21
1050.9228921226786
  0
LINE
  8
_0-0_0
  6
CONTINUOUS
 62
    7
 10
1292.0357616185738
 20
1056.3228921226787
 11
1301.0357616185734
 21
1056.3228921226787
  0
LINE
  8
_0-0_0
  6
CONTINUOUS
 62
    7
 10
1292.0357616185738
 20
1061.7228921226788
 11
1301.0357616185734
 21
1061.7228921226788
  0
LINE
  8
_0-0_0
  6
CONTINUOUS
 62
    7
 10
1292.0357616185738
 20
1067.1228921226789
 11
1301.0357616185734
 21
1067.1228921226789
  0
LINE
  8
_0-0_0
  6
CONTINUOUS
 62
    7
 10
1292.0357616185738
 20
983.84876069645088
 11
1301.0357616185734
 21
983.84876069645088
  0
LINE
  8
_0-0_0
  6
CONTINUOUS
 62
    7
 10
1292.0357616185738
 20
938.84877510709202
 11
1301.0357616185734
 21
938.84877510709202
  0
LINE
  8
_0-0_0
  6
CONTINUOUS
 62
    7
 10
1292.0357616185738
 20
893.84878951773374
 11
1301.0357616185734
 21
893.84878951773374
  0
LINE
  8
_0-0_0
  6
CONTINUOUS
 62
    7
 10
1292.0357616185738
 20
944.72292094396175
 11
1301.0357616185734
 21
944.72292094396175
  0
LINE
  8
_0-0_0
  6
CONTINUOUS
 62
    7
 10
1292.0357616185738
 20
950.12292094396184
 11
1301.0357616185734
 21
950.12292094396184
  0
LINE
  8
_0-0_0
  6
CONTINUOUS
 62
    7
 10
1292.0357616185738
 20
955.52292094396182
 11
1301.0357616185734
 21
955.52292094396182
  0
LINE
  8
_0-0_0
  6
CONTINUOUS
 62
    7
 10
1292.0357616185738
 20
960.9229209439618
 11
1301.0357616185734
 21
960.9229209439618
  0
LINE
  8
_0-0_0
  6
CONTINUOUS
 62
    7
 10
1292.0357616185738
 20
966.32292094396189
 11
1301.0357616185734
 21
966.32292094396189
  0
LINE
  8
_0-0_0
  6
CONTINUOUS
 62
    7
 10
1292.0357616185738
 20
971.72292094396175
 11
1301.0357616185734
 21
971.72292094396175
  0
LINE
  8
_0-0_0
  6
CONTINUOUS
 62
    7
 10
1292.0357616185738
 20
977.12292094396184
 11
1301.0357616185734
 21
977.12292094396184
  0
LINE
  8
_0-0_0
  6
CONTINUOUS
 62
    7
 10
1292.0357616185738
 20
854.72294976524461
 11
1301.0357616185734
 21
854.72294976524461
  0
LINE
  8
_0-0_0
  6
CONTINUOUS
 62
    7
 10
1292.0357616185738
 20
860.12294976524458
 11
1301.0357616185734
 21
860.12294976524458
  0
LINE
  8
_0-0_0
  6
CONTINUOUS
 62
    7
 10
1292.0357616185738
 20
865.52294976524468
 11
1301.0357616185734
 21
865.52294976524468
  0
LINE
  8
_0-0_0
  6
CONTINUOUS
 62
    7
 10
1292.0357616185738
 20
870.92294976524454
 11
1301.0357616185734
 21
870.92294976524454
  0
LINE
  8
_0-0_0
  6
CONTINUOUS
 62
    7
 10
1292.0357616185738
 20
876.32294976524463
 11
1301.0357616185734
 21
876.32294976524463
  0
LINE
  8
_0-0_0
  6
CONTINUOUS
 62
    7
 10
1292.0357616185738
 20
881.72294976524461
 11
1301.0357616185734
 21
881.72294976524461
  0
LINE
  8
_0-0_0
  6
CONTINUOUS
 62
    7
 10
1292.0357616185738
 20
887.12294976524458
 11
1301.0357616185734
 21
887.12294976524458
  0
LINE
  8
_0-0_0
  6
CONTINUOUS
 62
    7
 10
1310.0357616185736
 20
1073.8487318751677
 11
1319.0357616185738
 21
1073.8487318751677
  0
LINE
  8
_0-0_0
  6
CONTINUOUS
 62
    7
 10
1310.0357616185736
 20
848.84880392837476
 11
1319.0357616185738
 21
848.84880392837476
  0
LINE
  8
_0-0_0
  6
CONTINUOUS
 62
    7
 10
1310.0357616185736
 20
1028.8487462858093
 11
1319.0357616185738
 21
1028.8487462858093
  0
LINE
  8
_0-0_0
  6
CONTINUOUS
 62
    7
 10
1310.0357616185736
 20
1034.7228921226788
 11
1319.0357616185738
 21
1034.7228921226788
  0
LINE
  8
_0-0_0
  6
CONTINUOUS
 62
    7
 10
1310.0357616185736
 20
1040.1228921226789
 11
1319.0357616185738
 21
1040.1228921226789
  0
LINE
  8
_0-0_0
  6
CONTINUOUS
 62
    7
 10
1310.0357616185736
 20
1045.5228921226785
 11
1319.0357616185738
 21
1045.5228921226785
  0
LINE
  8
_0-0_0
  6
CONTINUOUS
 62
    7
 10
1310.0357616185736
 20
1050.9228921226786
 11
1319.0357616185738
 21
1050.9228921226786
  0
LINE
  8
_0-0_0
  6
CONTINUOUS
 62
    7
 10
1310.0357616185736
 20
1056.3228921226787
 11
1319.0357616185738
 21
1056.3228921226787
  0
LINE
  8
_0-0_0
  6
CONTINUOUS
 62
    7
 10
1310.0357616185736
 20
1061.7228921226788
 11
1319.0357616185738
 21
1061.7228921226788
  0
LINE
  8
_0-0_0
  6
CONTINUOUS
 62
    7
 10
1310.0357616185736
 20
1067.1228921226789
 11
1319.0357616185738
 21
1067.1228921226789
  0
LINE
  8
_0-0_0
  6
CONTINUOUS
 62
    7
 10
1310.0357616185736
 20
983.84876069645088
 11
1319.0357616185738
 21
983.84876069645088
  0
LINE
  8
_0-0_0
  6
CONTINUOUS
 62
    7
 10
1310.0357616185736
 20
938.84877510709202
 11
1319.0357616185738
 21
938.84877510709202
  0
LINE
  8
_0-0_0
  6
CONTINUOUS
 62
    7
 10
1310.0357616185736
 20
893.84878951773374
 11
1319.0357616185738
 21
893.84878951773374
  0
LINE
  8
_0-0_0
  6
CONTINUOUS
 62
    7
 10
1310.0357616185736
 20
944.72292094396175
 11
1319.0357616185738
 21
944.72292094396175
  0
LINE
  8
_0-0_0
  6
CONTINUOUS
 62
    7
 10
1310.0357616185736
 20
950.12292094396184
 11
1319.0357616185738
 21
950.12292094396184
  0
LINE
  8
_0-0_0
  6
CONTINUOUS
 62
    7
 10
1310.0357616185736
 20
955.52292094396182
 11
1319.0357616185738
 21
955.52292094396182
  0
LINE
  8
_0-0_0
  6
CONTINUOUS
 62
    7
 10
1310.0357616185736
 20
960.9229209439618
 11
1319.0357616185738
 21
960.9229209439618
  0
LINE
  8
_0-0_0
  6
CONTINUOUS
 62
    7
 10
1310.0357616185736
 20
966.32292094396189
 11
1319.0357616185738
 21
966.32292094396189
  0
LINE
  8
_0-0_0
  6
CONTINUOUS
 62
    7
 10
1310.0357616185736
 20
971.72292094396175
 11
1319.0357616185738
 21
971.72292094396175
  0
LINE
  8
_0-0_0
  6
CONTINUOUS
 62
    7
 10
1310.0357616185736
 20
977.12292094396184
 11
1319.0357616185738
 21
977.12292094396184
  0
LINE
  8
_0-0_0
  6
CONTINUOUS
 62
    7
 10
1310.0357616185736
 20
854.72294976524461
 11
1319.0357616185738
 21
854.72294976524461
  0
LINE
  8
_0-0_0
  6
CONTINUOUS
 62
    7
 10
1310.0357616185736
 20
860.12294976524458
 11
1319.0357616185738
 21
860.12294976524458
  0
LINE
  8
_0-0_0
  6
CONTINUOUS
 62
    7
 10
1310.0357616185736
 20
865.52294976524468
 11
1319.0357616185738
 21
865.52294976524468
  0
LINE
  8
_0-0_0
  6
CONTINUOUS
 62
    7
 10
1310.0357616185736
 20
870.92294976524454
 11
1319.0357616185738
 21
870.92294976524454
  0
LINE
  8
_0-0_0
  6
CONTINUOUS
 62
    7
 10
1310.0357616185736
 20
876.32294976524463
 11
1319.0357616185738
 21
876.32294976524463
  0
LINE
  8
_0-0_0
  6
CONTINUOUS
 62
    7
 10
1310.0357616185736
 20
881.72294976524461
 11
1319.0357616185738
 21
881.72294976524461
  0
LINE
  8
_0-0_0
  6
CONTINUOUS
 62
    7
 10
1310.0357616185736
 20
887.12294976524458
 11
1319.0357616185738
 21
887.12294976524458
  0
LINE
  8
_0-0_0
  6
CONTINUOUS
 62
    7
 10
1666.5280849652306
 20
1083.7487174645266
 11
1666.5280849652306
 21
808.34871746452632
  0
LINE
  8
_0-0_0
  6
CONTINUOUS
 62
    7
 10
1675.5280849652313
 20
1083.7487174645266
 11
1675.5280849652313
 21
808.34871746452632
  0
LINE
  8
_0-0_0
  6
CONTINUOUS
 62
    7
 10
1684.5280849652306
 20
808.34871746452632
 11
1684.5280849652306
 21
1083.7487174645266
  0
LINE
  8
_0-0_0
  6
CONTINUOUS
 62
    7
 10
1693.5280849652306
 20
808.34871746452632
 11
1693.5280849652306
 21
1083.7487174645266
  0
LINE
  8
_0-0_0
  6
CONTINUOUS
 62
    7
 10
1702.5280849652313
 20
808.34871746452632
 11
1702.5280849652313
 21
1083.7487174645266
  0
LINE
  8
_0-0_0
  6
CONTINUOUS
 62
    7
 10
1711.5280849652306
 20
808.34871746452632
 11
1711.5280849652306
 21
1083.7487174645266
  0
LINE
  8
_0-0_0
  6
CONTINUOUS
 62
    7
 10
1720.5280849652306
 20
808.34871746452632
 11
1720.5280849652306
 21
1083.7487174645266
  0
LINE
  8
_0-0_0
  6
CONTINUOUS
 62
    7
 10
1729.5280849652313
 20
808.34871746452632
 11
1729.5280849652313
 21
1083.7487174645266
  0
ARC
  8
_0-0_0
  6
CONTINUOUS
 62
    7
 10
1662.0280849652313
 20
808.34871746452632
 40
4.5
 50
270
 51
0
  0
ARC
  8
_0-0_0
  6
CONTINUOUS
 62
    7
 10
1680.0280849652306
 20
808.34871746452632
 40
4.5
 50
180
 51
0
  0
ARC
  8
_0-0_0
  6
CONTINUOUS
 62
    7
 10
1698.0280849652306
 20
808.34871746452632
 40
4.5
 50
180
 51
0
  0
ARC
  8
_0-0_0
  6
CONTINUOUS
 62
    7
 10
1716.0280849652313
 20
808.34871746452632
 40
4.5
 50
180
 51
0
  0
ARC
  8
_0-0_0
  6
CONTINUOUS
 62
    7
 10
1734.0280849652306
 20
808.34871746452632
 40
4.5
 50
180
 51
270
  0
ARC
  8
_0-0_0
  6
CONTINUOUS
 62
    7
 10
1671.0280849652306
 20
1083.7487174645266
 40
4.5
 50
0
 51
180
  0
ARC
  8
_0-0_0
  6
CONTINUOUS
 62
    7
 10
1689.0280849652313
 20
1083.7487174645266
 40
4.5
 50
0
 51
180
  0
ARC
  8
_0-0_0
  6
CONTINUOUS
 62
    7
 10
1707.0280849652306
 20
1083.7487174645266
 40
4.5
 50
0
 51
180
  0
ARC
  8
_0-0_0
  6
CONTINUOUS
 62
    7
 10
1725.0280849652313
 20
1083.7487174645266
 40
4.5
 50
0
 51
180
  0
LINE
  8
_0-0_0
  6
DASHED2
 62
    7
 10
1662.0280849652313
 20
1091.8487174645265
 11
1662.0280849652313
 21
1118.8487174645265
  0
LINE
  8
_0-0_0
  6
DASHED2
 62
    7
 10
1734.0280849652306
 20
1091.8487174645265
 11
1734.0280849652306
 21
1118.8487174645265
  0
LINE
  8
_0-0_0
  6
CONTINUOUS
 62
    7
 10
1662.0280849652313
 20
1118.8487174645265
 11
1734.0280849652306
 21
1118.8487174645265
  0
LINE
  8
_0-0_0
  6
CONTINUOUS
 62
    7
 10
1659.328084965231
 20
1118.8487174645265
 11
1736.7280849652309
 21
1118.8487174645265
  0
LINE
  8
_0-0_0
  6
CONTINUOUS
 62
    7
 10
1736.7280849652309
 20
1118.8487174645265
 11
1736.7280849652309
 21
1091.8487174645265
  0
LINE
  8
_0-0_0
  6
CONTINUOUS
 62
    7
 10
1736.7280849652309
 20
1091.8487174645265
 11
1659.328084965231
 21
1091.8487174645265
  0
LINE
  8
_0-0_0
  6
CONTINUOUS
 62
    7
 10
1659.328084965231
 20
1091.8487174645265
 11
1659.328084965231
 21
1118.8487174645265
  0
LINE
  8
_0-0_0
  6
CONTINUOUS
 62
    7
 10
1662.0280849652313
 20
803.84871746452643
 11
1662.0280849652313
 21
1091.8487174645265
  0
LINE
  8
_0-0_0
  6
CONTINUOUS
 62
    7
 10
1734.0280849652306
 20
1091.8487174645265
 11
1734.0280849652306
 21
803.84871746452643
  0
LINE
  8
_0-0_0
  6
CONTINUOUS
 62
    7
 10
1666.5280849652306
 20
1073.8487318751677
 11
1675.5280849652313
 21
1073.8487318751677
  0
LINE
  8
_0-0_0
  6
CONTINUOUS
 62
    7
 10
1666.5280849652306
 20
848.84880392837476
 11
1675.5280849652313
 21
848.84880392837476
  0
LINE
  8
_0-0_0
  6
CONTINUOUS
 62
    7
 10
1666.5280849652306
 20
1028.8487462858093
 11
1675.5280849652313
 21
1028.8487462858093
  0
LINE
  8
_0-0_0
  6
CONTINUOUS
 62
    7
 10
1666.5280849652306
 20
1034.7228921226788
 11
1675.5280849652313
 21
1034.7228921226788
  0
LINE
  8
_0-0_0
  6
CONTINUOUS
 62
    7
 10
1666.5280849652306
 20
1040.1228921226789
 11
1675.5280849652313
 21
1040.1228921226789
  0
LINE
  8
_0-0_0
  6
CONTINUOUS
 62
    7
 10
1666.5280849652306
 20
1045.5228921226785
 11
1675.5280849652313
 21
1045.5228921226785
  0
LINE
  8
_0-0_0
  6
CONTINUOUS
 62
    7
 10
1666.5280849652306
 20
1050.9228921226786
 11
1675.5280849652313
 21
1050.9228921226786
  0
LINE
  8
_0-0_0
  6
CONTINUOUS
 62
    7
 10
1666.5280849652306
 20
1056.3228921226787
 11
1675.5280849652313
 21
1056.3228921226787
  0
LINE
  8
_0-0_0
  6
CONTINUOUS
 62
    7
 10
1666.5280849652306
 20
1061.7228921226788
 11
1675.5280849652313
 21
1061.7228921226788
  0
LINE
  8
_0-0_0
  6
CONTINUOUS
 62
    7
 10
1666.5280849652306
 20
1067.1228921226789
 11
1675.5280849652313
 21
1067.1228921226789
  0
LINE
  8
_0-0_0
  6
CONTINUOUS
 62
    7
 10
1666.5280849652306
 20
983.84876069645088
 11
1675.5280849652313
 21
983.84876069645088
  0
LINE
  8
_0-0_0
  6
CONTINUOUS
 62
    7
 10
1666.5280849652306
 20
938.84877510709202
 11
1675.5280849652313
 21
938.84877510709202
  0
LINE
  8
_0-0_0
  6
CONTINUOUS
 62
    7
 10
1666.5280849652306
 20
893.84878951773374
 11
1675.5280849652313
 21
893.84878951773374
  0
LINE
  8
_0-0_0
  6
CONTINUOUS
 62
    7
 10
1666.5280849652306
 20
944.72292094396175
 11
1675.5280849652313
 21
944.72292094396175
  0
LINE
  8
_0-0_0
  6
CONTINUOUS
 62
    7
 10
1666.5280849652306
 20
950.12292094396184
 11
1675.5280849652313
 21
950.12292094396184
  0
LINE
  8
_0-0_0
  6
CONTINUOUS
 62
    7
 10
1666.5280849652306
 20
955.52292094396182
 11
1675.5280849652313
 21
955.52292094396182
  0
LINE
  8
_0-0_0
  6
CONTINUOUS
 62
    7
 10
1666.5280849652306
 20
960.9229209439618
 11
1675.5280849652313
 21
960.9229209439618
  0
LINE
  8
_0-0_0
  6
CONTINUOUS
 62
    7
 10
1666.5280849652306
 20
966.32292094396189
 11
1675.5280849652313
 21
966.32292094396189
  0
LINE
  8
_0-0_0
  6
CONTINUOUS
 62
    7
 10
1666.5280849652306
 20
971.72292094396175
 11
1675.5280849652313
 21
971.72292094396175
  0
LINE
  8
_0-0_0
  6
CONTINUOUS
 62
    7
 10
1666.5280849652306
 20
977.12292094396184
 11
1675.5280849652313
 21
977.12292094396184
  0
LINE
  8
_0-0_0
  6
CONTINUOUS
 62
    7
 10
1666.5280849652306
 20
854.72294976524461
 11
1675.5280849652313
 21
854.72294976524461
  0
LINE
  8
_0-0_0
  6
CONTINUOUS
 62
    7
 10
1666.5280849652306
 20
860.12294976524458
 11
1675.5280849652313
 21
860.12294976524458
  0
LINE
  8
_0-0_0
  6
CONTINUOUS
 62
    7
 10
1666.5280849652306
 20
865.52294976524468
 11
1675.5280849652313
 21
865.52294976524468
  0
LINE
  8
_0-0_0
  6
CONTINUOUS
 62
    7
 10
1666.5280849652306
 20
870.92294976524454
 11
1675.5280849652313
 21
870.92294976524454
  0
LINE
  8
_0-0_0
  6
CONTINUOUS
 62
    7
 10
1666.5280849652306
 20
876.32294976524463
 11
1675.5280849652313
 21
876.32294976524463
  0
LINE
  8
_0-0_0
  6
CONTINUOUS
 62
    7
 10
1666.5280849652306
 20
881.72294976524461
 11
1675.5280849652313
 21
881.72294976524461
  0
LINE
  8
_0-0_0
  6
CONTINUOUS
 62
    7
 10
1666.5280849652306
 20
887.12294976524458
 11
1675.5280849652313
 21
887.12294976524458
  0
LINE
  8
_0-0_0
  6
CONTINUOUS
 62
    7
 10
1684.5280849652306
 20
1073.8487318751677
 11
1693.5280849652306
 21
1073.8487318751677
  0
LINE
  8
_0-0_0
  6
CONTINUOUS
 62
    7
 10
1684.5280849652306
 20
848.84880392837476
 11
1693.5280849652306
 21
848.84880392837476
  0
LINE
  8
_0-0_0
  6
CONTINUOUS
 62
    7
 10
1684.5280849652306
 20
1028.8487462858093
 11
1693.5280849652306
 21
1028.8487462858093
  0
LINE
  8
_0-0_0
  6
CONTINUOUS
 62
    7
 10
1684.5280849652306
 20
1034.7228921226788
 11
1693.5280849652306
 21
1034.7228921226788
  0
LINE
  8
_0-0_0
  6
CONTINUOUS
 62
    7
 10
1684.5280849652306
 20
1040.1228921226789
 11
1693.5280849652306
 21
1040.1228921226789
  0
LINE
  8
_0-0_0
  6
CONTINUOUS
 62
    7
 10
1684.5280849652306
 20
1045.5228921226785
 11
1693.5280849652306
 21
1045.5228921226785
  0
LINE
  8
_0-0_0
  6
CONTINUOUS
 62
    7
 10
1684.5280849652306
 20
1050.9228921226786
 11
1693.5280849652306
 21
1050.9228921226786
  0
LINE
  8
_0-0_0
  6
CONTINUOUS
 62
    7
 10
1684.5280849652306
 20
1056.3228921226787
 11
1693.5280849652306
 21
1056.3228921226787
  0
LINE
  8
_0-0_0
  6
CONTINUOUS
 62
    7
 10
1684.5280849652306
 20
1061.7228921226788
 11
1693.5280849652306
 21
1061.7228921226788
  0
LINE
  8
_0-0_0
  6
CONTINUOUS
 62
    7
 10
1684.5280849652306
 20
1067.1228921226789
 11
1693.5280849652306
 21
1067.1228921226789
  0
LINE
  8
_0-0_0
  6
CONTINUOUS
 62
    7
 10
1684.5280849652306
 20
983.84876069645088
 11
1693.5280849652306
 21
983.84876069645088
  0
LINE
  8
_0-0_0
  6
CONTINUOUS
 62
    7
 10
1684.5280849652306
 20
938.84877510709202
 11
1693.5280849652306
 21
938.84877510709202
  0
LINE
  8
_0-0_0
  6
CONTINUOUS
 62
    7
 10
1684.5280849652306
 20
893.84878951773374
 11
1693.5280849652306
 21
893.84878951773374
  0
LINE
  8
_0-0_0
  6
CONTINUOUS
 62
    7
 10
1684.5280849652306
 20
944.72292094396175
 11
1693.5280849652306
 21
944.72292094396175
  0
LINE
  8
_0-0_0
  6
CONTINUOUS
 62
    7
 10
1684.5280849652306
 20
950.12292094396184
 11
1693.5280849652306
 21
950.12292094396184
  0
LINE
  8
_0-0_0
  6
CONTINUOUS
 62
    7
 10
1684.5280849652306
 20
955.52292094396182
 11
1693.5280849652306
 21
955.52292094396182
  0
LINE
  8
_0-0_0
  6
CONTINUOUS
 62
    7
 10
1684.5280849652306
 20
960.9229209439618
 11
1693.5280849652306
 21
960.9229209439618
  0
LINE
  8
_0-0_0
  6
CONTINUOUS
 62
    7
 10
1684.5280849652306
 20
966.32292094396189
 11
1693.5280849652306
 21
966.32292094396189
  0
LINE
  8
_0-0_0
  6
CONTINUOUS
 62
    7
 10
1684.5280849652306
 20
971.72292094396175
 11
1693.5280849652306
 21
971.72292094396175
  0
LINE
  8
_0-0_0
  6
CONTINUOUS
 62
    7
 10
1684.5280849652306
 20
977.12292094396184
 11
1693.5280849652306
 21
977.12292094396184
  0
LINE
  8
_0-0_0
  6
CONTINUOUS
 62
    7
 10
1684.5280849652306
 20
854.72294976524461
 11
1693.5280849652306
 21
854.72294976524461
  0
LINE
  8
_0-0_0
  6
CONTINUOUS
 62
    7
 10
1684.5280849652306
 20
860.12294976524458
 11
1693.5280849652306
 21
860.12294976524458
  0
LINE
  8
_0-0_0
  6
CONTINUOUS
 62
    7
 10
1684.5280849652306
 20
865.52294976524468
 11
1693.5280849652306
 21
865.52294976524468
  0
LINE
  8
_0-0_0
  6
CONTINUOUS
 62
    7
 10
1684.5280849652306
 20
870.92294976524454
 11
1693.5280849652306
 21
870.92294976524454
  0
LINE
  8
_0-0_0
  6
CONTINUOUS
 62
    7
 10
1684.5280849652306
 20
876.32294976524463
 11
1693.5280849652306
 21
876.32294976524463
  0
LINE
  8
_0-0_0
  6
CONTINUOUS
 62
    7
 10
1684.5280849652306
 20
881.72294976524461
 11
1693.5280849652306
 21
881.72294976524461
  0
LINE
  8
_0-0_0
  6
CONTINUOUS
 62
    7
 10
1684.5280849652306
 20
887.12294976524458
 11
1693.5280849652306
 21
887.12294976524458
  0
LINE
  8
_0-0_0
  6
CONTINUOUS
 62
    7
 10
1702.5280849652313
 20
1073.8487318751677
 11
1711.5280849652306
 21
1073.8487318751677
  0
LINE
  8
_0-0_0
  6
CONTINUOUS
 62
    7
 10
1702.5280849652313
 20
848.84880392837476
 11
1711.5280849652306
 21
848.84880392837476
  0
LINE
  8
_0-0_0
  6
CONTINUOUS
 62
    7
 10
1702.5280849652313
 20
1028.8487462858093
 11
1711.5280849652306
 21
1028.8487462858093
  0
LINE
  8
_0-0_0
  6
CONTINUOUS
 62
    7
 10
1702.5280849652313
 20
1034.7228921226788
 11
1711.5280849652306
 21
1034.7228921226788
  0
LINE
  8
_0-0_0
  6
CONTINUOUS
 62
    7
 10
1702.5280849652313
 20
1040.1228921226789
 11
1711.5280849652306
 21
1040.1228921226789
  0
LINE
  8
_0-0_0
  6
CONTINUOUS
 62
    7
 10
1702.5280849652313
 20
1045.5228921226785
 11
1711.5280849652306
 21
1045.5228921226785
  0
LINE
  8
_0-0_0
  6
CONTINUOUS
 62
    7
 10
1702.5280849652313
 20
1050.9228921226786
 11
1711.5280849652306
 21
1050.9228921226786
  0
LINE
  8
_0-0_0
  6
CONTINUOUS
 62
    7
 10
1702.5280849652313
 20
1056.3228921226787
 11
1711.5280849652306
 21
1056.3228921226787
  0
LINE
  8
_0-0_0
  6
CONTINUOUS
 62
    7
 10
1702.5280849652313
 20
1061.7228921226788
 11
1711.5280849652306
 21
1061.7228921226788
  0
LINE
  8
_0-0_0
  6
CONTINUOUS
 62
    7
 10
1702.5280849652313
 20
1067.1228921226789
 11
1711.5280849652306
 21
1067.1228921226789
  0
LINE
  8
_0-0_0
  6
CONTINUOUS
 62
    7
 10
1702.5280849652313
 20
983.84876069645088
 11
1711.5280849652306
 21
983.84876069645088
  0
LINE
  8
_0-0_0
  6
CONTINUOUS
 62
    7
 10
1702.5280849652313
 20
938.84877510709202
 11
1711.5280849652306
 21
938.84877510709202
  0
LINE
  8
_0-0_0
  6
CONTINUOUS
 62
    7
 10
1702.5280849652313
 20
893.84878951773374
 11
1711.5280849652306
 21
893.84878951773374
  0
LINE
  8
_0-0_0
  6
CONTINUOUS
 62
    7
 10
1702.5280849652313
 20
944.72292094396175
 11
1711.5280849652306
 21
944.72292094396175
  0
LINE
  8
_0-0_0
  6
CONTINUOUS
 62
    7
 10
1702.5280849652313
 20
950.12292094396184
 11
1711.5280849652306
 21
950.12292094396184
  0
LINE
  8
_0-0_0
  6
CONTINUOUS
 62
    7
 10
1702.5280849652313
 20
955.52292094396182
 11
1711.5280849652306
 21
955.52292094396182
  0
LINE
  8
_0-0_0
  6
CONTINUOUS
 62
    7
 10
1702.5280849652313
 20
960.9229209439618
 11
1711.5280849652306
 21
960.9229209439618
  0
LINE
  8
_0-0_0
  6
CONTINUOUS
 62
    7
 10
1702.5280849652313
 20
966.32292094396189
 11
1711.5280849652306
 21
966.32292094396189
  0
LINE
  8
_0-0_0
  6
CONTINUOUS
 62
    7
 10
1702.5280849652313
 20
971.72292094396175
 11
1711.5280849652306
 21
971.72292094396175
  0
LINE
  8
_0-0_0
  6
CONTINUOUS
 62
    7
 10
1702.5280849652313
 20
977.12292094396184
 11
1711.5280849652306
 21
977.12292094396184
  0
LINE
  8
_0-0_0
  6
CONTINUOUS
 62
    7
 10
1702.5280849652313
 20
854.72294976524461
 11
1711.5280849652306
 21
854.72294976524461
  0
LINE
  8
_0-0_0
  6
CONTINUOUS
 62
    7
 10
1702.5280849652313
 20
860.12294976524458
 11
1711.5280849652306
 21
860.12294976524458
  0
LINE
  8
_0-0_0
  6
CONTINUOUS
 62
    7
 10
1702.5280849652313
 20
865.52294976524468
 11
1711.5280849652306
 21
865.52294976524468
  0
LINE
  8
_0-0_0
  6
CONTINUOUS
 62
    7
 10
1702.5280849652313
 20
870.92294976524454
 11
1711.5280849652306
 21
870.92294976524454
  0
LINE
  8
_0-0_0
  6
CONTINUOUS
 62
    7
 10
1702.5280849652313
 20
876.32294976524463
 11
1711.5280849652306
 21
876.32294976524463
  0
LINE
  8
_0-0_0
  6
CONTINUOUS
 62
    7
 10
1702.5280849652313
 20
881.72294976524461
 11
1711.5280849652306
 21
881.72294976524461
  0
LINE
  8
_0-0_0
  6
CONTINUOUS
 62
    7
 10
1702.5280849652313
 20
887.12294976524458
 11
1711.5280849652306
 21
887.12294976524458
  0
LINE
  8
_0-0_0
  6
CONTINUOUS
 62
    7
 10
1720.5280849652306
 20
1073.8487318751677
 11
1729.5280849652313
 21
1073.8487318751677
  0
LINE
  8
_0-0_0
  6
CONTINUOUS
 62
    7
 10
1720.5280849652306
 20
848.84880392837476
 11
1729.5280849652313
 21
848.84880392837476
  0
LINE
  8
_0-0_0
  6
CONTINUOUS
 62
    7
 10
1720.5280849652306
 20
1028.8487462858093
 11
1729.5280849652313
 21
1028.8487462858093
  0
LINE
  8
_0-0_0
  6
CONTINUOUS
 62
    7
 10
1720.5280849652306
 20
1034.7228921226788
 11
1729.5280849652313
 21
1034.7228921226788
  0
LINE
  8
_0-0_0
  6
CONTINUOUS
 62
    7
 10
1720.5280849652306
 20
1040.1228921226789
 11
1729.5280849652313
 21
1040.1228921226789
  0
LINE
  8
_0-0_0
  6
CONTINUOUS
 62
    7
 10
1720.5280849652306
 20
1045.5228921226785
 11
1729.5280849652313
 21
1045.5228921226785
  0
LINE
  8
_0-0_0
  6
CONTINUOUS
 62
    7
 10
1720.5280849652306
 20
1050.9228921226786
 11
1729.5280849652313
 21
1050.9228921226786
  0
LINE
  8
_0-0_0
  6
CONTINUOUS
 62
    7
 10
1720.5280849652306
 20
1056.3228921226787
 11
1729.5280849652313
 21
1056.3228921226787
  0
LINE
  8
_0-0_0
  6
CONTINUOUS
 62
    7
 10
1720.5280849652306
 20
1061.7228921226788
 11
1729.5280849652313
 21
1061.7228921226788
  0
LINE
  8
_0-0_0
  6
CONTINUOUS
 62
    7
 10
1720.5280849652306
 20
1067.1228921226789
 11
1729.5280849652313
 21
1067.1228921226789
  0
LINE
  8
_0-0_0
  6
CONTINUOUS
 62
    7
 10
1720.5280849652306
 20
983.84876069645088
 11
1729.5280849652313
 21
983.84876069645088
  0
LINE
  8
_0-0_0
  6
CONTINUOUS
 62
    7
 10
1720.5280849652306
 20
938.84877510709202
 11
1729.5280849652313
 21
938.84877510709202
  0
LINE
  8
_0-0_0
  6
CONTINUOUS
 62
    7
 10
1720.5280849652306
 20
893.84878951773374
 11
1729.5280849652313
 21
893.84878951773374
  0
LINE
  8
_0-0_0
  6
CONTINUOUS
 62
    7
 10
1720.5280849652306
 20
944.72292094396175
 11
1729.5280849652313
 21
944.72292094396175
  0
LINE
  8
_0-0_0
  6
CONTINUOUS
 62
    7
 10
1720.5280849652306
 20
950.12292094396184
 11
1729.5280849652313
 21
950.12292094396184
  0
LINE
  8
_0-0_0
  6
CONTINUOUS
 62
    7
 10
1720.5280849652306
 20
955.52292094396182
 11
1729.5280849652313
 21
955.52292094396182
  0
LINE
  8
_0-0_0
  6
CONTINUOUS
 62
    7
 10
1720.5280849652306
 20
960.9229209439618
 11
1729.5280849652313
 21
960.9229209439618
  0
LINE
  8
_0-0_0
  6
CONTINUOUS
 62
    7
 10
1720.5280849652306
 20
966.32292094396189
 11
1729.5280849652313
 21
966.32292094396189
  0
LINE
  8
_0-0_0
  6
CONTINUOUS
 62
    7
 10
1720.5280849652306
 20
971.72292094396175
 11
1729.5280849652313
 21
971.72292094396175
  0
LINE
  8
_0-0_0
  6
CONTINUOUS
 62
    7
 10
1720.5280849652306
 20
977.12292094396184
 11
1729.5280849652313
 21
977.12292094396184
  0
LINE
  8
_0-0_0
  6
CONTINUOUS
 62
    7
 10
1720.5280849652306
 20
854.72294976524461
 11
1729.5280849652313
 21
854.72294976524461
  0
LINE
  8
_0-0_0
  6
CONTINUOUS
 62
    7
 10
1720.5280849652306
 20
860.12294976524458
 11
1729.5280849652313
 21
860.12294976524458
  0
LINE
  8
_0-0_0
  6
CONTINUOUS
 62
    7
 10
1720.5280849652306
 20
865.52294976524468
 11
1729.5280849652313
 21
865.52294976524468
  0
LINE
  8
_0-0_0
  6
CONTINUOUS
 62
    7
 10
1720.5280849652306
 20
870.92294976524454
 11
1729.5280849652313
 21
870.92294976524454
  0
LINE
  8
_0-0_0
  6
CONTINUOUS
 62
    7
 10
1720.5280849652306
 20
876.32294976524463
 11
1729.5280849652313
 21
876.32294976524463
  0
LINE
  8
_0-0_0
  6
CONTINUOUS
 62
    7
 10
1720.5280849652306
 20
881.72294976524461
 11
1729.5280849652313
 21
881.72294976524461
  0
LINE
  8
_0-0_0
  6
CONTINUOUS
 62
    7
 10
1720.5280849652306
 20
887.12294976524458
 11
1729.5280849652313
 21
887.12294976524458
  0
LINE
  8
_0-0_0
  6
CONTINUOUS
 62
    7
 10
1313.4762093938352
 20
1103.5530482340196
 11
1345.1597159502039
 21
1135.2365547903878
  0
LINE
  8
_0-0_0
  6
CONTINUOUS
 62
    7
 10
1306.3696284839957
 20
1050.8459064860422
 11
1344.2713933364739
 21
1088.7476713385204
  0
LINE
  8
_0-0_0
  6
CONTINUOUS
 62
    7
 10
1315.2528546212955
 20
963.19807526468662
 11
1347.8246837913935
 21
995.76990443478473
  0
TEXT
  8
_0-0_0
 62
    7
 10
1349.2120828098518
 20
1137.1515226315773
 40
15
 41
1
 50
0
  1
キャップ
  0
TEXT
  8
_0-0_0
 62
    7
 10
1350.2018898569911
 20
1092.7353919450802
 40
15
 41
1
 50
0
  1
腰みの(透明)
  0
TEXT
  8
_0-0_0
 62
    7
 10
1348.6282134963499
 20
996.79654966224484
 40
15
 41
1
 50
0
  1
高輝度反射シート(白)
  0
LINE
  8
_0-0_0
  6
CONTINUOUS
 62
    7
 10
1347.8246837913935
 20
995.76990443478473
 11
1498.2473130496655
 21
995.76990443478473
  0
LINE
  8
_0-0_0
  6
CONTINUOUS
 62
    7
 10
1344.2713933364739
 20
1088.7476713385204
 11
1447.3168165291481
 21
1088.7476713385204
  0
LINE
  8
_0-0_0
  6
CONTINUOUS
 62
    7
 10
1345.1597159502039
 20
1135.2365547903878
 11
1412.9683421315901
 21
1135.2365547903878
  0
LINE
  8
_0-0_0
  6
CONTINUOUS
 62
    7
 10
1116.2685891457857
 20
1118.8487174645265
 11
1116.2685891457857
 21
803.84871746452643
  0
LINE
  8
_0-0_0
  6
CONTINUOUS
 62
    7
 10
1116.2685891457857
 20
803.84871746452643
 11
1194.9653309124969
 21
803.84871746452643
  0
TEXT
  8
_0-0_0
 62
    7
 10
1117.0185891457857
 20
950.09871746452643
 40
15
 41
1
 50
90
  1
350
  0
LINE
  8
_0-0_0
  6
CONTINUOUS
 62
    7
 10
1176.784527951821
 20
1118.8487174645265
 11
1176.784527951821
 21
1091.8487174645265
  0
LINE
  8
_0-0_0
  6
CONTINUOUS
 62
    7
 10
1176.784527951821
 20
1091.8487174645265
 11
1194.9653309124969
 21
1091.8487174645265
  0
TEXT
  8
_0-0_0
 62
    7
 10
1177.534527951821
 20
1097.8487174645265
 40
15
 41
1
 50
90
  1
30
  0
LINE
  8
_0-0_0
  6
CONTINUOUS
 62
    7
 10
1076.5913830025806
 20
533.84869607438634
 11
1076.5913830025806
 21
1118.8487174645265
  0
LINE
  8
_0-5_D-BYP-STR1
  6
CONTINUOUS
 62
    7
 10
1157.3807192626066
 20
533.84869607438668
 11
1076.5913830025806
 21
533.84869607438668
  0
TEXT
  8
_0-0_0
 62
    7
 10
1365.2326421367593
 20
-42.714563253538273
 40
15
 41
1
 50
0
  1
250台座/着脱一本脚タイプ/腰みの付き防塵タイプ
  0
LINE
  8
_0-0_0
  6
CONTINUOUS
 62
    7
 10
1214.1795092308976
 20
663.07404857647055
 11
1287.9639805308107
 21
705.0318665018176
  0
LINE
  8
_0-0_0
  6
CONTINUOUS
 62
    7
 10
1287.9639805308107
 20
705.0318665018176
 11
1290.8578607391446
 21
724.12975332907513
  0
LINE
  8
_0-0_0
  6
CONTINUOUS
 62
    7
 10
1290.8578607391446
 20
724.12975332907513
 11
1292.8827156111058
 21
695.77144983515109
  0
LINE
  8
_0-0_0
  6
CONTINUOUS
 62
    7
 10
1292.8827156111058
 20
695.77144983515109
 11
1294.3296557152728
 21
709.07985369799803
  0
LINE
  8
_0-0_0
  6
CONTINUOUS
 62
    7
 10
1294.3296557152728
 20
709.07985369799803
 11
1372.4549473276857
 21
753.93327437942207
  0
LINE
  8
_0-0_0
  6
CONTINUOUS
 62
    7
 10
1208.5984545433976
 20
679.78965187508152
 11
1244.8572232608453
 21
700.40510326397055
  0
LINE
  8
_0-0_0
  6
CONTINUOUS
 62
    7
 10
1244.8572232608453
 20
700.40510326397055
 11
1244.8727261905328
 21
700.41543855042858
  0
LINE
  8
_0-0_0
  6
CONTINUOUS
 62
    7
 10
1244.8727261905328
 20
700.41543855042858
 11
1282.3829258433107
 21
721.74574725268553
  0
LINE
  8
_0-0_0
  6
CONTINUOUS
 62
    7
 10
1282.3829258433107
 20
721.74574725268553
 11
1285.2768060516446
 21
740.84191153219967
  0
LINE
  8
_0-0_0
  6
CONTINUOUS
 62
    7
 10
1285.2768060516446
 20
740.84191153219967
 11
1287.3016609236061
 21
712.48533058601902
  0
LINE
  8
_0-0_0
  6
CONTINUOUS
 62
    7
 10
1287.3016609236061
 20
712.48533058601902
 11
1288.7486010277728
 21
725.79545699660946
  0
LINE
  8
_0-0_0
  6
CONTINUOUS
 62
    7
 10
1288.7486010277728
 20
725.79545699660946
 11
1359.9294414140577
 21
767.1727763325465
  0
LINE
  8
_0-0_0
  6
CONTINUOUS
 62
    7
 10
1623.4188645556221
 20
663.07404857647055
 11
1697.2033358555354
 21
705.0318665018176
  0
LINE
  8
_0-0_0
  6
CONTINUOUS
 62
    7
 10
1697.2033358555354
 20
705.0318665018176
 11
1700.0972160638689
 21
724.12975332907513
  0
LINE
  8
_0-0_0
  6
CONTINUOUS
 62
    7
 10
1700.0972160638689
 20
724.12975332907513
 11
1702.1220709358304
 21
695.77144983515109
  0
LINE
  8
_0-0_0
  6
CONTINUOUS
 62
    7
 10
1702.1220709358304
 20
695.77144983515109
 11
1703.5690110399973
 21
709.07985369799803
  0
LINE
  8
_0-0_0
  6
CONTINUOUS
 62
    7
 10
1703.5690110399973
 20
709.07985369799803
 11
1781.6943026524102
 21
753.93327437942207
  0
LINE
  8
_0-0_0
  6
CONTINUOUS
 62
    7
 10
1617.8378098681221
 20
679.78965187508152
 11
1654.0965785855703
 21
700.40510326397055
  0
LINE
  8
_0-0_0
  6
CONTINUOUS
 62
    7
 10
1654.0965785855703
 20
700.40510326397055
 11
1654.1120815152574
 21
700.41543855042858
  0
LINE
  8
_0-0_0
  6
CONTINUOUS
 62
    7
 10
1654.1120815152574
 20
700.41543855042858
 11
1691.6222811680354
 21
721.74574725268553
  0
LINE
  8
_0-0_0
  6
CONTINUOUS
 62
    7
 10
1691.6222811680354
 20
721.74574725268553
 11
1694.5161613763689
 21
740.84191153219967
  0
LINE
  8
_0-0_0
  6
CONTINUOUS
 62
    7
 10
1694.5161613763689
 20
740.84191153219967
 11
1696.5410162483308
 21
712.48533058601902
  0
LINE
  8
_0-0_0
  6
CONTINUOUS
 62
    7
 10
1696.5410162483308
 20
712.48533058601902
 11
1697.9879563524973
 21
725.79545699660946
  0
LINE
  8
_0-0_0
  6
CONTINUOUS
 62
    7
 10
1697.9879563524973
 20
725.79545699660946
 11
1769.1687967387825
 21
767.1727763325465
  0
LINE
  8
_0-0_0
  6
CONTINUOUS
 62
    7
 10
1251.5357616185738
 20
1091.8487174645265
 11
1251.5357616185738
 21
704.20439739068536
  0
LINE
  8
_0-0_0
  6
CONTINUOUS
 62
    7
 10
1251.5357616185738
 20
684.31682240735495
 11
1251.5357616185738
 21
578.92195579827398
  0
LINE
  8
_0-0_0
  6
CONTINUOUS
 62
    7
 10
1323.5357616185738
 20
578.92195579827398
 11
1323.5357616185738
 21
725.84771116784259
  0
LINE
  8
_0-0_0
  6
CONTINUOUS
 62
    7
 10
1323.5357616185738
 20
746.01718302210668
 11
1323.5357616185738
 21
1091.8487174645265
  0
LINE
  8
_0-0_0
  6
AI9-LType4
 62
    7
 10
1287.5357616185738
 20
426.71629534524124
 11
1287.5357616185738
 21
704.78835820209974
  0
LINE
  8
_0-0_0
  6
AI9-LType4
 62
    7
 10
1287.5357616185738
 20
714.63877828841953
 11
1287.5357616185738
 21
1137.151372435113
  0
LINE
  8
_0-0_0
  6
CONTINUOUS
 62
    7
 10
1662.0280849652313
 20
1091.8487174645265
 11
1662.0280849652313
 21
704.91690212137939
  0
LINE
  8
_0-0_0
  6
CONTINUOUS
 62
    7
 10
1662.0280849652313
 20
685.02932739931794
 11
1662.0280849652313
 21
578.92195579827398
  0
LINE
  8
_0-0_0
  6
AI9-LType4
 62
    7
 10
1698.028084965232
 20
426.71629534524124
 11
1698.028084965232
 21
710.47471970372601
  0
LINE
  8
_0-0_0
  6
AI9-LType4
 62
    7
 10
1698.028084965232
 20
725.81878370102345
 11
1698.028084965232
 21
1137.151372435113
  0
LINE
  8
_0-0_0
  6
CONTINUOUS
 62
    7
 10
1734.028084965232
 20
578.92195579827398
 11
1734.028084965232
 21
726.56706722563467
  0
LINE
  8
_0-0_0
  6
CONTINUOUS
 62
    7
 10
1734.028084965232
 20
746.74553151700934
 11
1734.028084965232
 21
1091.8487174645265
  0
TEXT
  8
_0-0_0
 62
    7
 10
1073.9663830025806
 20
800.09870676945604
 40
15
 41
1
 50
90
  1
800±10
  0
TEXT
  8
_0-3_D-STR-TXT
 62
    7
 10
1800.820012650549
 20
24.139070107421702
 40
15
 41
1
 50
0
  1
RP-UK800-25
  0
ENDSEC
  0
EOF
