  0
SECTION
  2
HEADER
  9
$ACADVER
  1
AC1014
  9
$ACADMAINTVER
 70
     9
  9
$DWGCODEPAGE
  3
ANSI_932
  9
$INSBASE
 10
0.0
 20
0.0
 30
0.0
  9
$EXTMIN
 10
1.000000000000000E+20
 20
1.000000000000000E+20
 30
1.000000000000000E+20
  9
$EXTMAX
 10
-1.000000000000000E+20
 20
-1.000000000000000E+20
 30
-1.000000000000000E+20
  9
$LIMMIN
 10
0.0
 20
0.0
  9
$LIMMAX
 10
12.0
 20
9.0
  9
$ORTHOMODE
 70
     0
  9
$REGENMODE
 70
     1
  9
$FILLMODE
 70
     1
  9
$QTEXTMODE
 70
     0
  9
$MIRRTEXT
 70
     1
  9
$DRAGMODE
 70
     2
  9
$LTSCALE
 40
1.0
  9
$OSMODE
 70
    37
  9
$ATTMODE
 70
     1
  9
$TEXTSIZE
 40
0.2
  9
$TRACEWID
 40
0.05
  9
$TEXTSTYLE
  7
STANDARD
  9
$CLAYER
  8
0
  9
$CELTYPE
  6
BYLAYER
  9
$CECOLOR
 62
   256
  9
$CELTSCALE
 40
1.0
  9
$DELOBJ
 70
     1
  9
$DISPSILH
 70
     0
  9
$DIMSCALE
 40
1.0
  9
$DIMASZ
 40
0.18
  9
$DIMEXO
 40
0.0625
  9
$DIMDLI
 40
0.38
  9
$DIMRND
 40
0.0
  9
$DIMDLE
 40
0.0
  9
$DIMEXE
 40
0.18
  9
$DIMTP
 40
0.0
  9
$DIMTM
 40
0.0
  9
$DIMTXT
 40
0.18
  9
$DIMCEN
 40
0.09
  9
$DIMTSZ
 40
0.0
  9
$DIMTOL
 70
     0
  9
$DIMLIM
 70
     0
  9
$DIMTIH
 70
     1
  9
$DIMTOH
 70
     1
  9
$DIMSE1
 70
     0
  9
$DIMSE2
 70
     0
  9
$DIMTAD
 70
     0
  9
$DIMZIN
 70
     0
  9
$DIMBLK
  1

  9
$DIMASO
 70
     1
  9
$DIMSHO
 70
     1
  9
$DIMPOST
  1

  9
$DIMAPOST
  1

  9
$DIMALT
 70
     0
  9
$DIMALTD
 70
     2
  9
$DIMALTF
 40
25.4
  9
$DIMLFAC
 40
1.0
  9
$DIMTOFL
 70
     0
  9
$DIMTVP
 40
0.0
  9
$DIMTIX
 70
     0
  9
$DIMSOXD
 70
     0
  9
$DIMSAH
 70
     0
  9
$DIMBLK1
  1

  9
$DIMBLK2
  1

  9
$DIMSTYLE
  2
STANDARD
  9
$DIMCLRD
 70
     0
  9
$DIMCLRE
 70
     0
  9
$DIMCLRT
 70
     0
  9
$DIMTFAC
 40
1.0
  9
$DIMGAP
 40
0.09
  9
$DIMJUST
 70
     0
  9
$DIMSD1
 70
     0
  9
$DIMSD2
 70
     0
  9
$DIMTOLJ
 70
     1
  9
$DIMTZIN
 70
     0
  9
$DIMALTZ
 70
     0
  9
$DIMALTTZ
 70
     0
  9
$DIMFIT
 70
     3
  9
$DIMUPT
 70
     0
  9
$DIMUNIT
 70
     2
  9
$DIMDEC
 70
     4
  9
$DIMTDEC
 70
     4
  9
$DIMALTU
 70
     2
  9
$DIMALTTD
 70
     2
  9
$DIMTXSTY
  7
STANDARD
  9
$DIMAUNIT
 70
     0
  9
$LUNITS
 70
     2
  9
$LUPREC
 70
     4
  9
$SKETCHINC
 40
0.1
  9
$FILLETRAD
 40
0.5
  9
$AUNITS
 70
     0
  9
$AUPREC
 70
     0
  9
$MENU
  1
.
  9
$ELEVATION
 40
0.0
  9
$PELEVATION
 40
0.0
  9
$THICKNESS
 40
0.0
  9
$LIMCHECK
 70
     0
  9
$CHAMFERA
 40
0.5
  9
$CHAMFERB
 40
0.5
  9
$CHAMFERC
 40
1.0
  9
$CHAMFERD
 40
0.0
  9
$SKPOLY
 70
     0
  9
$TDCREATE
 40
2457768.663619618
  9
$TDUPDATE
 40
2457768.66361963
  9
$TDINDWG
 40
0.0000000116
  9
$TDUSRTIMER
 40
0.0000000116
  9
$USRTIMER
 70
     1
  9
$ANGBASE
 50
0.0
  9
$ANGDIR
 70
     0
  9
$PDMODE
 70
     0
  9
$PDSIZE
 40
0.0
  9
$PLINEWID
 40
0.0
  9
$COORDS
 70
     1
  9
$SPLFRAME
 70
     0
  9
$SPLINETYPE
 70
     6
  9
$SPLINESEGS
 70
     8
  9
$ATTDIA
 70
     0
  9
$ATTREQ
 70
     1
  9
$HANDLING
 70
     1
  9
$HANDSEED
  5
352
  9
$SURFTAB1
 70
     6
  9
$SURFTAB2
 70
     6
  9
$SURFTYPE
 70
     6
  9
$SURFU
 70
     6
  9
$SURFV
 70
     6
  9
$UCSNAME
  2

  9
$UCSORG
 10
0.0
 20
0.0
 30
0.0
  9
$UCSXDIR
 10
1.0
 20
0.0
 30
0.0
  9
$UCSYDIR
 10
0.0
 20
1.0
 30
0.0
  9
$PUCSNAME
  2

  9
$PUCSORG
 10
0.0
 20
0.0
 30
0.0
  9
$PUCSXDIR
 10
1.0
 20
0.0
 30
0.0
  9
$PUCSYDIR
 10
0.0
 20
1.0
 30
0.0
  9
$USERI1
 70
     0
  9
$USERI2
 70
     0
  9
$USERI3
 70
     0
  9
$USERI4
 70
     0
  9
$USERI5
 70
     0
  9
$USERR1
 40
0.0
  9
$USERR2
 40
0.0
  9
$USERR3
 40
0.0
  9
$USERR4
 40
0.0
  9
$USERR5
 40
0.0
  9
$WORLDVIEW
 70
     1
  9
$SHADEDGE
 70
     3
  9
$SHADEDIF
 70
    70
  9
$TILEMODE
 70
     1
  9
$MAXACTVP
 70
    64
  9
$PINSBASE
 10
0.0
 20
0.0
 30
0.0
  9
$PLIMCHECK
 70
     0
  9
$PEXTMIN
 10
1.000000000000000E+20
 20
1.000000000000000E+20
 30
1.000000000000000E+20
  9
$PEXTMAX
 10
-1.000000000000000E+20
 20
-1.000000000000000E+20
 30
-1.000000000000000E+20
  9
$PLIMMIN
 10
0.0
 20
0.0
  9
$PLIMMAX
 10
12.0
 20
9.0
  9
$UNITMODE
 70
     0
  9
$VISRETAIN
 70
     1
  9
$PLINEGEN
 70
     0
  9
$PSLTSCALE
 70
     1
  9
$TREEDEPTH
 70
  3020
  9
$PICKSTYLE
 70
     1
  9
$CMLSTYLE
  2
STANDARD
  9
$CMLJUST
 70
     0
  9
$CMLSCALE
 40
1.0
  9
$PROXYGRAPHICS
 70
     1
  9
$MEASUREMENT
 70
     0
  0
ENDSEC
  0
SECTION
  2
CLASSES
  0
CLASS
  1
ACDBDICTIONARYWDFLT
  2
AcDbDictionaryWithDefault
  3
ObjectDBX Classes
 90
        0
280
     0
281
     0
  0
CLASS
  1
VISUALSTYLE
  2
AcDbVisualStyle
  3
ObjectDBX Classes
 90
     4095
280
     0
281
     0
  0
CLASS
  1
XRECORD
  2
AcDbXrecord
  3
AutoCAD 2000
 90
        0
280
     0
281
     0
  0
CLASS
  1
LWPOLYLINE
  2
AcDbPolyline
  3
AutoCAD 2000
 90
        0
280
     0
281
     1
  0
CLASS
  1
HATCH
  2
AcDbHatch
  3
AutoCAD 2000
 90
        0
280
     0
281
     1
  0
CLASS
  1
ACDBPLACEHOLDER
  2
AcDbPlaceHolder
  3
ObjectDBX Classes
 90
        0
280
     0
281
     0
  0
CLASS
  1
LAYOUT
  2
AcDbLayout
  3
ObjectDBX Classes
 90
        0
280
     0
281
     0
  0
ENDSEC
  0
SECTION
  2
TABLES
  0
TABLE
  2
VPORT
  5
8
330
0
100
AcDbSymbolTable
 70
     1
  0
VPORT
  5
29
330
8
100
AcDbSymbolTableRecord
100
AcDbViewportTableRecord
  2
*ACTIVE
 70
     0
 10
0.0
 20
0.0
 11
1.0
 21
1.0
 12
0.0
 22
0.0
 13
0.0
 23
0.0
 14
0.5
 24
0.5
 15
0.5
 25
0.5
 16
0.0
 26
0.0
 36
1.0
 17
105.0008259828644
 27
-148.4999796178229
 37
0.0
 40
296.9999592356459
 41
0.7070763662937379
 42
50.0
 43
0.0
 44
0.0
 50
0.0
 51
0.0
 71
     0
 72
   100
 73
     1
 74
     3
 75
     0
 76
     0
 77
     0
 78
     0
  0
ENDTAB
  0
TABLE
  2
LTYPE
  5
5
330
0
100
AcDbSymbolTable
 70
    26
  0
LTYPE
  5
14
330
5
100
AcDbSymbolTableRecord
100
AcDbLinetypeTableRecord
  2
BYBLOCK
 70
     0
  3

 72
    65
 73
     0
 40
0.0
  0
LTYPE
  5
15
330
5
100
AcDbSymbolTableRecord
100
AcDbLinetypeTableRecord
  2
BYLAYER
 70
     0
  3

 72
    65
 73
     0
 40
0.0
  0
LTYPE
  5
16
330
5
100
AcDbSymbolTableRecord
100
AcDbLinetypeTableRecord
  2
CONTINUOUS
 70
     0
  3
Solid line
 72
    65
 73
     0
 40
0.0
  0
LTYPE
  5
C9
330
5
100
AcDbSymbolTableRecord
100
AcDbLinetypeTableRecord
  2
AI-LINETYPE-1
 70
     0
  3
Adobe Illustrator Linetype No. 1
 72
    65
 73
     4
 40
3.999935514721655
 49
0.9999838786804138
 74
     0
 49
-0.9999838786804138
 74
     0
 49
0.9999838786804138
 74
     0
 49
-0.9999838786804138
 74
     0
  0
LTYPE
  5
D1
330
5
100
AcDbSymbolTableRecord
100
AcDbLinetypeTableRecord
  2
AI-LINETYPE-2
 70
     0
  3
Adobe Illustrator Linetype No. 2
 72
    65
 73
     4
 40
3.999935514721655
 49
0.9999838786804138
 74
     0
 49
-0.9999838786804138
 74
     0
 49
0.9999838786804138
 74
     0
 49
-0.9999838786804138
 74
     0
  0
LTYPE
  5
DA
330
5
100
AcDbSymbolTableRecord
100
AcDbLinetypeTableRecord
  2
AI-LINETYPE-3
 70
     0
  3
Adobe Illustrator Linetype No. 3
 72
    65
 73
     4
 40
1.960174423297285
 49
1.306794696057307
 74
     0
 49
-0.1633361214156566
 74
     0
 49
0.3267074844086648
 74
     0
 49
-0.1633361214156566
 74
     0
  0
LTYPE
  5
DF
330
5
100
AcDbSymbolTableRecord
100
AcDbLinetypeTableRecord
  2
AI-LINETYPE-4
 70
     0
  3
Adobe Illustrator Linetype No. 4
 72
    65
 73
     4
 40
1.960174423297285
 49
1.306794696057307
 74
     0
 49
-0.1633361214156566
 74
     0
 49
0.3267074844086648
 74
     0
 49
-0.1633361214156566
 74
     0
  0
LTYPE
  5
E4
330
5
100
AcDbSymbolTableRecord
100
AcDbLinetypeTableRecord
  2
AI-LINETYPE-5
 70
     0
  3
Adobe Illustrator Linetype No. 5
 72
    65
 73
     4
 40
1.960174423297285
 49
1.306794696057307
 74
     0
 49
-0.1633361214156566
 74
     0
 49
0.3267074844086648
 74
     0
 49
-0.1633361214156566
 74
     0
  0
LTYPE
  5
138
330
5
100
AcDbSymbolTableRecord
100
AcDbLinetypeTableRecord
  2
AI-LINETYPE-6
 70
     0
  3
Adobe Illustrator Linetype No. 6
 72
    65
 73
     4
 40
3.999935514721655
 49
0.9999838786804138
 74
     0
 49
-0.9999838786804138
 74
     0
 49
0.9999838786804138
 74
     0
 49
-0.9999838786804138
 74
     0
  0
LTYPE
  5
140
330
5
100
AcDbSymbolTableRecord
100
AcDbLinetypeTableRecord
  2
AI-LINETYPE-7
 70
     0
  3
Adobe Illustrator Linetype No. 7
 72
    65
 73
     4
 40
3.999935514721655
 49
0.9999838786804138
 74
     0
 49
-0.9999838786804138
 74
     0
 49
0.9999838786804138
 74
     0
 49
-0.9999838786804138
 74
     0
  0
LTYPE
  5
154
330
5
100
AcDbSymbolTableRecord
100
AcDbLinetypeTableRecord
  2
AI-LINETYPE-8
 70
     0
  3
Adobe Illustrator Linetype No. 8
 72
    65
 73
     4
 40
1.960174423297285
 49
1.306794696057307
 74
     0
 49
-0.1633361214156566
 74
     0
 49
0.3267074844086648
 74
     0
 49
-0.1633361214156566
 74
     0
  0
LTYPE
  5
159
330
5
100
AcDbSymbolTableRecord
100
AcDbLinetypeTableRecord
  2
AI-LINETYPE-9
 70
     0
  3
Adobe Illustrator Linetype No. 9
 72
    65
 73
     4
 40
1.960174423297285
 49
1.306794696057307
 74
     0
 49
-0.1633361214156566
 74
     0
 49
0.3267074844086648
 74
     0
 49
-0.1633361214156566
 74
     0
  0
LTYPE
  5
15E
330
5
100
AcDbSymbolTableRecord
100
AcDbLinetypeTableRecord
  2
AI-LINETYPE-10
 70
     0
  3
Adobe Illustrator Linetype No. 10
 72
    65
 73
     4
 40
1.960174423297285
 49
1.306794696057307
 74
     0
 49
-0.1633361214156566
 74
     0
 49
0.3267074844086648
 74
     0
 49
-0.1633361214156566
 74
     0
  0
LTYPE
  5
18F
330
5
100
AcDbSymbolTableRecord
100
AcDbLinetypeTableRecord
  2
AI-LINETYPE-11
 70
     0
  3
Adobe Illustrator Linetype No. 11
 72
    65
 73
     2
 40
1.411111110758333
 49
0.7055555553791667
 74
     0
 49
-0.7055555553791667
 74
     0
  0
LTYPE
  5
194
330
5
100
AcDbSymbolTableRecord
100
AcDbLinetypeTableRecord
  2
AI-LINETYPE-12
 70
     0
  3
Adobe Illustrator Linetype No. 12
 72
    65
 73
     2
 40
1.411111110758333
 49
0.7055555553791667
 74
     0
 49
-0.7055555553791667
 74
     0
  0
LTYPE
  5
19D
330
5
100
AcDbSymbolTableRecord
100
AcDbLinetypeTableRecord
  2
AI-LINETYPE-13
 70
     0
  3
Adobe Illustrator Linetype No. 13
 72
    65
 73
     2
 40
1.411111110758333
 49
0.7055555553791667
 74
     0
 49
-0.7055555553791667
 74
     0
  0
LTYPE
  5
1A2
330
5
100
AcDbSymbolTableRecord
100
AcDbLinetypeTableRecord
  2
AI-LINETYPE-14
 70
     0
  3
Adobe Illustrator Linetype No. 14
 72
    65
 73
     2
 40
1.411111110758333
 49
0.7055555553791667
 74
     0
 49
-0.7055555553791667
 74
     0
  0
LTYPE
  5
1AB
330
5
100
AcDbSymbolTableRecord
100
AcDbLinetypeTableRecord
  2
AI-LINETYPE-15
 70
     0
  3
Adobe Illustrator Linetype No. 15
 72
    65
 73
     2
 40
1.411111110758333
 49
0.7055555553791667
 74
     0
 49
-0.7055555553791667
 74
     0
  0
LTYPE
  5
1B0
330
5
100
AcDbSymbolTableRecord
100
AcDbLinetypeTableRecord
  2
AI-LINETYPE-16
 70
     0
  3
Adobe Illustrator Linetype No. 16
 72
    65
 73
     2
 40
1.411111110758333
 49
0.7055555553791667
 74
     0
 49
-0.7055555553791667
 74
     0
  0
LTYPE
  5
200
330
5
100
AcDbSymbolTableRecord
100
AcDbLinetypeTableRecord
  2
AI-LINETYPE-17
 70
     0
  3
Adobe Illustrator Linetype No. 17
 72
    65
 73
     2
 40
1.411111110758333
 49
0.7055555553791667
 74
     0
 49
-0.7055555553791667
 74
     0
  0
LTYPE
  5
205
330
5
100
AcDbSymbolTableRecord
100
AcDbLinetypeTableRecord
  2
AI-LINETYPE-18
 70
     0
  3
Adobe Illustrator Linetype No. 18
 72
    65
 73
     2
 40
1.411111110758333
 49
0.7055555553791667
 74
     0
 49
-0.7055555553791667
 74
     0
  0
LTYPE
  5
20E
330
5
100
AcDbSymbolTableRecord
100
AcDbLinetypeTableRecord
  2
AI-LINETYPE-19
 70
     0
  3
Adobe Illustrator Linetype No. 19
 72
    65
 73
     2
 40
1.411111110758333
 49
0.7055555553791667
 74
     0
 49
-0.7055555553791667
 74
     0
  0
LTYPE
  5
213
330
5
100
AcDbSymbolTableRecord
100
AcDbLinetypeTableRecord
  2
AI-LINETYPE-20
 70
     0
  3
Adobe Illustrator Linetype No. 20
 72
    65
 73
     2
 40
1.411111110758333
 49
0.7055555553791667
 74
     0
 49
-0.7055555553791667
 74
     0
  0
LTYPE
  5
21C
330
5
100
AcDbSymbolTableRecord
100
AcDbLinetypeTableRecord
  2
AI-LINETYPE-21
 70
     0
  3
Adobe Illustrator Linetype No. 21
 72
    65
 73
     2
 40
1.411111110758333
 49
0.7055555553791667
 74
     0
 49
-0.7055555553791667
 74
     0
  0
LTYPE
  5
221
330
5
100
AcDbSymbolTableRecord
100
AcDbLinetypeTableRecord
  2
AI-LINETYPE-22
 70
     0
  3
Adobe Illustrator Linetype No. 22
 72
    65
 73
     2
 40
1.411111110758333
 49
0.7055555553791667
 74
     0
 49
-0.7055555553791667
 74
     0
  0
LTYPE
  5
26A
330
5
100
AcDbSymbolTableRecord
100
AcDbLinetypeTableRecord
  2
AI-LINETYPE-23
 70
     0
  3
Adobe Illustrator Linetype No. 23
 72
    65
 73
     2
 40
1.411111110758333
 49
0.7055555553791667
 74
     0
 49
-0.7055555553791667
 74
     0
  0
LTYPE
  5
28C
330
5
100
AcDbSymbolTableRecord
100
AcDbLinetypeTableRecord
  2
AI-LINETYPE-24
 70
     0
  3
Adobe Illustrator Linetype No. 24
 72
    65
 73
     2
 40
1.411111110758333
 49
0.7055555553791667
 74
     0
 49
-0.7055555553791667
 74
     0
  0
LTYPE
  5
29A
330
5
100
AcDbSymbolTableRecord
100
AcDbLinetypeTableRecord
  2
AI-LINETYPE-25
 70
     0
  3
Adobe Illustrator Linetype No. 25
 72
    65
 73
     2
 40
1.411111110758333
 49
0.7055555553791667
 74
     0
 49
-0.7055555553791667
 74
     0
  0
ENDTAB
  0
TABLE
  2
LAYER
  5
2
330
0
100
AcDbSymbolTable
 70
     2
  0
LAYER
  5
10
330
2
100
AcDbSymbolTableRecord
100
AcDbLayerTableRecord
  2
0
 70
     0
 62
     7
  6
CONTINUOUS
  0
LAYER
  5
3B
330
2
100
AcDbSymbolTableRecord
100
AcDbLayerTableRecord
  2
\U+838C\U+8343\U+8384\U+815B_1
 70
     0
 62
     7
  6
CONTINUOUS
  0
ENDTAB
  0
TABLE
  2
STYLE
  5
3
330
0
100
AcDbSymbolTable
 70
     1
  0
STYLE
  5
11
330
3
100
AcDbSymbolTableRecord
100
AcDbTextStyleTableRecord
  2
STANDARD
 70
     0
 40
0.0
 41
1.0
 50
0.0
 71
     0
 42
0.2
  3
txt
  4

  0
ENDTAB
  0
TABLE
  2
VIEW
  5
6
330
0
100
AcDbSymbolTable
 70
     0
  0
ENDTAB
  0
TABLE
  2
UCS
  5
7
330
0
100
AcDbSymbolTable
 70
     0
  0
ENDTAB
  0
TABLE
  2
APPID
  5
9
330
0
100
AcDbSymbolTable
 70
     1
  0
APPID
  5
12
330
9
100
AcDbSymbolTableRecord
100
AcDbRegAppTableRecord
  2
ACAD
 70
     0
  0
ENDTAB
  0
TABLE
  2
DIMSTYLE
  5
A
330
0
100
AcDbSymbolTable
 70
     1
  0
DIMSTYLE
105
27
330
A
100
AcDbSymbolTableRecord
100
AcDbDimStyleTableRecord
  2
STANDARD
 70
     0
  3

  4

  5

  6

  7

 40
1.0
 41
0.18
 42
0.0625
 43
0.38
 44
0.18
 45
0.0
 46
0.0
 47
0.0
 48
0.0
140
0.18
141
0.09
142
0.0
143
25.4
144
1.0
145
0.0
146
1.0
147
0.09
 71
     0
 72
     0
 73
     1
 74
     1
 75
     0
 76
     0
 77
     0
 78
     0
170
     0
171
     2
172
     0
173
     0
174
     0
175
     0
176
     0
177
     0
178
     0
270
     2
271
     4
272
     4
273
     2
274
     2
340
11
275
     0
280
     0
281
     0
282
     0
283
     1
284
     0
285
     0
286
     0
287
     3
288
     0
  0
ENDTAB
  0
TABLE
  2
BLOCK_RECORD
  5
1
330
0
100
AcDbSymbolTable
 70
    23
  0
BLOCK_RECORD
  5
1F
330
1
100
AcDbSymbolTableRecord
100
AcDbBlockTableRecord
  2
*MODEL_SPACE
  0
BLOCK_RECORD
  5
1B
330
1
100
AcDbSymbolTableRecord
100
AcDbBlockTableRecord
  2
*PAPER_SPACE
  0
BLOCK_RECORD
  5
3C
330
1
100
AcDbSymbolTableRecord
100
AcDbBlockTableRecord
  2
BLOCK_2
  0
BLOCK_RECORD
  5
BE
330
1
100
AcDbSymbolTableRecord
100
AcDbBlockTableRecord
  2
BLOCK_3
  0
BLOCK_RECORD
  5
E5
330
1
100
AcDbSymbolTableRecord
100
AcDbBlockTableRecord
  2
BLOCK_4
  0
BLOCK_RECORD
  5
102
330
1
100
AcDbSymbolTableRecord
100
AcDbBlockTableRecord
  2
BLOCK_5
  0
BLOCK_RECORD
  5
14A
330
1
100
AcDbSymbolTableRecord
100
AcDbBlockTableRecord
  2
BLOCK_6
  0
BLOCK_RECORD
  5
162
330
1
100
AcDbSymbolTableRecord
100
AcDbBlockTableRecord
  2
BLOCK_7
  0
BLOCK_RECORD
  5
17B
330
1
100
AcDbSymbolTableRecord
100
AcDbBlockTableRecord
  2
BLOCK_8
  0
BLOCK_RECORD
  5
187
330
1
100
AcDbSymbolTableRecord
100
AcDbBlockTableRecord
  2
BLOCK_9
  0
BLOCK_RECORD
  5
195
330
1
100
AcDbSymbolTableRecord
100
AcDbBlockTableRecord
  2
BLOCK_10
  0
BLOCK_RECORD
  5
1A3
330
1
100
AcDbSymbolTableRecord
100
AcDbBlockTableRecord
  2
BLOCK_11
  0
BLOCK_RECORD
  5
1B5
330
1
100
AcDbSymbolTableRecord
100
AcDbBlockTableRecord
  2
BLOCK_12
  0
BLOCK_RECORD
  5
1BB
330
1
100
AcDbSymbolTableRecord
100
AcDbBlockTableRecord
  2
BLOCK_13
  0
BLOCK_RECORD
  5
1F8
330
1
100
AcDbSymbolTableRecord
100
AcDbBlockTableRecord
  2
BLOCK_14
  0
BLOCK_RECORD
  5
206
330
1
100
AcDbSymbolTableRecord
100
AcDbBlockTableRecord
  2
BLOCK_15
  0
BLOCK_RECORD
  5
214
330
1
100
AcDbSymbolTableRecord
100
AcDbBlockTableRecord
  2
BLOCK_16
  0
BLOCK_RECORD
  5
294
330
1
100
AcDbSymbolTableRecord
100
AcDbBlockTableRecord
  2
BLOCK_17
  0
BLOCK_RECORD
  5
29F
330
1
100
AcDbSymbolTableRecord
100
AcDbBlockTableRecord
  2
BLOCK_18
  0
BLOCK_RECORD
  5
2E8
330
1
100
AcDbSymbolTableRecord
100
AcDbBlockTableRecord
  2
BLOCK_19
  0
BLOCK_RECORD
  5
2F4
330
1
100
AcDbSymbolTableRecord
100
AcDbBlockTableRecord
  2
BLOCK_20
  0
BLOCK_RECORD
  5
301
330
1
100
AcDbSymbolTableRecord
100
AcDbBlockTableRecord
  2
BLOCK_21
  0
BLOCK_RECORD
  5
305
330
1
100
AcDbSymbolTableRecord
100
AcDbBlockTableRecord
  2
BLOCK_22
  0
BLOCK_RECORD
  5
325
330
1
100
AcDbSymbolTableRecord
100
AcDbBlockTableRecord
  2
BLOCK_23
  0
ENDTAB
  0
ENDSEC
  0
SECTION
  2
BLOCKS
  0
BLOCK
  5
20
330
1F
100
AcDbEntity
  8
0
100
AcDbBlockBegin
  2
*MODEL_SPACE
 70
     0
 71
     0
 10
0.0
 20
0.0
 30
0.0
  3
*MODEL_SPACE
  1

  0
ENDBLK
  5
21
330
1F
100
AcDbEntity
  8
0
100
AcDbBlockEnd
  0
BLOCK
  5
1C
330
1B
100
AcDbEntity
 67
     1
  8
0
100
AcDbBlockBegin
  2
*PAPER_SPACE
 70
     0
 71
     0
 10
0.0
 20
0.0
 30
0.0
  3
*PAPER_SPACE
  1

  0
ENDBLK
  5
1D
330
1B
100
AcDbEntity
 67
     1
  8
0
100
AcDbBlockEnd
  0
BLOCK
  5
3E
330
3C
100
AcDbEntity
  8
0
100
AcDbBlockBegin
  2
BLOCK_2
 70
     0
 71
     0
 10
0.0
 20
0.0
 30
0.0
  3
BLOCK_2
  1

  0
POLYLINE
  5
40
330
3C
100
AcDbEntity
  8
\U+838C\U+8343\U+8384\U+815B_1
 62
    29
100
AcDb2dPolyline
 66
     1
 10
0.0
 20
0.0
 30
0.0
  0
VERTEX
  5
41
330
40
100
AcDbEntity
  8
\U+838C\U+8343\U+8384\U+815B_1
 62
    29
100
AcDbVertex
100
AcDb2dVertex
 10
66.40163165657668
 20
-153.5286132428679
 30
0.0
  0
VERTEX
  5
42
330
40
100
AcDbEntity
  8
\U+838C\U+8343\U+8384\U+815B_1
 62
    29
100
AcDbVertex
100
AcDb2dVertex
 10
76.3992987547717
 20
-143.5307738898986
 30
0.0
  0
VERTEX
  5
43
330
40
100
AcDbEntity
  8
\U+838C\U+8343\U+8384\U+815B_1
 62
    29
100
AcDbVertex
100
AcDb2dVertex
 10
76.91571856801066
 20
-140.1201293595012
 30
0.0
  0
VERTEX
  5
44
330
40
100
AcDbEntity
  8
\U+838C\U+8343\U+8384\U+815B_1
 62
    29
100
AcDbVertex
100
AcDb2dVertex
 10
78.31063772998831
 20
-143.6854586771863
 30
0.0
  0
VERTEX
  5
45
330
40
100
AcDbEntity
  8
\U+838C\U+8343\U+8384\U+815B_1
 62
    29
100
AcDbVertex
100
AcDb2dVertex
 10
79.602548536957
 20
-140.3268350886162
 30
0.0
  0
VERTEX
  5
46
330
40
100
AcDbEntity
  8
\U+838C\U+8343\U+8384\U+815B_1
 62
    29
100
AcDbVertex
100
AcDb2dVertex
 10
87.45598820513254
 20
-132.4737399299892
 30
0.0
  0
SEQEND
  5
47
330
40
100
AcDbEntity
  8
\U+838C\U+8343\U+8384\U+815B_1
  0
POLYLINE
  5
48
330
3C
100
AcDbEntity
  8
\U+838C\U+8343\U+8384\U+815B_1
 62
    29
100
AcDb2dPolyline
 66
     1
 10
0.0
 20
0.0
 30
0.0
  0
VERTEX
  5
49
330
48
100
AcDbEntity
  8
\U+838C\U+8343\U+8384\U+815B_1
 62
    29
100
AcDbVertex
100
AcDb2dVertex
 10
66.45330808885542
 20
-155.7500108117569
 30
0.0
  0
VERTEX
  5
4A
330
48
100
AcDbEntity
  8
\U+838C\U+8343\U+8384\U+815B_1
 62
    29
100
AcDbVertex
100
AcDb2dVertex
 10
76.4764688936413
 20
-145.7263332426483
 30
0.0
  0
VERTEX
  5
4B
330
48
100
AcDbEntity
  8
\U+838C\U+8343\U+8384\U+815B_1
 62
    29
100
AcDbVertex
100
AcDb2dVertex
 10
77.22577716168314
 20
-143.1170179221201
 30
0.0
  0
VERTEX
  5
4C
330
48
100
AcDbEntity
  8
\U+838C\U+8343\U+8384\U+815B_1
 62
    29
100
AcDbVertex
100
AcDb2dVertex
 10
78.56901989138206
 20
-145.8038478910664
 30
0.0
  0
VERTEX
  5
4D
330
48
100
AcDbEntity
  8
\U+838C\U+8343\U+8384\U+815B_1
 62
    29
100
AcDbVertex
100
AcDb2dVertex
 10
79.52503388853889
 20
-142.6777682477507
 30
0.0
  0
VERTEX
  5
4E
330
48
100
AcDbEntity
  8
\U+838C\U+8343\U+8384\U+815B_1
 62
    29
100
AcDbVertex
100
AcDb2dVertex
 10
87.50766463741128
 20
-134.6954820084268
 30
0.0
  0
SEQEND
  5
4F
330
48
100
AcDbEntity
  8
\U+838C\U+8343\U+8384\U+815B_1
  0
ENDBLK
  5
3F
330
3C
100
AcDbEntity
  8
0
100
AcDbBlockEnd
  0
BLOCK
  5
C0
330
BE
100
AcDbEntity
  8
0
100
AcDbBlockBegin
  2
BLOCK_3
 70
     0
 71
     0
 10
0.0
 20
0.0
 30
0.0
  3
BLOCK_3
  1

  0
POLYLINE
  5
C2
330
BE
100
AcDbEntity
  8
\U+838C\U+8343\U+8384\U+815B_1
  6
AI-LINETYPE-1
 62
    29
100
AcDb2dPolyline
 66
     1
 10
0.0
 20
0.0
 30
0.0
  0
VERTEX
  5
C3
330
C2
100
AcDbEntity
  8
\U+838C\U+8343\U+8384\U+815B_1
  6
AI-LINETYPE-1
 62
    29
100
AcDbVertex
100
AcDb2dVertex
 10
85.12899845962053
 20
-179.1549560098988
 30
0.0
  0
VERTEX
  5
C4
330
C2
100
AcDbEntity
  8
\U+838C\U+8343\U+8384\U+815B_1
  6
AI-LINETYPE-1
 62
    29
100
AcDbVertex
100
AcDb2dVertex
 10
68.78029783436743
 20
-179.1549560098988
 30
0.0
  0
VERTEX
  5
C5
330
C2
100
AcDbEntity
  8
\U+838C\U+8343\U+8384\U+815B_1
  6
AI-LINETYPE-1
 62
    29
100
AcDbVertex
100
AcDb2dVertex
 10
68.78029783436743
 20
-168.7628254786426
 30
0.0
  0
VERTEX
  5
C6
330
C2
100
AcDbEntity
  8
\U+838C\U+8343\U+8384\U+815B_1
  6
AI-LINETYPE-1
 62
    29
100
AcDbVertex
100
AcDb2dVertex
 10
85.12899845962053
 20
-168.7628254786426
 30
0.0
  0
VERTEX
  5
C7
330
C2
100
AcDbEntity
  8
\U+838C\U+8343\U+8384\U+815B_1
  6
AI-LINETYPE-1
 62
    29
100
AcDbVertex
100
AcDb2dVertex
 10
85.12899845962053
 20
-179.1549560098988
 30
0.0
  0
SEQEND
  5
C8
330
C2
100
AcDbEntity
  8
\U+838C\U+8343\U+8384\U+815B_1
  6
AI-LINETYPE-1
  0
POLYLINE
  5
CA
330
BE
100
AcDbEntity
  8
\U+838C\U+8343\U+8384\U+815B_1
  6
AI-LINETYPE-2
 62
    29
100
AcDb2dPolyline
 66
     1
 10
0.0
 20
0.0
 30
0.0
  0
VERTEX
  5
CB
330
CA
100
AcDbEntity
  8
\U+838C\U+8343\U+8384\U+815B_1
  6
AI-LINETYPE-2
 62
    29
100
AcDbVertex
100
AcDb2dVertex
 10
84.38761391119476
 20
-179.1928520602365
 30
0.0
  0
VERTEX
  5
CC
330
CA
100
AcDbEntity
  8
\U+838C\U+8343\U+8384\U+815B_1
  6
AI-LINETYPE-2
 62
    29
100
AcDbVertex
100
AcDb2dVertex
 10
69.52202689234171
 20
-179.1928520602365
 30
0.0
  0
VERTEX
  5
CD
330
CA
100
AcDbEntity
  8
\U+838C\U+8343\U+8384\U+815B_1
  6
AI-LINETYPE-2
 62
    29
100
AcDbVertex
100
AcDb2dVertex
 10
69.52202689234171
 20
-168.7628254786426
 30
0.0
  0
VERTEX
  5
CE
330
CA
100
AcDbEntity
  8
\U+838C\U+8343\U+8384\U+815B_1
  6
AI-LINETYPE-2
 62
    29
100
AcDbVertex
100
AcDb2dVertex
 10
84.38761391119476
 20
-168.7628254786426
 30
0.0
  0
VERTEX
  5
CF
330
CA
100
AcDbEntity
  8
\U+838C\U+8343\U+8384\U+815B_1
  6
AI-LINETYPE-2
 62
    29
100
AcDbVertex
100
AcDb2dVertex
 10
84.38761391119476
 20
-179.1928520602365
 30
0.0
  0
SEQEND
  5
D0
330
CA
100
AcDbEntity
  8
\U+838C\U+8343\U+8384\U+815B_1
  6
AI-LINETYPE-2
  0
SPLINE
  5
D2
330
BE
100
AcDbEntity
  8
\U+838C\U+8343\U+8384\U+815B_1
 62
    29
100
AcDbSpline
210
0.0
220
0.0
230
1.0
 70
    11
 71
     3
 72
    17
 73
    13
 74
     0
 42
0.0000000001
 43
0.0000000001
 40
0.0
 40
0.0
 40
0.0
 40
0.0
 40
1.0
 40
1.0
 40
1.0
 40
2.0
 40
2.0
 40
2.0
 40
3.0
 40
3.0
 40
3.0
 40
4.0
 40
4.0
 40
4.0
 40
4.0
 10
82.27094724505727
 20
-171.2598306863517
 30
0.0
 10
82.27094724505727
 20
-170.470559310681
 30
0.0
 10
81.63119301344638
 20
-169.8311495886186
 30
0.0
 10
80.84192163777564
 20
-169.8311495886186
 30
0.0
 10
80.05230575255638
 20
-169.8311495886186
 30
0.0
 10
79.412896030494
 20
-170.470559310681
 30
0.0
 10
79.412896030494
 20
-171.2598306863517
 30
0.0
 10
79.412896030494
 20
-172.049446571571
 30
0.0
 10
80.05230575255638
 20
-172.6888562936333
 30
0.0
 10
80.84192163777564
 20
-172.6888562936333
 30
0.0
 10
81.63119301344638
 20
-172.6888562936333
 30
0.0
 10
82.27094724505727
 20
-172.049446571571
 30
0.0
 10
82.27094724505727
 20
-171.2598306863517
 30
0.0
  0
SPLINE
  5
D3
330
BE
100
AcDbEntity
  8
\U+838C\U+8343\U+8384\U+815B_1
 62
    29
100
AcDbSpline
210
0.0
220
0.0
230
1.0
 70
    11
 71
     3
 72
    17
 73
    13
 74
     0
 42
0.0000000001
 43
0.0000000001
 40
0.0
 40
0.0
 40
0.0
 40
0.0
 40
1.0
 40
1.0
 40
1.0
 40
2.0
 40
2.0
 40
2.0
 40
3.0
 40
3.0
 40
3.0
 40
4.0
 40
4.0
 40
4.0
 40
4.0
 10
74.5136257409202
 20
-171.2598306863517
 30
0.0
 10
74.5136257409202
 20
-170.470559310681
 30
0.0
 10
73.87387150930931
 20
-169.8311495886186
 30
0.0
 10
73.08460013363857
 20
-169.8311495886186
 30
0.0
 10
72.29532875796784
 20
-169.8311495886186
 30
0.0
 10
71.65557452635694
 20
-170.470559310681
 30
0.0
 10
71.65557452635694
 20
-171.2598306863517
 30
0.0
 10
71.65557452635694
 20
-172.049446571571
 30
0.0
 10
72.29532875796784
 20
-172.6888562936333
 30
0.0
 10
73.08460013363857
 20
-172.6888562936333
 30
0.0
 10
73.87387150930931
 20
-172.6888562936333
 30
0.0
 10
74.5136257409202
 20
-172.049446571571
 30
0.0
 10
74.5136257409202
 20
-171.2598306863517
 30
0.0
  0
SPLINE
  5
D4
330
BE
100
AcDbEntity
  8
\U+838C\U+8343\U+8384\U+815B_1
 62
    29
100
AcDbSpline
210
0.0
220
0.0
230
1.0
 70
    11
 71
     3
 72
    17
 73
    13
 74
     0
 42
0.0000000001
 43
0.0000000001
 40
0.0
 40
0.0
 40
0.0
 40
0.0
 40
1.0
 40
1.0
 40
1.0
 40
2.0
 40
2.0
 40
2.0
 40
3.0
 40
3.0
 40
3.0
 40
4.0
 40
4.0
 40
4.0
 40
4.0
 10
71.86159123637488
 20
-171.2598306863517
 30
0.0
 10
71.86159123637488
 20
-171.9343803823636
 30
0.0
 10
72.41039494717518
 20
-172.4828395836154
 30
0.0
 10
73.08460013363857
 20
-172.4828395836154
 30
0.0
 10
73.7591498296505
 20
-172.4828395836154
 30
0.0
 10
74.30760903090227
 20
-171.9343803823636
 30
0.0
 10
74.30760903090227
 20
-171.2598306863517
 30
0.0
 10
74.30760903090227
 20
-170.5859700094368
 30
0.0
 10
73.7591498296505
 20
-170.0375108081851
 30
0.0
 10
73.08460013363857
 20
-170.0375108081851
 30
0.0
 10
72.41039494717518
 20
-170.0375108081851
 30
0.0
 10
71.86159123637488
 20
-170.5859700094368
 30
0.0
 10
71.86159123637488
 20
-171.2598306863517
 30
0.0
  0
SPLINE
  5
D5
330
BE
100
AcDbEntity
  8
\U+838C\U+8343\U+8384\U+815B_1
 62
    29
100
AcDbSpline
210
0.0
220
0.0
230
1.0
 70
    11
 71
     3
 72
    17
 73
    13
 74
     0
 42
0.0000000001
 43
0.0000000001
 40
0.0
 40
0.0
 40
0.0
 40
0.0
 40
1.0
 40
1.0
 40
1.0
 40
2.0
 40
2.0
 40
2.0
 40
3.0
 40
3.0
 40
3.0
 40
4.0
 40
4.0
 40
4.0
 40
4.0
 10
79.61891274051195
 20
-171.2598306863517
 30
0.0
 10
79.61891274051195
 20
-171.9343803823636
 30
0.0
 10
80.16771645131224
 20
-172.4828395836154
 30
0.0
 10
80.84192163777564
 20
-172.4828395836154
 30
0.0
 10
81.51647133378755
 20
-172.4828395836154
 30
0.0
 10
82.0645860254908
 20
-171.9343803823636
 30
0.0
 10
82.0645860254908
 20
-171.2598306863517
 30
0.0
 10
82.0645860254908
 20
-170.5859700094368
 30
0.0
 10
81.51647133378755
 20
-170.0375108081851
 30
0.0
 10
80.84192163777564
 20
-170.0375108081851
 30
0.0
 10
80.16771645131224
 20
-170.0375108081851
 30
0.0
 10
79.61891274051195
 20
-170.5859700094368
 30
0.0
 10
79.61891274051195
 20
-171.2598306863517
 30
0.0
  0
POLYLINE
  5
D6
330
BE
100
AcDbEntity
  8
\U+838C\U+8343\U+8384\U+815B_1
  6
AI-LINETYPE-3
 62
    29
100
AcDb2dPolyline
 66
     1
 10
0.0
 20
0.0
 30
0.0
  0
VERTEX
  5
D7
330
D6
100
AcDbEntity
  8
\U+838C\U+8343\U+8384\U+815B_1
  6
AI-LINETYPE-3
 62
    29
100
AcDbVertex
100
AcDb2dVertex
 10
80.84192163777564
 20
-174.3225205727388
 30
0.0
  0
VERTEX
  5
D8
330
D6
100
AcDbEntity
  8
\U+838C\U+8343\U+8384\U+815B_1
  6
AI-LINETYPE-3
 62
    29
100
AcDbVertex
100
AcDb2dVertex
 10
80.84192163777564
 20
-169.2186116113412
 30
0.0
  0
SEQEND
  5
D9
330
D6
100
AcDbEntity
  8
\U+838C\U+8343\U+8384\U+815B_1
  6
AI-LINETYPE-3
  0
POLYLINE
  5
DB
330
BE
100
AcDbEntity
  8
\U+838C\U+8343\U+8384\U+815B_1
  6
AI-LINETYPE-4
 62
    29
100
AcDb2dPolyline
 66
     1
 10
0.0
 20
0.0
 30
0.0
  0
VERTEX
  5
DC
330
DB
100
AcDbEntity
  8
\U+838C\U+8343\U+8384\U+815B_1
  6
AI-LINETYPE-4
 62
    29
100
AcDbVertex
100
AcDb2dVertex
 10
73.08460013363857
 20
-174.3225205727388
 30
0.0
  0
VERTEX
  5
DD
330
DB
100
AcDbEntity
  8
\U+838C\U+8343\U+8384\U+815B_1
  6
AI-LINETYPE-4
 62
    29
100
AcDbVertex
100
AcDb2dVertex
 10
73.08460013363857
 20
-169.2186116113412
 30
0.0
  0
SEQEND
  5
DE
330
DB
100
AcDbEntity
  8
\U+838C\U+8343\U+8384\U+815B_1
  6
AI-LINETYPE-4
  0
POLYLINE
  5
E0
330
BE
100
AcDbEntity
  8
\U+838C\U+8343\U+8384\U+815B_1
  6
AI-LINETYPE-5
 62
    29
100
AcDb2dPolyline
 66
     1
 10
0.0
 20
0.0
 30
0.0
  0
VERTEX
  5
E1
330
E0
100
AcDbEntity
  8
\U+838C\U+8343\U+8384\U+815B_1
  6
AI-LINETYPE-5
 62
    29
100
AcDbVertex
100
AcDb2dVertex
 10
84.82272947098183
 20
-171.2598306863517
 30
0.0
  0
VERTEX
  5
E2
330
E0
100
AcDbEntity
  8
\U+838C\U+8343\U+8384\U+815B_1
  6
AI-LINETYPE-5
 62
    29
100
AcDbVertex
100
AcDb2dVertex
 10
69.10379230043239
 20
-171.2598306863517
 30
0.0
  0
SEQEND
  5
E3
330
E0
100
AcDbEntity
  8
\U+838C\U+8343\U+8384\U+815B_1
  6
AI-LINETYPE-5
  0
ENDBLK
  5
C1
330
BE
100
AcDbEntity
  8
0
100
AcDbBlockEnd
  0
BLOCK
  5
E7
330
E5
100
AcDbEntity
  8
0
100
AcDbBlockBegin
  2
BLOCK_4
 70
     0
 71
     0
 10
0.0
 20
0.0
 30
0.0
  3
BLOCK_4
  1

  0
SPLINE
  5
E9
330
E5
100
AcDbEntity
  8
\U+838C\U+8343\U+8384\U+815B_1
 62
   178
100
AcDbSpline
210
0.0
220
0.0
230
1.0
 70
    11
 71
     3
 72
    17
 73
    13
 74
     0
 42
0.0000000001
 43
0.0000000001
 40
0.0
 40
0.0
 40
0.0
 40
0.0
 40
1.0
 40
1.0
 40
1.0
 40
2.0
 40
2.0
 40
2.0
 40
3.0
 40
3.0
 40
3.0
 40
4.0
 40
4.0
 40
4.0
 40
4.0
 10
64.57642006849132
 20
-173.000981944597
 30
0.0
 10
65.48282469066055
 20
-173.6548610676974
 30
0.0
 10
64.89509140087692
 20
-175.4194389752424
 30
0.0
 10
63.2634941790626
 20
-176.9425156892713
 30
0.0
 10
61.63189695724828
 20
-178.4652478937518
 30
0.0
 10
59.57448593345708
 20
-179.1701144300339
 30
0.0
 10
58.66808131128784
 20
-178.5155462878364
 30
0.0
 10
57.76133217957009
 20
-177.862356183833
 30
0.0
 10
58.34906546935371
 20
-176.0974337667395
 30
0.0
 10
59.98066269116803
 20
-174.5750460718076
 30
0.0
 10
61.61191540343383
 20
-173.0516248482301
 30
0.0
 10
63.66967093677356
 20
-172.346758311948
 30
0.0
 10
64.57642006849132
 20
-173.000981944597
 30
0.0
  0
SPLINE
  5
EA
330
E5
100
AcDbEntity
  8
\U+838C\U+8343\U+8384\U+815B_1
 62
   178
100
AcDbSpline
210
0.0
220
0.0
230
1.0
 70
    11
 71
     3
 72
    17
 73
    13
 74
     0
 42
0.0000000001
 43
0.0000000001
 40
0.0
 40
0.0
 40
0.0
 40
0.0
 40
1.0
 40
1.0
 40
1.0
 40
2.0
 40
2.0
 40
2.0
 40
3.0
 40
3.0
 40
3.0
 40
4.0
 40
4.0
 40
4.0
 40
4.0
 10
89.33253171594812
 20
-173.000981944597
 30
0.0
 10
88.42612709377889
 20
-173.6548610676974
 30
0.0
 10
89.01420489311104
 20
-175.4194389752424
 30
0.0
 10
90.64580211492536
 20
-176.9425156892713
 30
0.0
 10
92.27705482719115
 20
-178.4652478937518
 30
0.0
 10
94.33446585098235
 20
-179.1701144300339
 30
0.0
 10
95.24121498270011
 20
-178.5155462878364
 30
0.0
 10
96.14796411441787
 20
-177.862356183833
 30
0.0
 10
95.55988631508573
 20
-176.0974337667395
 30
0.0
 10
93.9282890932714
 20
-174.5750460718076
 30
0.0
 10
92.29703638100561
 20
-173.0516248482301
 30
0.0
 10
90.23928084766588
 20
-172.346758311948
 30
0.0
 10
89.33253171594812
 20
-173.000981944597
 30
0.0
  0
ENDBLK
  5
E8
330
E5
100
AcDbEntity
  8
0
100
AcDbBlockEnd
  0
BLOCK
  5
104
330
102
100
AcDbEntity
  8
0
100
AcDbBlockBegin
  2
BLOCK_5
 70
     0
 71
     0
 10
0.0
 20
0.0
 30
0.0
  3
BLOCK_5
  1

  0
POLYLINE
  5
106
330
102
100
AcDbEntity
  8
\U+838C\U+8343\U+8384\U+815B_1
 62
    18
100
AcDb2dPolyline
 66
     1
 10
0.0
 20
0.0
 30
0.0
  0
VERTEX
  5
107
330
106
100
AcDbEntity
  8
\U+838C\U+8343\U+8384\U+815B_1
 62
    18
100
AcDbVertex
100
AcDb2dVertex
 10
172.7860079863174
 20
-179.4016248466426
 30
0.0
  0
VERTEX
  5
108
330
106
100
AcDbEntity
  8
\U+838C\U+8343\U+8384\U+815B_1
 62
    18
100
AcDbVertex
100
AcDb2dVertex
 10
122.7863036802409
 20
-179.4016248466426
 30
0.0
  0
SEQEND
  5
109
330
106
100
AcDbEntity
  8
\U+838C\U+8343\U+8384\U+815B_1
  0
POLYLINE
  5
10A
330
102
100
AcDbEntity
  8
\U+838C\U+8343\U+8384\U+815B_1
 62
    18
100
AcDb2dPolyline
 66
     1
 10
0.0
 20
0.0
 30
0.0
  0
VERTEX
  5
10B
330
10A
100
AcDbEntity
  8
\U+838C\U+8343\U+8384\U+815B_1
 62
    18
100
AcDbVertex
100
AcDb2dVertex
 10
172.297493446509
 20
-179.7630153630454
 30
0.0
  0
VERTEX
  5
10C
330
10A
100
AcDbEntity
  8
\U+838C\U+8343\U+8384\U+815B_1
 62
    18
100
AcDbVertex
100
AcDb2dVertex
 10
123.2751627295979
 20
-179.7630153630454
 30
0.0
  0
SEQEND
  5
10D
330
10A
100
AcDbEntity
  8
\U+838C\U+8343\U+8384\U+815B_1
  0
ENDBLK
  5
105
330
102
100
AcDbEntity
  8
0
100
AcDbBlockEnd
  0
BLOCK
  5
14C
330
14A
100
AcDbEntity
  8
0
100
AcDbBlockBegin
  2
BLOCK_6
 70
     0
 71
     0
 10
0.0
 20
0.0
 30
0.0
  3
BLOCK_6
  1

  0
SPLINE
  5
14E
330
14A
100
AcDbEntity
  8
\U+838C\U+8343\U+8384\U+815B_1
 62
    29
100
AcDbSpline
210
0.0
220
0.0
230
1.0
 70
    11
 71
     3
 72
    17
 73
    13
 74
     0
 42
0.0000000001
 43
0.0000000001
 40
0.0
 40
0.0
 40
0.0
 40
0.0
 40
1.0
 40
1.0
 40
1.0
 40
2.0
 40
2.0
 40
2.0
 40
3.0
 40
3.0
 40
3.0
 40
4.0
 40
4.0
 40
4.0
 40
4.0
 10
143.3077039572286
 20
-171.2598306863517
 30
0.0
 10
143.3077039572286
 20
-171.5909043624842
 30
0.0
 10
143.5771104241752
 20
-171.8599663198822
 30
0.0
 10
143.9078395907592
 20
-171.8599663198822
 30
0.0
 10
144.2385687573431
 20
-171.8599663198822
 30
0.0
 10
144.5072862051926
 20
-171.5909043624842
 30
0.0
 10
144.5072862051926
 20
-171.2598306863517
 30
0.0
 10
144.5072862051926
 20
-170.9297905388648
 30
0.0
 10
144.2385687573431
 20
-170.6603840719183
 30
0.0
 10
143.9078395907592
 20
-170.6603840719183
 30
0.0
 10
143.5771104241752
 20
-170.6603840719183
 30
0.0
 10
143.3077039572286
 20
-170.9297905388648
 30
0.0
 10
143.3077039572286
 20
-171.2598306863517
 30
0.0
  0
SPLINE
  5
14F
330
14A
100
AcDbEntity
  8
\U+838C\U+8343\U+8384\U+815B_1
 62
    29
100
AcDbSpline
210
0.0
220
0.0
230
1.0
 70
    11
 71
     3
 72
    17
 73
    13
 74
     0
 42
0.0000000001
 43
0.0000000001
 40
0.0
 40
0.0
 40
0.0
 40
0.0
 40
1.0
 40
1.0
 40
1.0
 40
2.0
 40
2.0
 40
2.0
 40
3.0
 40
3.0
 40
3.0
 40
4.0
 40
4.0
 40
4.0
 40
4.0
 10
151.0646809518172
 20
-171.2598306863517
 30
0.0
 10
151.0646809518172
 20
-171.5912488720328
 30
0.0
 10
151.3340874187637
 20
-171.8599663198822
 30
0.0
 10
151.6648165853477
 20
-171.8599663198822
 30
0.0
 10
151.9955457519317
 20
-171.8599663198822
 30
0.0
 10
152.2649522188782
 20
-171.5912488720328
 30
0.0
 10
152.2649522188782
 20
-171.2598306863517
 30
0.0
 10
152.2649522188782
 20
-170.9294460293163
 30
0.0
 10
151.9955457519317
 20
-170.6603840719183
 30
0.0
 10
151.6648165853477
 20
-170.6603840719183
 30
0.0
 10
151.3340874187637
 20
-170.6603840719183
 30
0.0
 10
151.0646809518172
 20
-170.9294460293163
 30
0.0
 10
151.0646809518172
 20
-171.2598306863517
 30
0.0
  0
POLYLINE
  5
150
330
14A
100
AcDbEntity
  8
\U+838C\U+8343\U+8384\U+815B_1
  6
AI-LINETYPE-8
 62
    29
100
AcDb2dPolyline
 66
     1
 10
0.0
 20
0.0
 30
0.0
  0
VERTEX
  5
151
330
150
100
AcDbEntity
  8
\U+838C\U+8343\U+8384\U+815B_1
  6
AI-LINETYPE-8
 62
    29
100
AcDbVertex
100
AcDb2dVertex
 10
151.6648165853477
 20
-174.3225205727388
 30
0.0
  0
VERTEX
  5
152
330
150
100
AcDbEntity
  8
\U+838C\U+8343\U+8384\U+815B_1
  6
AI-LINETYPE-8
 62
    29
100
AcDbVertex
100
AcDb2dVertex
 10
151.6648165853477
 20
-169.2186116113412
 30
0.0
  0
SEQEND
  5
153
330
150
100
AcDbEntity
  8
\U+838C\U+8343\U+8384\U+815B_1
  6
AI-LINETYPE-8
  0
POLYLINE
  5
155
330
14A
100
AcDbEntity
  8
\U+838C\U+8343\U+8384\U+815B_1
  6
AI-LINETYPE-9
 62
    29
100
AcDb2dPolyline
 66
     1
 10
0.0
 20
0.0
 30
0.0
  0
VERTEX
  5
156
330
155
100
AcDbEntity
  8
\U+838C\U+8343\U+8384\U+815B_1
  6
AI-LINETYPE-9
 62
    29
100
AcDbVertex
100
AcDb2dVertex
 10
143.9078395907592
 20
-174.3225205727388
 30
0.0
  0
VERTEX
  5
157
330
155
100
AcDbEntity
  8
\U+838C\U+8343\U+8384\U+815B_1
  6
AI-LINETYPE-9
 62
    29
100
AcDbVertex
100
AcDb2dVertex
 10
143.9078395907592
 20
-169.2186116113412
 30
0.0
  0
SEQEND
  5
158
330
155
100
AcDbEntity
  8
\U+838C\U+8343\U+8384\U+815B_1
  6
AI-LINETYPE-9
  0
POLYLINE
  5
15A
330
14A
100
AcDbEntity
  8
\U+838C\U+8343\U+8384\U+815B_1
  6
AI-LINETYPE-10
 62
    29
100
AcDb2dPolyline
 66
     1
 10
0.0
 20
0.0
 30
0.0
  0
VERTEX
  5
15B
330
15A
100
AcDbEntity
  8
\U+838C\U+8343\U+8384\U+815B_1
  6
AI-LINETYPE-10
 62
    29
100
AcDbVertex
100
AcDb2dVertex
 10
155.6459689281024
 20
-171.2598306863517
 30
0.0
  0
VERTEX
  5
15C
330
15A
100
AcDbEntity
  8
\U+838C\U+8343\U+8384\U+815B_1
  6
AI-LINETYPE-10
 62
    29
100
AcDbVertex
100
AcDb2dVertex
 10
139.9266872480044
 20
-171.2598306863517
 30
0.0
  0
SEQEND
  5
15D
330
15A
100
AcDbEntity
  8
\U+838C\U+8343\U+8384\U+815B_1
  6
AI-LINETYPE-10
  0
SPLINE
  5
15F
330
14A
100
AcDbEntity
  8
\U+838C\U+8343\U+8384\U+815B_1
 62
    29
100
AcDbSpline
210
0.0
220
0.0
230
1.0
 70
    11
 71
     3
 72
    20
 73
    16
 74
     0
 42
0.0000000001
 43
0.0000000001
 40
0.0
 40
0.0
 40
0.0
 40
0.0
 40
1.0
 40
1.0
 40
1.0
 40
2.0
 40
2.0
 40
2.0
 40
3.0
 40
3.0
 40
3.0
 40
4.0
 40
4.0
 40
4.0
 40
5.0
 40
5.0
 40
5.0
 40
5.0
 10
142.9073838618426
 20
-169.3305772146118
 30
0.0
 10
142.9073838618426
 20
-169.3305772146118
 30
0.0
 10
142.9073838618426
 20
-171.2598306863517
 30
0.0
 10
142.9073838618426
 20
-171.2598306863517
 30
0.0
 10
142.9073838618426
 20
-171.8124240021858
 30
0.0
 10
143.3552462749251
 20
-172.2599419057198
 30
0.0
 10
143.9078395907592
 20
-172.2599419057198
 30
0.0
 10
144.4597438874962
 20
-172.2599419057198
 30
0.0
 10
144.9076063005787
 20
-171.8124240021858
 30
0.0
 10
144.9076063005787
 20
-171.2598306863517
 30
0.0
 10
144.9076063005787
 20
-171.2598306863517
 30
0.0
 10
144.9076063005787
 20
-168.7693711600646
 30
0.0
 10
144.9076063005787
 20
-168.7693711600646
 30
0.0
 10
144.9076063005787
 20
-168.7693711600646
 30
0.0
 10
142.9073838618426
 20
-169.3305772146118
 30
0.0
 10
142.9073838618426
 20
-169.3305772146118
 30
0.0
  0
SPLINE
  5
160
330
14A
100
AcDbEntity
  8
\U+838C\U+8343\U+8384\U+815B_1
 62
    29
100
AcDbSpline
210
0.0
220
0.0
230
1.0
 70
    11
 71
     3
 72
    20
 73
    16
 74
     0
 42
0.0000000001
 43
0.0000000001
 40
0.0
 40
0.0
 40
0.0
 40
0.0
 40
1.0
 40
1.0
 40
1.0
 40
2.0
 40
2.0
 40
2.0
 40
3.0
 40
3.0
 40
3.0
 40
4.0
 40
4.0
 40
4.0
 40
5.0
 40
5.0
 40
5.0
 40
5.0
 10
152.6652723142643
 20
-169.3305772146118
 30
0.0
 10
152.6652723142643
 20
-169.3305772146118
 30
0.0
 10
152.6652723142643
 20
-171.2598306863517
 30
0.0
 10
152.6652723142643
 20
-171.2598306863517
 30
0.0
 10
152.6652723142643
 20
-171.8124240021858
 30
0.0
 10
152.2174099011818
 20
-172.2599419057198
 30
0.0
 10
151.6648165853477
 20
-172.2599419057198
 30
0.0
 10
151.1122232695136
 20
-172.2599419057198
 30
0.0
 10
150.6643608564311
 20
-171.8124240021858
 30
0.0
 10
150.6643608564311
 20
-171.2598306863517
 30
0.0
 10
150.6643608564311
 20
-171.2598306863517
 30
0.0
 10
150.6643608564311
 20
-168.7693711600646
 30
0.0
 10
150.6643608564311
 20
-168.7693711600646
 30
0.0
 10
150.6643608564311
 20
-168.7693711600646
 30
0.0
 10
152.6652723142643
 20
-169.3305772146118
 30
0.0
 10
152.6652723142643
 20
-169.3305772146118
 30
0.0
  0
ENDBLK
  5
14D
330
14A
100
AcDbEntity
  8
0
100
AcDbBlockEnd
  0
BLOCK
  5
164
330
162
100
AcDbEntity
  8
0
100
AcDbBlockBegin
  2
BLOCK_7
 70
     0
 71
     0
 10
0.0
 20
0.0
 30
0.0
  3
BLOCK_7
  1

  0
SPLINE
  5
166
330
162
100
AcDbEntity
  8
\U+838C\U+8343\U+8384\U+815B_1
 62
    29
100
AcDbSpline
210
0.0
220
0.0
230
1.0
 70
    11
 71
     3
 72
    17
 73
    13
 74
     0
 42
0.0000000001
 43
0.0000000001
 40
0.0
 40
0.0
 40
0.0
 40
0.0
 40
1.0
 40
1.0
 40
1.0
 40
2.0
 40
2.0
 40
2.0
 40
3.0
 40
3.0
 40
3.0
 40
4.0
 40
4.0
 40
4.0
 40
4.0
 10
85.5586018666312
 20
-223.6938394623057
 30
0.0
 10
85.5586018666312
 20
-228.3881265705072
 30
0.0
 10
81.75332164839848
 20
-232.1935790435141
 30
0.0
 10
77.05869003064852
 20
-232.1935790435141
 30
0.0
 10
72.3644029224471
 20
-232.1935790435141
 30
0.0
 10
68.5586059398916
 20
-228.3881265705072
 30
0.0
 10
68.5586059398916
 20
-223.6938394623057
 30
0.0
 10
68.5586059398916
 20
-218.9988633350072
 30
0.0
 10
72.3644029224471
 20
-215.1934108620003
 30
0.0
 10
77.05869003064852
 20
-215.1934108620003
 30
0.0
 10
81.75332164839848
 20
-215.1934108620003
 30
0.0
 10
85.5586018666312
 20
-218.9988633350072
 30
0.0
 10
85.5586018666312
 20
-223.6938394623057
 30
0.0
  0
POLYLINE
  5
167
330
162
100
AcDbEntity
  8
\U+838C\U+8343\U+8384\U+815B_1
 62
    29
100
AcDb2dPolyline
 66
     1
 10
0.0
 20
0.0
 30
0.0
  0
VERTEX
  5
168
330
167
100
AcDbEntity
  8
\U+838C\U+8343\U+8384\U+815B_1
 62
    29
100
AcDbVertex
100
AcDb2dVertex
 10
71.70191106063355
 20
-223.6938394623057
 30
0.0
  0
VERTEX
  5
169
330
167
100
AcDbEntity
  8
\U+838C\U+8343\U+8384\U+815B_1
 62
    29
100
AcDbVertex
100
AcDb2dVertex
 10
82.41581351021202
 20
-223.6938394623057
 30
0.0
  0
SEQEND
  5
16A
330
167
100
AcDbEntity
  8
\U+838C\U+8343\U+8384\U+815B_1
  0
POLYLINE
  5
16B
330
162
100
AcDbEntity
  8
\U+838C\U+8343\U+8384\U+815B_1
 62
    29
100
AcDb2dPolyline
 66
     1
 10
0.0
 20
0.0
 30
0.0
  0
VERTEX
  5
16C
330
16B
100
AcDbEntity
  8
\U+838C\U+8343\U+8384\U+815B_1
 62
    29
100
AcDbVertex
100
AcDb2dVertex
 10
77.05886228542279
 20
-218.416642198
 30
0.0
  0
VERTEX
  5
16D
330
16B
100
AcDbEntity
  8
\U+838C\U+8343\U+8384\U+815B_1
 62
    29
100
AcDbVertex
100
AcDb2dVertex
 10
77.05886228542279
 20
-228.9710367266114
 30
0.0
  0
SEQEND
  5
16E
330
16B
100
AcDbEntity
  8
\U+838C\U+8343\U+8384\U+815B_1
  0
SPLINE
  5
16F
330
162
100
AcDbEntity
  8
\U+838C\U+8343\U+8384\U+815B_1
 62
    29
100
AcDbSpline
210
0.0
220
0.0
230
1.0
 70
    11
 71
     3
 72
    17
 73
    13
 74
     0
 42
0.0000000001
 43
0.0000000001
 40
0.0
 40
0.0
 40
0.0
 40
0.0
 40
1.0
 40
1.0
 40
1.0
 40
2.0
 40
2.0
 40
2.0
 40
3.0
 40
3.0
 40
3.0
 40
4.0
 40
4.0
 40
4.0
 40
4.0
 10
63.14394936572443
 20
-233.6425862046102
 30
0.0
 10
63.14394936572443
 20
-235.5752847718354
 30
0.0
 10
61.57643091993575
 20
-237.142803217624
 30
0.0
 10
59.64390460748486
 20
-237.142803217624
 30
0.0
 10
57.71068927593691
 20
-237.142803217624
 30
0.0
 10
56.14385984924529
 20
-235.5752847718354
 30
0.0
 10
56.14385984924529
 20
-233.6425862046102
 30
0.0
 10
56.14385984924529
 20
-231.7085095991909
 30
0.0
 10
57.71068927593691
 20
-230.1430582106934
 30
0.0
 10
59.64390460748486
 20
-230.1430582106934
 30
0.0
 10
61.57643091993575
 20
-230.1430582106934
 30
0.0
 10
63.14394936572443
 20
-231.7085095991909
 30
0.0
 10
63.14394936572443
 20
-233.6425862046102
 30
0.0
  0
SPLINE
  5
170
330
162
100
AcDbEntity
  8
\U+838C\U+8343\U+8384\U+815B_1
 62
    29
100
AcDbSpline
210
0.0
220
0.0
230
1.0
 70
    11
 71
     3
 72
    17
 73
    13
 74
     0
 42
0.0000000001
 43
0.0000000001
 40
0.0
 40
0.0
 40
0.0
 40
0.0
 40
1.0
 40
1.0
 40
1.0
 40
2.0
 40
2.0
 40
2.0
 40
3.0
 40
3.0
 40
3.0
 40
4.0
 40
4.0
 40
4.0
 40
4.0
 10
60.8441758745459
 20
-233.6425862046102
 30
0.0
 10
60.8441758745459
 20
-234.3047335568752
 30
0.0
 10
60.30691323362119
 20
-234.8421684525742
 30
0.0
 10
59.64407686225912
 20
-234.8421684525742
 30
0.0
 10
58.98124049089705
 20
-234.8421684525742
 30
0.0
 10
58.44432235952087
 20
-234.3047335568752
 30
0.0
 10
58.44432235952087
 20
-233.6425862046102
 30
0.0
 10
58.44432235952087
 20
-232.9797498332481
 30
0.0
 10
58.98124049089705
 20
-232.4423149375492
 30
0.0
 10
59.64407686225912
 20
-232.4423149375492
 30
0.0
 10
60.30691323362119
 20
-232.4423149375492
 30
0.0
 10
60.8441758745459
 20
-232.9797498332481
 30
0.0
 10
60.8441758745459
 20
-233.6425862046102
 30
0.0
  0
SPLINE
  5
171
330
162
100
AcDbEntity
  8
\U+838C\U+8343\U+8384\U+815B_1
 62
    29
100
AcDbSpline
210
0.0
220
0.0
230
1.0
 70
    11
 71
     3
 72
    17
 73
    13
 74
     0
 42
0.0000000001
 43
0.0000000001
 40
0.0
 40
0.0
 40
0.0
 40
0.0
 40
1.0
 40
1.0
 40
1.0
 40
2.0
 40
2.0
 40
2.0
 40
3.0
 40
3.0
 40
3.0
 40
4.0
 40
4.0
 40
4.0
 40
4.0
 10
97.76491968041988
 20
-233.639830128222
 30
0.0
 10
97.76491968041988
 20
-235.5725286954471
 30
0.0
 10
96.19740123463122
 20
-237.1400471412358
 30
0.0
 10
94.26487492218031
 20
-237.1400471412358
 30
0.0
 10
92.3320041001809
 20
-237.1400471412358
 30
0.0
 10
90.76483016394074
 20
-235.5725286954471
 30
0.0
 10
90.76483016394074
 20
-233.639830128222
 30
0.0
 10
90.76483016394074
 20
-231.7064425418998
 30
0.0
 10
92.3320041001809
 20
-230.1403021343052
 30
0.0
 10
94.26487492218031
 20
-230.1403021343052
 30
0.0
 10
96.19740123463122
 20
-230.1403021343052
 30
0.0
 10
97.76491968041988
 20
-231.7064425418998
 30
0.0
 10
97.76491968041988
 20
-233.639830128222
 30
0.0
  0
SPLINE
  5
172
330
162
100
AcDbEntity
  8
\U+838C\U+8343\U+8384\U+815B_1
 62
    29
100
AcDbSpline
210
0.0
220
0.0
230
1.0
 70
    11
 71
     3
 72
    17
 73
    13
 74
     0
 42
0.0000000001
 43
0.0000000001
 40
0.0
 40
0.0
 40
0.0
 40
0.0
 40
1.0
 40
1.0
 40
1.0
 40
2.0
 40
2.0
 40
2.0
 40
3.0
 40
3.0
 40
3.0
 40
4.0
 40
4.0
 40
4.0
 40
4.0
 10
95.46531844401562
 20
-233.639830128222
 30
0.0
 10
95.46531844401562
 20
-234.3026664995841
 30
0.0
 10
94.92788354831664
 20
-234.840101395283
 30
0.0
 10
94.26504717695458
 20
-234.840101395283
 30
0.0
 10
93.6022108055925
 20
-234.840101395283
 30
0.0
 10
93.06546492899058
 20
-234.3026664995841
 30
0.0
 10
93.06546492899058
 20
-233.639830128222
 30
0.0
 10
93.06546492899058
 20
-232.9769937568599
 30
0.0
 10
93.6022108055925
 20
-232.440247880258
 30
0.0
 10
94.26504717695458
 20
-232.440247880258
 30
0.0
 10
94.92788354831664
 20
-232.440247880258
 30
0.0
 10
95.46531844401562
 20
-232.9769937568599
 30
0.0
 10
95.46531844401562
 20
-233.639830128222
 30
0.0
  0
SPLINE
  5
173
330
162
100
AcDbEntity
  8
\U+838C\U+8343\U+8384\U+815B_1
 62
    29
100
AcDbSpline
210
0.0
220
0.0
230
1.0
 70
    11
 71
     3
 72
    17
 73
    13
 74
     0
 42
0.0000000001
 43
0.0000000001
 40
0.0
 40
0.0
 40
0.0
 40
0.0
 40
1.0
 40
1.0
 40
1.0
 40
2.0
 40
2.0
 40
2.0
 40
3.0
 40
3.0
 40
3.0
 40
4.0
 40
4.0
 40
4.0
 40
4.0
 10
80.45555417910487
 20
-203.6557860818986
 30
0.0
 10
80.45555417910487
 20
-205.5877956300267
 30
0.0
 10
78.88769122376766
 20
-207.1560030949124
 30
0.0
 10
76.95568167563955
 20
-207.1560030949124
 30
0.0
 10
75.02229408931734
 20
-207.1560030949124
 30
0.0
 10
73.45563691739999
 20
-205.5877956300267
 30
0.0
 10
73.45563691739999
 20
-203.6557860818986
 30
0.0
 10
73.45563691739999
 20
-201.7217094764793
 30
0.0
 10
75.02229408931734
 20
-200.1555690688847
 30
0.0
 10
76.95568167563955
 20
-200.1555690688847
 30
0.0
 10
78.88769122376766
 20
-200.1555690688847
 30
0.0
 10
80.45555417910487
 20
-201.7217094764793
 30
0.0
 10
80.45555417910487
 20
-203.6557860818986
 30
0.0
  0
SPLINE
  5
174
330
162
100
AcDbEntity
  8
\U+838C\U+8343\U+8384\U+815B_1
 62
    29
100
AcDbSpline
210
0.0
220
0.0
230
1.0
 70
    11
 71
     3
 72
    17
 73
    13
 74
     0
 42
0.0000000001
 43
0.0000000001
 40
0.0
 40
0.0
 40
0.0
 40
0.0
 40
1.0
 40
1.0
 40
1.0
 40
2.0
 40
2.0
 40
2.0
 40
3.0
 40
3.0
 40
3.0
 40
4.0
 40
4.0
 40
4.0
 40
4.0
 10
78.15509166882929
 20
-203.6557860818986
 30
0.0
 10
78.15509166882929
 20
-204.3179334341636
 30
0.0
 10
77.6176567731303
 20
-204.8553683298626
 30
0.0
 10
76.9555094208653
 20
-204.8553683298626
 30
0.0
 10
76.29250079472897
 20
-204.8553683298626
 30
0.0
 10
75.75506589902999
 20
-204.3179334341636
 30
0.0
 10
75.75506589902999
 20
-203.6557860818986
 30
0.0
 10
75.75506589902999
 20
-202.9929497105365
 30
0.0
 10
76.29250079472897
 20
-202.4555148148375
 30
0.0
 10
76.9555094208653
 20
-202.4555148148375
 30
0.0
 10
77.6176567731303
 20
-202.4555148148375
 30
0.0
 10
78.15509166882929
 20
-202.9929497105365
 30
0.0
 10
78.15509166882929
 20
-203.6557860818986
 30
0.0
  0
SPLINE
  5
175
330
162
100
AcDbEntity
  8
\U+838C\U+8343\U+8384\U+815B_1
 62
    29
100
AcDbSpline
210
0.0
220
0.0
230
1.0
 70
    11
 71
     3
 72
    17
 73
    13
 74
     0
 42
0.0000000001
 43
0.0000000001
 40
0.0
 40
0.0
 40
0.0
 40
0.0
 40
1.0
 40
1.0
 40
1.0
 40
2.0
 40
2.0
 40
2.0
 40
3.0
 40
3.0
 40
3.0
 40
4.0
 40
4.0
 40
4.0
 40
4.0
 10
87.9548380313967
 20
-223.6607665456473
 30
0.0
 10
87.9548380313967
 20
-229.7358479243369
 30
0.0
 10
83.02972952568355
 20
-234.66095643005
 30
0.0
 10
76.95482040176825
 20
-234.66095643005
 30
0.0
 10
70.87922225875589
 20
-234.66095643005
 30
0.0
 10
65.95480277213977
 20
-229.7358479243369
 30
0.0
 10
65.95480277213977
 20
-223.6607665456473
 30
0.0
 10
65.95480277213977
 20
-217.5863741860548
 30
0.0
 10
70.87922225875589
 20
-212.6612656803416
 30
0.0
 10
76.95482040176825
 20
-212.6612656803416
 30
0.0
 10
83.02972952568355
 20
-212.6612656803416
 30
0.0
 10
87.9548380313967
 20
-217.5863741860548
 30
0.0
 10
87.9548380313967
 20
-223.6607665456473
 30
0.0
  0
SPLINE
  5
176
330
162
100
AcDbEntity
  8
\U+838C\U+8343\U+8384\U+815B_1
 62
    29
100
AcDbSpline
210
0.0
220
0.0
230
1.0
 70
    11
 71
     3
 72
    17
 73
    13
 74
     0
 42
0.0000000001
 43
0.0000000001
 40
0.0
 40
0.0
 40
0.0
 40
0.0
 40
1.0
 40
1.0
 40
1.0
 40
2.0
 40
2.0
 40
2.0
 40
3.0
 40
3.0
 40
3.0
 40
4.0
 40
4.0
 40
4.0
 40
4.0
 10
84.43257240727728
 20
-223.6938394623057
 30
0.0
 10
84.43257240727728
 20
-227.765942325871
 30
0.0
 10
81.13079289421384
 20
-231.0670328198374
 30
0.0
 10
77.05869003064852
 20
-231.0670328198374
 30
0.0
 10
72.98607040276043
 20
-231.0670328198374
 30
0.0
 10
69.6851521635683
 20
-227.765942325871
 30
0.0
 10
69.6851521635683
 20
-223.6938394623057
 30
0.0
 10
69.6851521635683
 20
-219.6217365987404
 30
0.0
 10
72.98607040276043
 20
-216.319957085677
 30
0.0
 10
77.05869003064852
 20
-216.319957085677
 30
0.0
 10
81.13079289421384
 20
-216.319957085677
 30
0.0
 10
84.43257240727728
 20
-219.6217365987404
 30
0.0
 10
84.43257240727728
 20
-223.6938394623057
 30
0.0
  0
SPLINE
  5
177
330
162
100
AcDbEntity
  8
\U+838C\U+8343\U+8384\U+815B_1
 62
    29
100
AcDbSpline
210
0.0
220
0.0
230
1.0
 70
    11
 71
     3
 72
    17
 73
    13
 74
     0
 42
0.0000000001
 43
0.0000000001
 40
0.0
 40
0.0
 40
0.0
 40
0.0
 40
1.0
 40
1.0
 40
1.0
 40
2.0
 40
2.0
 40
2.0
 40
3.0
 40
3.0
 40
3.0
 40
4.0
 40
4.0
 40
4.0
 40
4.0
 10
83.0588405825339
 20
-223.6938394623057
 30
0.0
 10
83.0588405825339
 20
-227.007332300019
 30
0.0
 10
80.3726996326846
 20
-229.6938177594168
 30
0.0
 10
77.05869003064852
 20
-229.6938177594168
 30
0.0
 10
73.74519719293524
 20
-229.6938177594168
 30
0.0
 10
71.05888398831168
 20
-227.007332300019
 30
0.0
 10
71.05888398831168
 20
-223.6938394623057
 30
0.0
 10
71.05888398831168
 20
-220.3796576054954
 30
0.0
 10
73.74519719293524
 20
-217.6931721460975
 30
0.0
 10
77.05869003064852
 20
-217.6931721460975
 30
0.0
 10
80.3726996326846
 20
-217.6931721460975
 30
0.0
 10
83.0588405825339
 20
-220.3796576054954
 30
0.0
 10
83.0588405825339
 20
-223.6938394623057
 30
0.0
  0
SPLINE
  5
178
330
162
100
AcDbEntity
  8
\U+838C\U+8343\U+8384\U+815B_1
 62
    29
100
AcDbSpline
210
0.0
220
0.0
230
1.0
 70
    11
 71
     3
 72
    17
 73
    13
 74
     0
 42
0.0000000001
 43
0.0000000001
 40
0.0
 40
0.0
 40
0.0
 40
0.0
 40
1.0
 40
1.0
 40
1.0
 40
2.0
 40
2.0
 40
2.0
 40
3.0
 40
3.0
 40
3.0
 40
4.0
 40
4.0
 40
4.0
 40
4.0
 10
101.9545003000322
 20
-223.6607665456473
 30
0.0
 10
101.9545003000322
 20
-237.4673312123346
 30
0.0
 10
90.76155732322975
 20
-248.6604464439113
 30
0.0
 10
76.95378687312267
 20
-248.6604464439113
 30
0.0
 10
63.14739446120968
 20
-248.6604464439113
 30
0.0
 10
51.95462373918149
 20
-237.4673312123346
 30
0.0
 10
51.95462373918149
 20
-223.6607665456473
 30
0.0
 10
51.95462373918149
 20
-209.8542018789601
 30
0.0
 10
63.14739446120968
 20
-198.6603976282863
 30
0.0
 10
76.95378687312267
 20
-198.6603976282863
 30
0.0
 10
90.76155732322975
 20
-198.6603976282863
 30
0.0
 10
101.9545003000322
 20
-209.8542018789601
 30
0.0
 10
101.9545003000322
 20
-223.6607665456473
 30
0.0
  0
SPLINE
  5
179
330
162
100
AcDbEntity
  8
\U+838C\U+8343\U+8384\U+815B_1
 62
    29
100
AcDbSpline
210
0.0
220
0.0
230
1.0
 70
    11
 71
     3
 72
    53
 73
    49
 74
     0
 42
0.0000000001
 43
0.0000000001
 40
0.0
 40
0.0
 40
0.0
 40
0.0
 40
1.0
 40
1.0
 40
1.0
 40
2.0
 40
2.0
 40
2.0
 40
3.0
 40
3.0
 40
3.0
 40
4.0
 40
4.0
 40
4.0
 40
5.0
 40
5.0
 40
5.0
 40
6.0
 40
6.0
 40
6.0
 40
7.0
 40
7.0
 40
7.0
 40
8.0
 40
8.0
 40
8.0
 40
9.0
 40
9.0
 40
9.0
 40
10.0
 40
10.0
 40
10.0
 40
11.0
 40
11.0
 40
11.0
 40
12.0
 40
12.0
 40
12.0
 40
13.0
 40
13.0
 40
13.0
 40
14.0
 40
14.0
 40
14.0
 40
15.0
 40
15.0
 40
15.0
 40
16.0
 40
16.0
 40
16.0
 40
16.0
 10
81.85891382502139
 20
-223.6965955386939
 30
0.0
 10
81.85891382502139
 20
-223.1956786551386
 30
0.0
 10
81.72644990361353
 20
-222.6933837333892
 30
0.0
 10
81.72644990361353
 20
-222.6933837333892
 30
0.0
 10
81.72644990361353
 20
-222.6933837333892
 30
0.0
 10
79.55879582429434
 20
-222.6933837333892
 30
0.0
 10
79.55879582429434
 20
-222.6933837333892
 30
0.0
 10
79.55879582429434
 20
-222.6933837333892
 30
0.0
 10
79.55879582429434
 20
-219.5989989685378
 30
0.0
 10
79.55879582429434
 20
-219.5989989685378
 30
0.0
 10
79.55879582429434
 20
-219.5989989685378
 30
0.0
 10
78.30633136063176
 20
-218.8934434131586
 30
0.0
 10
77.05524493516327
 20
-218.8934434131586
 30
0.0
 10
75.80639782176021
 20
-218.8934434131586
 30
0.0
 10
74.55892874655125
 20
-219.5989989685378
 30
0.0
 10
74.55892874655125
 20
-219.5989989685378
 30
0.0
 10
74.55892874655125
 20
-219.5989989685378
 30
0.0
 10
74.55892874655125
 20
-222.6933837333892
 30
0.0
 10
74.55892874655125
 20
-222.6933837333892
 30
0.0
 10
74.55892874655125
 20
-222.6933837333892
 30
0.0
 10
72.47602401616919
 20
-222.6933837333892
 30
0.0
 10
72.47602401616919
 20
-222.6933837333892
 30
0.0
 10
72.47602401616919
 20
-222.6933837333892
 30
0.0
 10
72.25881074582419
 20
-223.1908555214592
 30
0.0
 10
72.25881074582419
 20
-223.6890163286264
 30
0.0
 10
72.25881074582419
 20
-224.1906222312788
 30
0.0
 10
72.43950600402555
 20
-224.6936061721252
 30
0.0
 10
72.43950600402555
 20
-224.6936061721252
 30
0.0
 10
72.43950600402555
 20
-224.6936061721252
 30
0.0
 10
74.55892874655125
 20
-224.6936061721252
 30
0.0
 10
74.55892874655125
 20
-224.6936061721252
 30
0.0
 10
74.55892874655125
 20
-224.6936061721252
 30
0.0
 10
74.55892874655125
 20
-227.7879909369766
 30
0.0
 10
74.55892874655125
 20
-227.7879909369766
 30
0.0
 10
74.55892874655125
 20
-227.7879909369766
 30
0.0
 10
75.80433076446906
 20
-228.4935464923558
 30
0.0
 10
77.05197209445228
 20
-228.4935464923558
 30
0.0
 10
78.3042643033406
 20
-228.4935464923558
 30
0.0
 10
79.55879582429434
 20
-227.7879909369766
 30
0.0
 10
79.55879582429434
 20
-227.7879909369766
 30
0.0
 10
79.55879582429434
 20
-227.7879909369766
 30
0.0
 10
79.55879582429434
 20
-224.6936061721252
 30
0.0
 10
79.55879582429434
 20
-224.6936061721252
 30
0.0
 10
79.55879582429434
 20
-224.6936061721252
 30
0.0
 10
81.70440129250792
 20
-224.6936061721252
 30
0.0
 10
81.70440129250792
 20
-224.6936061721252
 30
0.0
 10
81.70440129250792
 20
-224.6936061721252
 30
0.0
 10
81.85891382502139
 20
-224.1954453649581
 30
0.0
 10
81.85891382502139
 20
-223.6965955386939
 30
0.0
  0
SPLINE
  5
17A
330
162
100
AcDbEntity
  8
\U+838C\U+8343\U+8384\U+815B_1
 62
    29
100
AcDbSpline
210
0.0
220
0.0
230
1.0
 70
    11
 71
     3
 72
    53
 73
    49
 74
     0
 42
0.0000000001
 43
0.0000000001
 40
0.0
 40
0.0
 40
0.0
 40
0.0
 40
1.0
 40
1.0
 40
1.0
 40
2.0
 40
2.0
 40
2.0
 40
3.0
 40
3.0
 40
3.0
 40
4.0
 40
4.0
 40
4.0
 40
5.0
 40
5.0
 40
5.0
 40
6.0
 40
6.0
 40
6.0
 40
7.0
 40
7.0
 40
7.0
 40
8.0
 40
8.0
 40
8.0
 40
9.0
 40
9.0
 40
9.0
 40
10.0
 40
10.0
 40
10.0
 40
11.0
 40
11.0
 40
11.0
 40
12.0
 40
12.0
 40
12.0
 40
13.0
 40
13.0
 40
13.0
 40
14.0
 40
14.0
 40
14.0
 40
15.0
 40
15.0
 40
15.0
 40
16.0
 40
16.0
 40
16.0
 40
16.0
 10
81.3068372735101
 20
-223.6938394623057
 30
0.0
 10
81.3068372735101
 20
-223.5422552609547
 30
0.0
 10
81.25068221710053
 20
-223.3934271359919
 30
0.0
 10
81.25068221710053
 20
-223.3934271359919
 30
0.0
 10
81.25068221710053
 20
-223.3934271359919
 30
0.0
 10
78.95056421637348
 20
-223.3934271359919
 30
0.0
 10
78.95056421637348
 20
-223.3934271359919
 30
0.0
 10
78.95056421637348
 20
-223.3934271359919
 30
0.0
 10
78.95056421637348
 20
-219.9407524406745
 30
0.0
 10
78.95056421637348
 20
-219.9407524406745
 30
0.0
 10
78.95056421637348
 20
-219.9407524406745
 30
0.0
 10
77.99989011721878
 20
-219.4935790466891
 30
0.0
 10
77.04956052761261
 20
-219.4935790466891
 30
0.0
 10
76.0999199571035
 20
-219.4935790466891
 30
0.0
 10
75.1506238961429
 20
-219.9407524406745
 30
0.0
 10
75.1506238961429
 20
-219.9407524406745
 30
0.0
 10
75.1506238961429
 20
-219.9407524406745
 30
0.0
 10
75.1506238961429
 20
-223.3934271359919
 30
0.0
 10
75.1506238961429
 20
-223.3934271359919
 30
0.0
 10
75.1506238961429
 20
-223.3934271359919
 30
0.0
 10
72.8506781501901
 20
-223.3934271359919
 30
0.0
 10
72.8506781501901
 20
-223.3934271359919
 30
0.0
 10
72.8506781501901
 20
-223.3934271359919
 30
0.0
 10
72.81071504256121
 20
-223.5422552609547
 30
0.0
 10
72.81071504256121
 20
-223.6938394623057
 30
0.0
 10
72.81071504256121
 20
-223.8419785681715
 30
0.0
 10
72.8506781501901
 20
-223.9935627695224
 30
0.0
 10
72.8506781501901
 20
-223.9935627695224
 30
0.0
 10
72.8506781501901
 20
-223.9935627695224
 30
0.0
 10
75.1506238961429
 20
-223.9935627695224
 30
0.0
 10
75.1506238961429
 20
-223.9935627695224
 30
0.0
 10
75.1506238961429
 20
-223.9935627695224
 30
0.0
 10
75.1506238961429
 20
-227.393182994367
 30
0.0
 10
75.1506238961429
 20
-227.393182994367
 30
0.0
 10
75.1506238961429
 20
-227.393182994367
 30
0.0
 10
76.09630260684398
 20
-227.8934108588253
 30
0.0
 10
77.04404837483621
 20
-227.8934108588253
 30
0.0
 10
77.99627276695927
 20
-227.8934108588253
 30
0.0
 10
78.95056421637348
 20
-227.420743758249
 30
0.0
 10
78.95056421637348
 20
-227.420743758249
 30
0.0
 10
78.95056421637348
 20
-227.420743758249
 30
0.0
 10
78.95056421637348
 20
-223.9935627695224
 30
0.0
 10
78.95056421637348
 20
-223.9935627695224
 30
0.0
 10
78.95056421637348
 20
-223.9935627695224
 30
0.0
 10
81.25068221710053
 20
-223.9935627695224
 30
0.0
 10
81.25068221710053
 20
-223.9935627695224
 30
0.0
 10
81.25068221710053
 20
-223.9935627695224
 30
0.0
 10
81.3068372735101
 20
-223.8419785681715
 30
0.0
 10
81.3068372735101
 20
-223.6938394623057
 30
0.0
  0
INSERT
  5
17C
330
162
100
AcDbEntity
  8
\U+838C\U+8343\U+8384\U+815B_1
100
AcDbBlockReference
  2
BLOCK_8
 10
0.0
 20
0.0
 30
0.0
  0
INSERT
  5
188
330
162
100
AcDbEntity
  8
\U+838C\U+8343\U+8384\U+815B_1
100
AcDbBlockReference
  2
BLOCK_9
 10
0.0
 20
0.0
 30
0.0
  0
INSERT
  5
196
330
162
100
AcDbEntity
  8
\U+838C\U+8343\U+8384\U+815B_1
100
AcDbBlockReference
  2
BLOCK_10
 10
0.0
 20
0.0
 30
0.0
  0
INSERT
  5
1A4
330
162
100
AcDbEntity
  8
\U+838C\U+8343\U+8384\U+815B_1
100
AcDbBlockReference
  2
BLOCK_11
 10
0.0
 20
0.0
 30
0.0
  0
SPLINE
  5
1B1
330
162
100
AcDbEntity
  8
\U+838C\U+8343\U+8384\U+815B_1
 62
    29
100
AcDbSpline
210
0.0
220
0.0
230
1.0
 70
    11
 71
     3
 72
    17
 73
    13
 74
     0
 42
0.0000000001
 43
0.0000000001
 40
0.0
 40
0.0
 40
0.0
 40
0.0
 40
1.0
 40
1.0
 40
1.0
 40
2.0
 40
2.0
 40
2.0
 40
3.0
 40
3.0
 40
3.0
 40
4.0
 40
4.0
 40
4.0
 40
4.0
 10
93.31144474663742
 20
-223.2494221447085
 30
0.0
 10
93.31144474663742
 20
-223.9673800438346
 30
0.0
 10
92.7292236096302
 20
-224.5496011808418
 30
0.0
 10
92.01126571050413
 20
-224.5496011808418
 30
0.0
 10
91.29348006615233
 20
-224.5496011808418
 30
0.0
 10
90.71143118391937
 20
-223.9673800438346
 30
0.0
 10
90.71143118391937
 20
-223.2494221447085
 30
0.0
 10
90.71143118391937
 20
-222.5314642455824
 30
0.0
 10
91.29348006615233
 20
-221.9492431085752
 30
0.0
 10
92.01126571050413
 20
-221.9492431085752
 30
0.0
 10
92.7292236096302
 20
-221.9492431085752
 30
0.0
 10
93.31144474663742
 20
-222.5314642455824
 30
0.0
 10
93.31144474663742
 20
-223.2494221447085
 30
0.0
  0
SPLINE
  5
1B2
330
162
100
AcDbEntity
  8
\U+838C\U+8343\U+8384\U+815B_1
 62
    29
100
AcDbSpline
210
0.0
220
0.0
230
1.0
 70
    11
 71
     3
 72
    17
 73
    13
 74
     0
 42
0.0000000001
 43
0.0000000001
 40
0.0
 40
0.0
 40
0.0
 40
0.0
 40
1.0
 40
1.0
 40
1.0
 40
2.0
 40
2.0
 40
2.0
 40
3.0
 40
3.0
 40
3.0
 40
4.0
 40
4.0
 40
4.0
 40
4.0
 10
63.40612113215195
 20
-222.4790987942066
 30
0.0
 10
63.40612113215195
 20
-223.1970566933327
 30
0.0
 10
62.82389999514472
 20
-223.7792778303399
 30
0.0
 10
62.10594209601866
 20
-223.7792778303399
 30
0.0
 10
61.38815645166685
 20
-223.7792778303399
 30
0.0
 10
60.80610756943389
 20
-223.1970566933327
 30
0.0
 10
60.80610756943389
 20
-222.4790987942066
 30
0.0
 10
60.80610756943389
 20
-221.7611408950806
 30
0.0
 10
61.38815645166685
 20
-221.1789197580733
 30
0.0
 10
62.10594209601866
 20
-221.1789197580733
 30
0.0
 10
62.82389999514472
 20
-221.1789197580733
 30
0.0
 10
63.40612113215195
 20
-221.7611408950806
 30
0.0
 10
63.40612113215195
 20
-222.4790987942066
 30
0.0
  0
SPLINE
  5
1B3
330
162
100
AcDbEntity
  8
\U+838C\U+8343\U+8384\U+815B_1
 62
   178
100
AcDbSpline
210
0.0
220
0.0
230
1.0
 70
    11
 71
     3
 72
    17
 73
    13
 74
     0
 42
0.0000000001
 43
0.0000000001
 40
0.0
 40
0.0
 40
0.0
 40
0.0
 40
1.0
 40
1.0
 40
1.0
 40
2.0
 40
2.0
 40
2.0
 40
3.0
 40
3.0
 40
3.0
 40
4.0
 40
4.0
 40
4.0
 40
4.0
 10
80.3098266400788
 20
-238.7785345540207
 30
0.0
 10
79.75843910766456
 20
-238.839168234561
 30
0.0
 10
79.38757457867742
 20
-237.9944308215778
 30
0.0
 10
79.48162568542473
 20
-236.8899332090067
 30
0.0
 10
79.57550453739779
 20
-235.7868136346297
 30
0.0
 10
80.09847003205871
 20
-234.8421684525742
 30
0.0
 10
80.65020207402148
 20
-234.7815347720338
 30
0.0
 10
81.20124509688719
 20
-234.7202120723964
 30
0.0
 10
81.57245413542286
 20
-235.5656385044767
 30
0.0
 10
81.47823077390127
 20
-236.6694470979507
 30
0.0
 10
81.38469643147674
 20
-237.7732556914248
 30
0.0
 10
80.86155868204156
 20
-238.7172118543832
 30
0.0
 10
80.3098266400788
 20
-238.7785345540207
 30
0.0
  0
SPLINE
  5
1B4
330
162
100
AcDbEntity
  8
\U+838C\U+8343\U+8384\U+815B_1
 62
   178
100
AcDbSpline
210
0.0
220
0.0
230
1.0
 70
    11
 71
     3
 72
    17
 73
    13
 74
     0
 42
0.0000000001
 43
0.0000000001
 40
0.0
 40
0.0
 40
0.0
 40
0.0
 40
1.0
 40
1.0
 40
1.0
 40
2.0
 40
2.0
 40
2.0
 40
3.0
 40
3.0
 40
3.0
 40
4.0
 40
4.0
 40
4.0
 40
4.0
 10
73.86508651582193
 20
-238.7785345540207
 30
0.0
 10
74.41664630301042
 20
-238.839168234561
 30
0.0
 10
74.78751083199757
 20
-237.9944308215778
 30
0.0
 10
74.693287470476
 20
-236.8899332090067
 30
0.0
 10
74.59940861850293
 20
-235.7868136346297
 30
0.0
 10
74.07661537861627
 20
-234.8421684525742
 30
0.0
 10
73.5248833366535
 20
-234.7815347720338
 30
0.0
 10
72.97366805901353
 20
-234.7202120723964
 30
0.0
 10
72.60263127525212
 20
-235.5656385044767
 30
0.0
 10
72.69685463677371
 20
-236.6694470979507
 30
0.0
 10
72.79038897919824
 20
-237.7732556914248
 30
0.0
 10
73.31352672863343
 20
-238.7172118543832
 30
0.0
 10
73.86508651582193
 20
-238.7785345540207
 30
0.0
  0
INSERT
  5
1B6
330
162
100
AcDbEntity
  8
\U+838C\U+8343\U+8384\U+815B_1
100
AcDbBlockReference
  2
BLOCK_12
 10
0.0
 20
0.0
 30
0.0
  0
ENDBLK
  5
165
330
162
100
AcDbEntity
  8
0
100
AcDbBlockEnd
  0
BLOCK
  5
17D
330
17B
100
AcDbEntity
  8
0
100
AcDbBlockBegin
  2
BLOCK_8
 70
     0
 71
     0
 10
0.0
 20
0.0
 30
0.0
  3
BLOCK_8
  1

  0
POLYLINE
  5
17F
330
17B
100
AcDbEntity
  8
\U+838C\U+8343\U+8384\U+815B_1
 62
    29
100
AcDb2dPolyline
 66
     1
 10
0.0
 20
0.0
 30
0.0
  0
VERTEX
  5
180
330
17F
100
AcDbEntity
  8
\U+838C\U+8343\U+8384\U+815B_1
 62
    29
100
AcDbVertex
100
AcDb2dVertex
 10
74.15946992503652
 20
-223.3934271359919
 30
0.0
  0
VERTEX
  5
181
330
17F
100
AcDbEntity
  8
\U+838C\U+8343\U+8384\U+815B_1
 62
    29
100
AcDbVertex
100
AcDb2dVertex
 10
74.15946992503652
 20
-223.9935627695224
 30
0.0
  0
SEQEND
  5
182
330
17F
100
AcDbEntity
  8
\U+838C\U+8343\U+8384\U+815B_1
  0
POLYLINE
  5
183
330
17B
100
AcDbEntity
  8
\U+838C\U+8343\U+8384\U+815B_1
 62
    29
100
AcDb2dPolyline
 66
     1
 10
0.0
 20
0.0
 30
0.0
  0
VERTEX
  5
184
330
183
100
AcDbEntity
  8
\U+838C\U+8343\U+8384\U+815B_1
 62
    29
100
AcDbVertex
100
AcDb2dVertex
 10
79.95825464580905
 20
-223.394116155089
 30
0.0
  0
VERTEX
  5
185
330
183
100
AcDbEntity
  8
\U+838C\U+8343\U+8384\U+815B_1
 62
    29
100
AcDbVertex
100
AcDb2dVertex
 10
79.95825464580905
 20
-223.9935627695224
 30
0.0
  0
SEQEND
  5
186
330
183
100
AcDbEntity
  8
\U+838C\U+8343\U+8384\U+815B_1
  0
ENDBLK
  5
17E
330
17B
100
AcDbEntity
  8
0
100
AcDbBlockEnd
  0
BLOCK
  5
189
330
187
100
AcDbEntity
  8
0
100
AcDbBlockBegin
  2
BLOCK_9
 70
     0
 71
     0
 10
0.0
 20
0.0
 30
0.0
  3
BLOCK_9
  1

  0
POLYLINE
  5
18B
330
187
100
AcDbEntity
  8
\U+838C\U+8343\U+8384\U+815B_1
  6
AI-LINETYPE-11
 62
   253
100
AcDb2dPolyline
 66
     1
 10
0.0
 20
0.0
 30
0.0
  0
VERTEX
  5
18C
330
18B
100
AcDbEntity
  8
\U+838C\U+8343\U+8384\U+815B_1
  6
AI-LINETYPE-11
 62
   253
100
AcDbVertex
100
AcDb2dVertex
 10
73.72624916776635
 20
-200.4263535740254
 30
0.0
  0
VERTEX
  5
18D
330
18B
100
AcDbEntity
  8
\U+838C\U+8343\U+8384\U+815B_1
  6
AI-LINETYPE-11
 62
   253
100
AcDbVertex
100
AcDb2dVertex
 10
80.18528643828702
 20
-206.8859076088688
 30
0.0
  0
SEQEND
  5
18E
330
18B
100
AcDbEntity
  8
\U+838C\U+8343\U+8384\U+815B_1
  6
AI-LINETYPE-11
  0
POLYLINE
  5
190
330
187
100
AcDbEntity
  8
\U+838C\U+8343\U+8384\U+815B_1
  6
AI-LINETYPE-12
 62
   253
100
AcDb2dPolyline
 66
     1
 10
0.0
 20
0.0
 30
0.0
  0
VERTEX
  5
191
330
190
100
AcDbEntity
  8
\U+838C\U+8343\U+8384\U+815B_1
  6
AI-LINETYPE-12
 62
   253
100
AcDbVertex
100
AcDb2dVertex
 10
73.7260769129921
 20
-206.8859076088688
 30
0.0
  0
VERTEX
  5
192
330
190
100
AcDbEntity
  8
\U+838C\U+8343\U+8384\U+815B_1
  6
AI-LINETYPE-12
 62
   253
100
AcDbVertex
100
AcDb2dVertex
 10
80.18528643828702
 20
-200.4263535740254
 30
0.0
  0
SEQEND
  5
193
330
190
100
AcDbEntity
  8
\U+838C\U+8343\U+8384\U+815B_1
  6
AI-LINETYPE-12
  0
ENDBLK
  5
18A
330
187
100
AcDbEntity
  8
0
100
AcDbBlockEnd
  0
BLOCK
  5
197
330
195
100
AcDbEntity
  8
0
100
AcDbBlockBegin
  2
BLOCK_10
 70
     0
 71
     0
 10
0.0
 20
0.0
 30
0.0
  3
BLOCK_10
  1

  0
POLYLINE
  5
199
330
195
100
AcDbEntity
  8
\U+838C\U+8343\U+8384\U+815B_1
  6
AI-LINETYPE-13
 62
   253
100
AcDb2dPolyline
 66
     1
 10
0.0
 20
0.0
 30
0.0
  0
VERTEX
  5
19A
330
199
100
AcDbEntity
  8
\U+838C\U+8343\U+8384\U+815B_1
  6
AI-LINETYPE-13
 62
   253
100
AcDbVertex
100
AcDb2dVertex
 10
91.03544241430711
 20
-230.4110866394458
 30
0.0
  0
VERTEX
  5
19B
330
199
100
AcDbEntity
  8
\U+838C\U+8343\U+8384\U+815B_1
  6
AI-LINETYPE-13
 62
   253
100
AcDbVertex
100
AcDb2dVertex
 10
97.49447968482778
 20
-236.8699516551922
 30
0.0
  0
SEQEND
  5
19C
330
199
100
AcDbEntity
  8
\U+838C\U+8343\U+8384\U+815B_1
  6
AI-LINETYPE-13
  0
POLYLINE
  5
19E
330
195
100
AcDbEntity
  8
\U+838C\U+8343\U+8384\U+815B_1
  6
AI-LINETYPE-14
 62
   253
100
AcDb2dPolyline
 66
     1
 10
0.0
 20
0.0
 30
0.0
  0
VERTEX
  5
19F
330
19E
100
AcDbEntity
  8
\U+838C\U+8343\U+8384\U+815B_1
  6
AI-LINETYPE-14
 62
   253
100
AcDbVertex
100
AcDb2dVertex
 10
91.03527015953286
 20
-236.8699516551922
 30
0.0
  0
VERTEX
  5
1A0
330
19E
100
AcDbEntity
  8
\U+838C\U+8343\U+8384\U+815B_1
  6
AI-LINETYPE-14
 62
   253
100
AcDbVertex
100
AcDb2dVertex
 10
97.49447968482778
 20
-230.4110866394458
 30
0.0
  0
SEQEND
  5
1A1
330
19E
100
AcDbEntity
  8
\U+838C\U+8343\U+8384\U+815B_1
  6
AI-LINETYPE-14
  0
ENDBLK
  5
198
330
195
100
AcDbEntity
  8
0
100
AcDbBlockEnd
  0
BLOCK
  5
1A5
330
1A3
100
AcDbEntity
  8
0
100
AcDbBlockBegin
  2
BLOCK_11
 70
     0
 71
     0
 10
0.0
 20
0.0
 30
0.0
  3
BLOCK_11
  1

  0
POLYLINE
  5
1A7
330
1A3
100
AcDbEntity
  8
\U+838C\U+8343\U+8384\U+815B_1
  6
AI-LINETYPE-15
 62
   253
100
AcDb2dPolyline
 66
     1
 10
0.0
 20
0.0
 30
0.0
  0
VERTEX
  5
1A8
330
1A7
100
AcDbEntity
  8
\U+838C\U+8343\U+8384\U+815B_1
  6
AI-LINETYPE-15
 62
   253
100
AcDbVertex
100
AcDb2dVertex
 10
56.41188827799773
 20
-230.4159097731252
 30
0.0
  0
VERTEX
  5
1A9
330
1A7
100
AcDbEntity
  8
\U+838C\U+8343\U+8384\U+815B_1
  6
AI-LINETYPE-15
 62
   253
100
AcDbVertex
100
AcDb2dVertex
 10
62.87092554851839
 20
-236.8747747888716
 30
0.0
  0
SEQEND
  5
1AA
330
1A7
100
AcDbEntity
  8
\U+838C\U+8343\U+8384\U+815B_1
  6
AI-LINETYPE-15
  0
POLYLINE
  5
1AC
330
1A3
100
AcDbEntity
  8
\U+838C\U+8343\U+8384\U+815B_1
  6
AI-LINETYPE-16
 62
   253
100
AcDb2dPolyline
 66
     1
 10
0.0
 20
0.0
 30
0.0
  0
VERTEX
  5
1AD
330
1AC
100
AcDbEntity
  8
\U+838C\U+8343\U+8384\U+815B_1
  6
AI-LINETYPE-16
 62
   253
100
AcDbVertex
100
AcDb2dVertex
 10
56.41171602322346
 20
-236.8747747888716
 30
0.0
  0
VERTEX
  5
1AE
330
1AC
100
AcDbEntity
  8
\U+838C\U+8343\U+8384\U+815B_1
  6
AI-LINETYPE-16
 62
   253
100
AcDbVertex
100
AcDb2dVertex
 10
62.87092554851839
 20
-230.4159097731252
 30
0.0
  0
SEQEND
  5
1AF
330
1AC
100
AcDbEntity
  8
\U+838C\U+8343\U+8384\U+815B_1
  6
AI-LINETYPE-16
  0
ENDBLK
  5
1A6
330
1A3
100
AcDbEntity
  8
0
100
AcDbBlockEnd
  0
BLOCK
  5
1B7
330
1B5
100
AcDbEntity
  8
0
100
AcDbBlockBegin
  2
BLOCK_12
 70
     0
 71
     0
 10
0.0
 20
0.0
 30
0.0
  3
BLOCK_12
  1

  0
SPLINE
  5
1B9
330
1B5
100
AcDbEntity
  8
\U+838C\U+8343\U+8384\U+815B_1
 62
   178
100
AcDbSpline
210
0.0
220
0.0
230
1.0
 70
    11
 71
     3
 72
    32
 73
    28
 74
     0
 42
0.0000000001
 43
0.0000000001
 40
0.0
 40
0.0
 40
0.0
 40
0.0
 40
1.0
 40
1.0
 40
1.0
 40
2.0
 40
2.0
 40
2.0
 40
3.0
 40
3.0
 40
3.0
 40
4.0
 40
4.0
 40
4.0
 40
5.0
 40
5.0
 40
5.0
 40
6.0
 40
6.0
 40
6.0
 40
7.0
 40
7.0
 40
7.0
 40
8.0
 40
8.0
 40
8.0
 40
9.0
 40
9.0
 40
9.0
 40
9.0
 10
73.92485892249101
 20
-209.2761148565351
 30
0.0
 10
73.45133054804342
 20
-209.329169327008
 30
0.0
 10
73.00122882289553
 20
-210.0760660282102
 30
0.0
 10
72.86170245574291
 20
-210.9965955418689
 30
0.0
 10
72.86170245574291
 20
-210.9965955418689
 30
0.0
 10
72.86101343664586
 20
-210.9965955418689
 30
0.0
 10
72.86101343664586
 20
-210.9965955418689
 30
0.0
 10
72.86101343664586
 20
-210.9965955418689
 30
0.0
 10
72.85825736025767
 20
-211.0179551338775
 30
0.0
 10
72.85825736025767
 20
-211.0179551338775
 30
0.0
 10
72.85360648135257
 20
-211.0496500123418
 30
0.0
 10
72.84947236677027
 20
-211.0820339099031
 30
0.0
 10
72.84551050696224
 20
-211.1137287883674
 30
0.0
 10
72.84551050696224
 20
-211.1137287883674
 30
0.0
 10
72.55198837161895
 20
-213.3427055673241
 30
0.0
 10
72.55198837161895
 20
-213.3427055673241
 30
0.0
 10
72.55198837161895
 20
-213.3427055673241
 30
0.0
 10
74.5728813832665
 20
-213.2655354284545
 30
0.0
 10
74.5728813832665
 20
-213.2655354284545
 30
0.0
 10
74.5728813832665
 20
-213.2655354284545
 30
0.0
 10
74.68209091014893
 20
-211.2157036147308
 30
0.0
 10
74.68209091014893
 20
-211.2157036147308
 30
0.0
 10
74.68932561066795
 20
-211.1592040487727
 30
0.0
 10
74.69587129208992
 20
-211.1033935019117
 30
0.0
 10
74.70069442576927
 20
-211.0455158977595
 30
0.0
 10
74.78888887019167
 20
-210.0112982330875
 30
0.0
 10
74.44145099050422
 20
-209.2196152905771
 30
0.0
 10
73.92485892249101
 20
-209.2761148565351
 30
0.0
  0
SPLINE
  5
1BA
330
1B5
100
AcDbEntity
  8
\U+838C\U+8343\U+8384\U+815B_1
 62
   178
100
AcDbSpline
210
0.0
220
0.0
230
1.0
 70
    11
 71
     3
 72
    32
 73
    28
 74
     0
 42
0.0000000001
 43
0.0000000001
 40
0.0
 40
0.0
 40
0.0
 40
0.0
 40
1.0
 40
1.0
 40
1.0
 40
2.0
 40
2.0
 40
2.0
 40
3.0
 40
3.0
 40
3.0
 40
4.0
 40
4.0
 40
4.0
 40
5.0
 40
5.0
 40
5.0
 40
6.0
 40
6.0
 40
6.0
 40
7.0
 40
7.0
 40
7.0
 40
8.0
 40
8.0
 40
8.0
 40
9.0
 40
9.0
 40
9.0
 40
9.0
 10
79.96238876039135
 20
-209.2761148565351
 30
0.0
 10
80.43591713483895
 20
-209.329169327008
 30
0.0
 10
80.88601885998683
 20
-210.0760660282102
 30
0.0
 10
81.02554522713945
 20
-210.9965955418689
 30
0.0
 10
81.02554522713945
 20
-210.9965955418689
 30
0.0
 10
81.0262342462365
 20
-210.9965955418689
 30
0.0
 10
81.0262342462365
 20
-210.9965955418689
 30
0.0
 10
81.0262342462365
 20
-210.9965955418689
 30
0.0
 10
81.0289903226247
 20
-211.0179551338775
 30
0.0
 10
81.0289903226247
 20
-211.0179551338775
 30
0.0
 10
81.03364120152979
 20
-211.0496500123418
 30
0.0
 10
81.03777531611209
 20
-211.0820339099031
 30
0.0
 10
81.04156492114586
 20
-211.1137287883674
 30
0.0
 10
81.04156492114586
 20
-211.1137287883674
 30
0.0
 10
81.33525931126341
 20
-213.3427055673241
 30
0.0
 10
81.33525931126341
 20
-213.3427055673241
 30
0.0
 10
81.33525931126341
 20
-213.3427055673241
 30
0.0
 10
79.31436629961586
 20
-213.2655354284545
 30
0.0
 10
79.31436629961586
 20
-213.2655354284545
 30
0.0
 10
79.31436629961586
 20
-213.2655354284545
 30
0.0
 10
79.20515677273343
 20
-211.2157036147308
 30
0.0
 10
79.20515677273343
 20
-211.2157036147308
 30
0.0
 10
79.19792207221441
 20
-211.1592040487727
 30
0.0
 10
79.19137639079244
 20
-211.1033935019117
 30
0.0
 10
79.18655325711309
 20
-211.0455158977595
 30
0.0
 10
79.09818655791643
 20
-210.0112982330875
 30
0.0
 10
79.44562443760387
 20
-209.2196152905771
 30
0.0
 10
79.96238876039135
 20
-209.2761148565351
 30
0.0
  0
ENDBLK
  5
1B8
330
1B5
100
AcDbEntity
  8
0
100
AcDbBlockEnd
  0
BLOCK
  5
1BD
330
1BB
100
AcDbEntity
  8
0
100
AcDbBlockBegin
  2
BLOCK_13
 70
     0
 71
     0
 10
0.0
 20
0.0
 30
0.0
  3
BLOCK_13
  1

  0
SPLINE
  5
1BF
330
1BB
100
AcDbEntity
  8
\U+838C\U+8343\U+8384\U+815B_1
 62
    29
100
AcDbSpline
210
0.0
220
0.0
230
1.0
 70
    11
 71
     3
 72
    17
 73
    13
 74
     0
 42
0.0000000001
 43
0.0000000001
 40
0.0
 40
0.0
 40
0.0
 40
0.0
 40
1.0
 40
1.0
 40
1.0
 40
2.0
 40
2.0
 40
2.0
 40
3.0
 40
3.0
 40
3.0
 40
4.0
 40
4.0
 40
4.0
 40
4.0
 10
135.2213758342502
 20
-245.2735730723622
 30
0.0
 10
123.2851535065051
 20
-238.334461745972
 30
0.0
 10
119.2340657253998
 20
-223.0323811291377
 30
0.0
 10
126.17317705179
 20
-211.0951252727471
 30
0.0
 10
133.1122883781803
 20
-199.158902945002
 30
0.0
 10
148.4140244854659
 20
-195.1081596734452
 30
0.0
 10
160.3505913227596
 20
-202.0469264902869
 30
0.0
 10
172.2864691409562
 20
-208.9860378166771
 30
0.0
 10
176.338590450707
 20
-224.2881184335113
 30
0.0
 10
169.3998236338653
 20
-236.2243407612564
 30
0.0
 10
162.4603677979266
 20
-248.1615966176471
 30
0.0
 10
147.1572536524468
 20
-252.2123398892039
 30
0.0
 10
135.2213758342502
 20
-245.2735730723622
 30
0.0
  0
SPLINE
  5
1C0
330
1BB
100
AcDbEntity
  8
\U+838C\U+8343\U+8384\U+815B_1
 62
    29
100
AcDbSpline
210
0.0
220
0.0
230
1.0
 70
    11
 71
     3
 72
    17
 73
    13
 74
     0
 42
0.0000000001
 43
0.0000000001
 40
0.0
 40
0.0
 40
0.0
 40
0.0
 40
1.0
 40
1.0
 40
1.0
 40
2.0
 40
2.0
 40
2.0
 40
3.0
 40
3.0
 40
3.0
 40
4.0
 40
4.0
 40
4.0
 40
4.0
 10
169.3998236338653
 20
-236.2243407612564
 30
0.0
 10
176.338590450707
 20
-224.2881184335113
 30
0.0
 10
172.2864691409562
 20
-208.9860378166771
 30
0.0
 10
160.3505913227596
 20
-202.0469264902869
 30
0.0
 10
148.4140244854659
 20
-195.1081596734452
 30
0.0
 10
133.1122883781803
 20
-199.158902945002
 30
0.0
 10
126.17317705179
 20
-211.0951252727471
 30
0.0
 10
119.2340657253998
 20
-223.0323811291377
 30
0.0
 10
123.2851535065051
 20
-238.334461745972
 30
0.0
 10
135.2213758342502
 20
-245.2735730723622
 30
0.0
 10
147.1572536524468
 20
-252.2123398892039
 30
0.0
 10
162.4603677979266
 20
-248.1615966176471
 30
0.0
 10
169.3998236338653
 20
-236.2243407612564
 30
0.0
  0
SPLINE
  5
1C1
330
1BB
100
AcDbEntity
  8
\U+838C\U+8343\U+8384\U+815B_1
 62
    29
100
AcDbSpline
210
0.0
220
0.0
230
1.0
 70
    11
 71
     3
 72
    17
 73
    13
 74
     0
 42
0.0000000001
 43
0.0000000001
 40
0.0
 40
0.0
 40
0.0
 40
0.0
 40
1.0
 40
1.0
 40
1.0
 40
2.0
 40
2.0
 40
2.0
 40
3.0
 40
3.0
 40
3.0
 40
4.0
 40
4.0
 40
4.0
 40
4.0
 10
136.162920430369
 20
-244.6503552990805
 30
0.0
 10
136.162920430369
 20
-244.6503552990805
 30
0.0
 10
139.4805473826646
 20
-238.9435546277641
 30
0.0
 10
139.4805473826646
 20
-238.9435546277641
 30
0.0
 10
140.0834390925833
 20
-239.2718722275084
 30
0.0
 10
140.6966660889578
 20
-239.5633273055606
 30
0.0
 10
141.3198838622395
 20
-239.8137857473382
 30
0.0
 10
141.3198838622395
 20
-239.8137857473382
 30
0.0
 10
139.0433647655864
 20
-246.0101344871086
 30
0.0
 10
139.0433647655864
 20
-246.0101344871086
 30
0.0
 10
138.066680195518
 20
-245.6270398691488
 30
0.0
 10
137.1051540455848
 20
-245.1722872650958
 30
0.0
 10
136.162920430369
 20
-244.6503552990805
 30
0.0
  0
SPLINE
  5
1C2
330
1BB
100
AcDbEntity
  8
\U+838C\U+8343\U+8384\U+815B_1
 62
    29
100
AcDbSpline
210
0.0
220
0.0
230
1.0
 70
    11
 71
     3
 72
    17
 73
    13
 74
     0
 42
0.0000000001
 43
0.0000000001
 40
0.0
 40
0.0
 40
0.0
 40
0.0
 40
1.0
 40
1.0
 40
1.0
 40
2.0
 40
2.0
 40
2.0
 40
3.0
 40
3.0
 40
3.0
 40
4.0
 40
4.0
 40
4.0
 40
4.0
 10
139.9814642662199
 20
-246.3584336406674
 30
0.0
 10
139.9814642662199
 20
-246.3584336406674
 30
0.0
 10
142.2583278724215
 20
-240.162084900897
 30
0.0
 10
142.2583278724215
 20
-240.162084900897
 30
0.0
 10
142.9066948427456
 20
-240.3805039546618
 30
0.0
 10
143.5633300422342
 20
-240.5531032384729
 30
0.0
 10
144.223410337208
 20
-240.6915960769799
 30
0.0
 10
144.223410337208
 20
-240.6915960769799
 30
0.0
 10
143.0562119868054
 20
-247.194213805389
 30
0.0
 10
143.0562119868054
 20
-247.194213805389
 30
0.0
 10
142.0223388316819
 20
-246.9864745476284
 30
0.0
 10
140.9957003770775
 20
-246.7084553419687
 30
0.0
 10
139.9814642662199
 20
-246.3584336406674
 30
0.0
  0
SPLINE
  5
1C3
330
1BB
100
AcDbEntity
  8
\U+838C\U+8343\U+8384\U+815B_1
 62
    29
100
AcDbSpline
210
0.0
220
0.0
230
1.0
 70
    11
 71
     3
 72
    17
 73
    13
 74
     0
 42
0.0000000001
 43
0.0000000001
 40
0.0
 40
0.0
 40
0.0
 40
0.0
 40
1.0
 40
1.0
 40
1.0
 40
2.0
 40
2.0
 40
2.0
 40
3.0
 40
3.0
 40
3.0
 40
4.0
 40
4.0
 40
4.0
 40
4.0
 10
144.0418538051354
 20
-247.3692246560396
 30
0.0
 10
144.0418538051354
 20
-247.3692246560396
 30
0.0
 10
145.2080186268925
 20
-240.8676404562761
 30
0.0
 10
145.2080186268925
 20
-240.8676404562761
 30
0.0
 10
145.8825683229044
 20
-240.968581753994
 30
0.0
 10
146.5591850762074
 20
-241.0330050395681
 30
0.0
 10
147.2347683008649
 20
-241.0540201220282
 30
0.0
 10
147.2347683008649
 20
-241.0540201220282
 30
0.0
 10
147.215131256599
 20
-247.6524115049272
 30
0.0
 10
147.215131256599
 20
-247.6524115049272
 30
0.0
 10
146.1567979235303
 20
-247.6282958365304
 30
0.0
 10
145.0970865522674
 20
-247.5352782584287
 30
0.0
 10
144.0418538051354
 20
-247.3692246560396
 30
0.0
  0
SPLINE
  5
1C4
330
1BB
100
AcDbEntity
  8
\U+838C\U+8343\U+8384\U+815B_1
 62
    29
100
AcDbSpline
210
0.0
220
0.0
230
1.0
 70
    11
 71
     3
 72
    29
 73
    25
 74
     0
 42
0.0000000001
 43
0.0000000001
 40
0.0
 40
0.0
 40
0.0
 40
0.0
 40
1.0
 40
1.0
 40
1.0
 40
2.0
 40
2.0
 40
2.0
 40
3.0
 40
3.0
 40
3.0
 40
4.0
 40
4.0
 40
4.0
 40
5.0
 40
5.0
 40
5.0
 40
6.0
 40
6.0
 40
6.0
 40
7.0
 40
7.0
 40
7.0
 40
8.0
 40
8.0
 40
8.0
 40
8.0
 10
132.5073296109704
 20
-229.6104464486738
 30
0.0
 10
131.9864311736006
 20
-228.2682372476204
 30
0.0
 10
131.6470892683035
 20
-226.8609157418959
 30
0.0
 10
131.4924044810158
 20
-225.428445039129
 30
0.0
 10
132.1083875537785
 20
-225.4246554340952
 30
0.0
 10
132.7071451491149
 20
-225.1118407640346
 30
0.0
 10
133.039252353893
 20
-224.5406439325801
 30
0.0
 10
133.1181450405052
 20
-224.4045626609127
 30
0.0
 10
133.1701659823325
 20
-224.2615911982749
 30
0.0
 10
133.2104735995099
 20
-224.1168971878944
 30
0.0
 10
133.2104735995099
 20
-224.1168971878944
 30
0.0
 10
134.6019476660023
 20
-224.1210313024767
 30
0.0
 10
134.6019476660023
 20
-224.1210313024767
 30
0.0
 10
134.6725721234499
 20
-226.0957600346219
 30
0.0
 10
135.1807237075243
 20
-228.0353487928176
 30
0.0
 10
136.0964300875037
 20
-229.7871798470671
 30
0.0
 10
136.0964300875037
 20
-229.7871798470671
 30
0.0
 10
134.0810492286325
 20
-230.9426648728199
 30
0.0
 10
134.0810492286325
 20
-230.9426648728199
 30
0.0
 10
133.7268934127488
 20
-230.4603515048849
 30
0.0
 10
133.2714517895988
 20
-230.040394365233
 30
0.0
 10
132.7202365119588
 20
-229.7200004851047
 30
0.0
 10
132.6506455831568
 20
-229.6796928679273
 30
0.0
 10
132.5789875970636
 20
-229.6469644608174
 30
0.0
 10
132.5073296109704
 20
-229.6104464486738
 30
0.0
  0
SPLINE
  5
1C5
330
1BB
100
AcDbEntity
  8
\U+838C\U+8343\U+8384\U+815B_1
 62
    29
100
AcDbSpline
210
0.0
220
0.0
230
1.0
 70
    11
 71
     3
 72
    17
 73
    13
 74
     0
 42
0.0000000001
 43
0.0000000001
 40
0.0
 40
0.0
 40
0.0
 40
0.0
 40
1.0
 40
1.0
 40
1.0
 40
2.0
 40
2.0
 40
2.0
 40
3.0
 40
3.0
 40
3.0
 40
4.0
 40
4.0
 40
4.0
 40
4.0
 10
148.2472818639799
 20
-236.8506591204749
 30
0.0
 10
150.2220105961251
 20
-236.7793456439302
 30
0.0
 10
152.1588432779325
 20
-236.2608587734001
 30
0.0
 10
153.9103298226335
 20
-235.3458414125177
 30
0.0
 10
153.9103298226335
 20
-235.3458414125177
 30
0.0
 10
155.5033419750131
 20
-238.1246554309202
 30
0.0
 10
155.5033419750131
 20
-238.1246554309202
 30
0.0
 10
153.2640299096007
 20
-239.3159694497196
 30
0.0
 10
150.7735703833136
 20
-239.9805283688243
 30
0.0
 10
148.2376355966211
 20
-240.0528753740146
 30
0.0
 10
148.2376355966211
 20
-240.0528753740146
 30
0.0
 10
148.2472818639799
 20
-236.8506591204749
 30
0.0
 10
148.2472818639799
 20
-236.8506591204749
 30
0.0
  0
SPLINE
  5
1C6
330
1BB
100
AcDbEntity
  8
\U+838C\U+8343\U+8384\U+815B_1
 62
    29
100
AcDbSpline
210
0.0
220
0.0
230
1.0
 70
    11
 71
     3
 72
    17
 73
    13
 74
     0
 42
0.0000000001
 43
0.0000000001
 40
0.0
 40
0.0
 40
0.0
 40
0.0
 40
1.0
 40
1.0
 40
1.0
 40
2.0
 40
2.0
 40
2.0
 40
3.0
 40
3.0
 40
3.0
 40
4.0
 40
4.0
 40
4.0
 40
4.0
 10
147.2375243772531
 20
-240.0528753740146
 30
0.0
 10
144.7704915002657
 20
-239.9726046492083
 30
0.0
 10
142.2907117699829
 20
-239.3259602266268
 30
0.0
 10
139.9845648521566
 20
-238.0764240941267
 30
0.0
 10
139.9845648521566
 20
-238.0764240941267
 30
0.0
 10
141.5927354246713
 20
-235.3103569290196
 30
0.0
 10
141.5927354246713
 20
-235.3103569290196
 30
0.0
 10
143.3945203634569
 20
-236.2691270025647
 30
0.0
 10
145.3244628542939
 20
-236.7724554529597
 30
0.0
 10
147.2468261350633
 20
-236.8492810822808
 30
0.0
 10
147.2468261350633
 20
-236.8492810822808
 30
0.0
 10
147.2375243772531
 20
-240.0528753740146
 30
0.0
 10
147.2375243772531
 20
-240.0528753740146
 30
0.0
  0
SPLINE
  5
1C7
330
1BB
100
AcDbEntity
  8
\U+838C\U+8343\U+8384\U+815B_1
 62
    29
100
AcDbSpline
210
0.0
220
0.0
230
1.0
 70
    11
 71
     3
 72
    17
 73
    13
 74
     0
 42
0.0000000001
 43
0.0000000001
 40
0.0
 40
0.0
 40
0.0
 40
0.0
 40
1.0
 40
1.0
 40
1.0
 40
2.0
 40
2.0
 40
2.0
 40
3.0
 40
3.0
 40
3.0
 40
4.0
 40
4.0
 40
4.0
 40
4.0
 10
142.0957193655177
 20
-234.4449489431249
 30
0.0
 10
142.0957193655177
 20
-234.4449489431249
 30
0.0
 10
143.1009982281136
 20
-232.7162000286265
 30
0.0
 10
143.1009982281136
 20
-232.7162000286265
 30
0.0
 10
146.111322663125
 20
-234.2768282834447
 30
0.0
 10
149.5757106830922
 20
-234.1924234440561
 30
0.0
 10
152.4192924966174
 20
-232.7458278497997
 30
0.0
 10
152.4192924966174
 20
-232.7458278497997
 30
0.0
 10
153.4149250918546
 20
-234.4821559743656
 30
0.0
 10
153.4149250918546
 20
-234.4821559743656
 30
0.0
 10
149.9698296066048
 20
-236.2694715121132
 30
0.0
 10
145.747176070334
 20
-236.3745469244133
 30
0.0
 10
142.0957193655177
 20
-234.4449489431249
 30
0.0
  0
SPLINE
  5
1C8
330
1BB
100
AcDbEntity
  8
\U+838C\U+8343\U+8384\U+815B_1
 62
    29
100
AcDbSpline
210
0.0
220
0.0
230
1.0
 70
    11
 71
     3
 72
    14
 73
    10
 74
     0
 42
0.0000000001
 43
0.0000000001
 40
0.0
 40
0.0
 40
0.0
 40
0.0
 40
1.0
 40
1.0
 40
1.0
 40
2.0
 40
2.0
 40
2.0
 40
3.0
 40
3.0
 40
3.0
 40
3.0
 10
144.6130506365898
 20
-230.1148084277144
 30
0.0
 10
144.6130506365898
 20
-230.1148084277144
 30
0.0
 10
147.9675401105776
 20
-224.3442734899209
 30
0.0
 10
147.9675401105776
 20
-224.3442734899209
 30
0.0
 10
147.9675401105776
 20
-224.3442734899209
 30
0.0
 10
153.738075048371
 20
-227.6987629639086
 30
0.0
 10
153.738075048371
 20
-227.6987629639086
 30
0.0
 10
151.7275173231792
 20
-230.6667127244514
 30
0.0
 10
147.8283582529735
 20
-231.6988633318322
 30
0.0
 10
144.6130506365898
 20
-230.1148084277144
 30
0.0
  0
SPLINE
  5
1C9
330
1BB
100
AcDbEntity
  8
\U+838C\U+8343\U+8384\U+815B_1
 62
    29
100
AcDbSpline
210
0.0
220
0.0
230
1.0
 70
    11
 71
     3
 72
    14
 73
    10
 74
     0
 42
0.0000000001
 43
0.0000000001
 40
0.0
 40
0.0
 40
0.0
 40
0.0
 40
1.0
 40
1.0
 40
1.0
 40
2.0
 40
2.0
 40
2.0
 40
3.0
 40
3.0
 40
3.0
 40
3.0
 10
143.7479871602436
 20
-229.6118244868679
 30
0.0
 10
140.7803819092493
 20
-227.6016112712246
 30
0.0
 10
139.7475422827715
 20
-223.7024522010188
 30
0.0
 10
141.3315971868893
 20
-220.4864555655381
 30
0.0
 10
141.3315971868893
 20
-220.4864555655381
 30
0.0
 10
147.1028211437799
 20
-223.8412895490744
 30
0.0
 10
147.1028211437799
 20
-223.8412895490744
 30
0.0
 10
147.1028211437799
 20
-223.8412895490744
 30
0.0
 10
143.7479871602436
 20
-229.6118244868679
 30
0.0
 10
143.7479871602436
 20
-229.6118244868679
 30
0.0
  0
SPLINE
  5
1CA
330
1BB
100
AcDbEntity
  8
\U+838C\U+8343\U+8384\U+815B_1
 62
    29
100
AcDbSpline
210
0.0
220
0.0
230
1.0
 70
    11
 71
     3
 72
    17
 73
    13
 74
     0
 42
0.0000000001
 43
0.0000000001
 40
0.0
 40
0.0
 40
0.0
 40
0.0
 40
1.0
 40
1.0
 40
1.0
 40
2.0
 40
2.0
 40
2.0
 40
3.0
 40
3.0
 40
3.0
 40
4.0
 40
4.0
 40
4.0
 40
4.0
 10
142.2355902422189
 20
-232.21321608778
 30
0.0
 10
142.2355902422189
 20
-232.21321608778
 30
0.0
 10
141.23100039872
 20
-233.9423095118269
 30
0.0
 10
141.23100039872
 20
-233.9423095118269
 30
0.0
 10
137.7466308249383
 20
-231.723668019326
 30
0.0
 10
135.748819953042
 20
-228.0022758761592
 30
0.0
 10
135.5975802612395
 20
-224.1241318884134
 30
0.0
 10
135.5975802612395
 20
-224.1241318884134
 30
0.0
 10
137.5988362286211
 20
-224.1303330602869
 30
0.0
 10
137.5988362286211
 20
-224.1303330602869
 30
0.0
 10
137.7486978822295
 20
-227.3173908936915
 30
0.0
 10
139.3899413714025
 20
-230.3690564745258
 30
0.0
 10
142.2355902422189
 20
-232.21321608778
 30
0.0
  0
SPLINE
  5
1CB
330
1BB
100
AcDbEntity
  8
\U+838C\U+8343\U+8384\U+815B_1
 62
    29
100
AcDbSpline
210
0.0
220
0.0
230
1.0
 70
    11
 71
     3
 72
    23
 73
    19
 74
     0
 42
0.0000000001
 43
0.0000000001
 40
0.0
 40
0.0
 40
0.0
 40
0.0
 40
1.0
 40
1.0
 40
1.0
 40
2.0
 40
2.0
 40
2.0
 40
3.0
 40
3.0
 40
3.0
 40
4.0
 40
4.0
 40
4.0
 40
5.0
 40
5.0
 40
5.0
 40
6.0
 40
6.0
 40
6.0
 40
6.0
 10
133.2011718416997
 20
-223.1167859685264
 30
0.0
 10
133.0743923278425
 20
-222.6957953002288
 30
0.0
 10
132.7980956699255
 20
-222.3182128350454
 30
0.0
 10
132.3881293071807
 20
-222.0798122274662
 30
0.0
 10
132.1076985346814
 20
-221.9168592110138
 30
0.0
 10
131.8024630746883
 20
-221.8462347535662
 30
0.0
 10
131.5006727101804
 20
-221.8438231867266
 30
0.0
 10
131.7266709740128
 20
-219.8005370544249
 30
0.0
 10
132.3340413080623
 20
-217.768964246773
 30
0.0
 10
133.3692925013799
 20
-215.8576252715564
 30
0.0
 10
133.3692925013799
 20
-215.8576252715564
 30
0.0
 10
136.1339816282929
 20
-217.4647623154255
 30
0.0
 10
136.1339816282929
 20
-217.4647623154255
 30
0.0
 10
135.1745225356508
 20
-219.2668917637597
 30
0.0
 10
134.6791178048719
 20
-221.1982122927907
 30
0.0
 10
134.6026366850994
 20
-223.1209200831087
 30
0.0
 10
134.6026366850994
 20
-223.1209200831087
 30
0.0
 10
133.2011718416997
 20
-223.1167859685264
 30
0.0
 10
133.2011718416997
 20
-223.1167859685264
 30
0.0
  0
SPLINE
  5
1CC
330
1BB
100
AcDbEntity
  8
\U+838C\U+8343\U+8384\U+815B_1
 62
    29
100
AcDbSpline
210
0.0
220
0.0
230
1.0
 70
    11
 71
     3
 72
    20
 73
    16
 74
     0
 42
0.0000000001
 43
0.0000000001
 40
0.0
 40
0.0
 40
0.0
 40
0.0
 40
1.0
 40
1.0
 40
1.0
 40
2.0
 40
2.0
 40
2.0
 40
3.0
 40
3.0
 40
3.0
 40
4.0
 40
4.0
 40
4.0
 40
5.0
 40
5.0
 40
5.0
 40
5.0
 10
136.5925238373796
 20
-230.6556884188986
 30
0.0
 10
137.6102050437225
 20
-232.2883191693585
 30
0.0
 10
139.003057148409
 20
-233.7163112479946
 30
0.0
 10
140.7280164578736
 20
-234.8073729881732
 30
0.0
 10
140.7280164578736
 20
-234.8073729881732
 30
0.0
 10
139.1177788280678
 20
-237.5768852487655
 30
0.0
 10
139.1177788280678
 20
-237.5768852487655
 30
0.0
 10
137.4820474916712
 20
-236.5588595328742
 30
0.0
 10
136.0854057819509
 20
-235.2965765470786
 30
0.0
 10
134.9478352527214
 20
-233.8644503538603
 30
0.0
 10
134.9877983603503
 20
-233.1578612698355
 30
0.0
 10
134.859640808299
 20
-232.453339243102
 30
0.0
 10
134.5798990548967
 20
-231.8091063873602
 30
0.0
 10
134.5798990548967
 20
-231.8091063873602
 30
0.0
 10
136.5925238373796
 20
-230.6556884188986
 30
0.0
 10
136.5925238373796
 20
-230.6556884188986
 30
0.0
  0
SPLINE
  5
1CD
330
1BB
100
AcDbEntity
  8
\U+838C\U+8343\U+8384\U+815B_1
 62
    29
100
AcDbSpline
210
0.0
220
0.0
230
1.0
 70
    11
 71
     3
 72
    20
 73
    16
 74
     0
 42
0.0000000001
 43
0.0000000001
 40
0.0
 40
0.0
 40
0.0
 40
0.0
 40
1.0
 40
1.0
 40
1.0
 40
2.0
 40
2.0
 40
2.0
 40
3.0
 40
3.0
 40
3.0
 40
4.0
 40
4.0
 40
4.0
 40
5.0
 40
5.0
 40
5.0
 40
5.0
 10
148.2148979664185
 20
-247.6534450335728
 30
0.0
 10
148.2148979664185
 20
-247.6534450335728
 30
0.0
 10
148.2162760046126
 20
-247.1197997429076
 30
0.0
 10
148.2162760046126
 20
-247.1197997429076
 30
0.0
 10
148.2162760046126
 20
-247.1197997429076
 30
0.0
 10
148.2341905011359
 20
-241.0540201220282
 30
0.0
 10
148.2341905011359
 20
-241.0540201220282
 30
0.0
 10
148.9142523499242
 20
-241.0357611159563
 30
0.0
 10
149.5915581223243
 20
-240.9761609640615
 30
0.0
 10
150.261973703754
 20
-240.878664761829
 30
0.0
 10
150.261973703754
 20
-240.878664761829
 30
0.0
 10
151.3885199274307
 20
-247.3816269997866
 30
0.0
 10
151.3885199274307
 20
-247.3816269997866
 30
0.0
 10
150.3398328617206
 20
-247.5414794303021
 30
0.0
 10
149.2801214904578
 20
-247.6331189702098
 30
0.0
 10
148.2148979664185
 20
-247.6534450335728
 30
0.0
  0
SPLINE
  5
1CE
330
1BB
100
AcDbEntity
  8
\U+838C\U+8343\U+8384\U+815B_1
 62
    29
100
AcDbSpline
210
0.0
220
0.0
230
1.0
 70
    11
 71
     3
 72
    17
 73
    13
 74
     0
 42
0.0000000001
 43
0.0000000001
 40
0.0
 40
0.0
 40
0.0
 40
0.0
 40
1.0
 40
1.0
 40
1.0
 40
2.0
 40
2.0
 40
2.0
 40
3.0
 40
3.0
 40
3.0
 40
4.0
 40
4.0
 40
4.0
 40
4.0
 10
152.3738172362121
 20
-247.2100612446211
 30
0.0
 10
152.3738172362121
 20
-247.2100612446211
 30
0.0
 10
151.2472710125354
 20
-240.7088215544061
 30
0.0
 10
151.2472710125354
 20
-240.7088215544061
 30
0.0
 10
151.9128634602857
 20
-240.5737738113843
 30
0.0
 10
152.5698431693228
 20
-240.4001409989278
 30
0.0
 10
153.2151095537101
 20
-240.1882676265849
 30
0.0
 10
153.2151095537101
 20
-240.1882676265849
 30
0.0
 10
155.4523545618314
 20
-246.3939181241654
 30
0.0
 10
155.4523545618314
 20
-246.3939181241654
 30
0.0
 10
154.4450086419443
 20
-246.7339490485596
 30
0.0
 10
153.4169921491458
 20
-247.0064561014428
 30
0.0
 10
152.3738172362121
 20
-247.2100612446211
 30
0.0
  0
SPLINE
  5
1CF
330
1BB
100
AcDbEntity
  8
\U+838C\U+8343\U+8384\U+815B_1
 62
    29
100
AcDbSpline
210
0.0
220
0.0
230
1.0
 70
    11
 71
     3
 72
    17
 73
    13
 74
     0
 42
0.0000000001
 43
0.0000000001
 40
0.0
 40
0.0
 40
0.0
 40
0.0
 40
1.0
 40
1.0
 40
1.0
 40
2.0
 40
2.0
 40
2.0
 40
3.0
 40
3.0
 40
3.0
 40
4.0
 40
4.0
 40
4.0
 40
4.0
 10
156.3935546484016
 20
-246.0552652379654
 30
0.0
 10
156.3935546484016
 20
-246.0552652379654
 30
0.0
 10
154.1556206211833
 20
-239.8478921926422
 30
0.0
 10
154.1556206211833
 20
-239.8478921926422
 30
0.0
 10
154.7864176045326
 20
-239.6005343368013
 30
0.0
 10
155.4041232250379
 20
-239.3180365070108
 30
0.0
 10
156.0035698394713
 20
-238.997298117334
 30
0.0
 10
156.0035698394713
 20
-238.997298117334
 30
0.0
 10
159.2857123082689
 20
-244.7206352469796
 30
0.0
 10
159.2857123082689
 20
-244.7206352469796
 30
0.0
 10
158.3503688840235
 20
-245.2305093787965
 30
0.0
 10
157.3836750908624
 20
-245.6752712059423
 30
0.0
 10
156.3935546484016
 20
-246.0552652379654
 30
0.0
  0
SPLINE
  5
1D0
330
1BB
100
AcDbEntity
  8
\U+838C\U+8343\U+8384\U+815B_1
 62
    29
100
AcDbSpline
210
0.0
220
0.0
230
1.0
 70
    11
 71
     3
 72
    17
 73
    13
 74
     0
 42
0.0000000001
 43
0.0000000001
 40
0.0
 40
0.0
 40
0.0
 40
0.0
 40
1.0
 40
1.0
 40
1.0
 40
2.0
 40
2.0
 40
2.0
 40
3.0
 40
3.0
 40
3.0
 40
4.0
 40
4.0
 40
4.0
 40
4.0
 10
160.1542208801004
 20
-244.2248860066521
 30
0.0
 10
160.1542208801004
 20
-244.2248860066521
 30
0.0
 10
156.8731119399484
 20
-238.5022378961036
 30
0.0
 10
156.8731119399484
 20
-238.5022378961036
 30
0.0
 10
157.4494764146307
 20
-238.1498046279626
 30
0.0
 10
158.0058593354985
 20
-237.7587862903867
 30
0.0
 10
158.5419161930034
 20
-237.3371066029921
 30
0.0
 10
158.5419161930034
 20
-237.3371066029921
 30
0.0
 10
162.7711154106961
 20
-242.4075981381828
 30
0.0
 10
162.7711154106961
 20
-242.4075981381828
 30
0.0
 10
161.9360242650716
 20
-243.0749131336757
 30
0.0
 10
161.0616590309151
 20
-243.6802164104341
 30
0.0
 10
160.1542208801004
 20
-244.2248860066521
 30
0.0
  0
SPLINE
  5
1D1
330
1BB
100
AcDbEntity
  8
\U+838C\U+8343\U+8384\U+815B_1
 62
    29
100
AcDbSpline
210
0.0
220
0.0
230
1.0
 70
    11
 71
     3
 72
    20
 73
    16
 74
     0
 42
0.0000000001
 43
0.0000000001
 40
0.0
 40
0.0
 40
0.0
 40
0.0
 40
1.0
 40
1.0
 40
1.0
 40
2.0
 40
2.0
 40
2.0
 40
3.0
 40
3.0
 40
3.0
 40
4.0
 40
4.0
 40
4.0
 40
5.0
 40
5.0
 40
5.0
 40
5.0
 10
163.541438761198
 20
-241.768532925669
 30
0.0
 10
163.541438761198
 20
-241.768532925669
 30
0.0
 10
159.3105169957627
 20
-236.6963188427356
 30
0.0
 10
159.3105169957627
 20
-236.6963188427356
 30
0.0
 10
159.8434732673308
 20
-236.225374289902
 30
0.0
 10
160.3519693609537
 20
-235.7210123108614
 30
0.0
 10
160.8294595952093
 20
-235.1787542814831
 30
0.0
 10
161.1684569909579
 20
-236.1654296284586
 30
0.0
 10
161.8471408015521
 20
-237.0411729008092
 30
0.0
 10
162.8190022379411
 20
-237.6061685603901
 30
0.0
 10
164.2538845075476
 20
-238.4405706869177
 30
0.0
 10
165.9564506963581
 20
-238.3878607259933
 30
0.0
 10
167.3027940119937
 20
-237.6240830569134
 30
0.0
 10
166.1955403230345
 20
-239.1750650443729
 30
0.0
 10
164.9301567513022
 20
-240.5596489198948
 30
0.0
 10
163.541438761198
 20
-241.768532925669
 30
0.0
  0
SPLINE
  5
1D2
330
1BB
100
AcDbEntity
  8
\U+838C\U+8343\U+8384\U+815B_1
 62
    29
100
AcDbSpline
210
0.0
220
0.0
230
1.0
 70
    11
 71
     3
 72
    20
 73
    16
 74
     0
 42
0.0000000001
 43
0.0000000001
 40
0.0
 40
0.0
 40
0.0
 40
0.0
 40
1.0
 40
1.0
 40
1.0
 40
2.0
 40
2.0
 40
2.0
 40
3.0
 40
3.0
 40
3.0
 40
4.0
 40
4.0
 40
4.0
 40
5.0
 40
5.0
 40
5.0
 40
5.0
 10
160.9658853764252
 20
-231.9004014177194
 30
0.0
 10
160.6799424511495
 20
-232.5491128975919
 30
0.0
 10
160.5579860709716
 20
-233.2367539564478
 30
0.0
 10
160.5886474207904
 20
-233.9123371811053
 30
0.0
 10
159.3863090964381
 20
-235.4171548890624
 30
0.0
 10
157.9528048650257
 20
-236.6601453401405
 30
0.0
 10
156.3718505468445
 20
-237.6289061905928
 30
0.0
 10
156.3718505468445
 20
-237.6289061905928
 30
0.0
 10
154.7784938849165
 20
-234.8500921721903
 30
0.0
 10
154.7784938849165
 20
-234.8500921721903
 30
0.0
 10
156.4114691449249
 20
-233.8317219467504
 30
0.0
 10
157.8449733763374
 20
-232.4461045425829
 30
0.0
 10
158.936035116516
 20
-230.7204562140213
 30
0.0
 10
158.936035116516
 20
-230.7204562140213
 30
0.0
 10
160.9658853764252
 20
-231.9004014177194
 30
0.0
 10
160.9658853764252
 20
-231.9004014177194
 30
0.0
  0
SPLINE
  5
1D3
330
1BB
100
AcDbEntity
  8
\U+838C\U+8343\U+8384\U+815B_1
 62
    29
100
AcDbSpline
210
0.0
220
0.0
230
1.0
 70
    11
 71
     3
 72
    23
 73
    19
 74
     0
 42
0.0000000001
 43
0.0000000001
 40
0.0
 40
0.0
 40
0.0
 40
0.0
 40
1.0
 40
1.0
 40
1.0
 40
2.0
 40
2.0
 40
2.0
 40
3.0
 40
3.0
 40
3.0
 40
4.0
 40
4.0
 40
4.0
 40
5.0
 40
5.0
 40
5.0
 40
6.0
 40
6.0
 40
6.0
 40
6.0
 10
158.3338324256943
 20
-229.7916584711979
 30
0.0
 10
157.3065049519928
 20
-231.5586479455826
 30
0.0
 10
155.902284032205
 20
-232.9694145467924
 30
0.0
 10
154.2830891541376
 20
-233.9857177149411
 30
0.0
 10
154.2830891541376
 20
-233.9857177149411
 30
0.0
 10
153.2874565589004
 20
-232.2490450808266
 30
0.0
 10
153.2874565589004
 20
-232.2490450808266
 30
0.0
 10
154.6117512634304
 20
-231.4025851201008
 30
0.0
 10
155.7610351173097
 20
-230.2391763747319
 30
0.0
 10
156.605083511196
 20
-228.7867241181505
 30
0.0
 10
157.4491319050822
 20
-227.3346163711177
 30
0.0
 10
157.8914821653883
 20
-225.7605522439071
 30
0.0
 10
157.9720973997431
 20
-224.1909667408273
 30
0.0
 10
157.9720973997431
 20
-224.1909667408273
 30
0.0
 10
159.9736978766732
 20
-224.1968234031522
 30
0.0
 10
159.9736978766732
 20
-224.1968234031522
 30
0.0
 10
159.8917046041243
 20
-226.1064398306262
 30
0.0
 10
159.3611598993958
 20
-228.0246689968133
 30
0.0
 10
158.3338324256943
 20
-229.7916584711979
 30
0.0
  0
SPLINE
  5
1D4
330
1BB
100
AcDbEntity
  8
\U+838C\U+8343\U+8384\U+815B_1
 62
    29
100
AcDbSpline
210
0.0
220
0.0
230
1.0
 70
    11
 71
     3
 72
    23
 73
    19
 74
     0
 42
0.0000000001
 43
0.0000000001
 40
0.0
 40
0.0
 40
0.0
 40
0.0
 40
1.0
 40
1.0
 40
1.0
 40
2.0
 40
2.0
 40
2.0
 40
3.0
 40
3.0
 40
3.0
 40
4.0
 40
4.0
 40
4.0
 40
5.0
 40
5.0
 40
5.0
 40
6.0
 40
6.0
 40
6.0
 40
6.0
 10
147.3332980317431
 20
-208.1464680469217
 30
0.0
 10
147.3332980317431
 20
-208.1464680469217
 30
0.0
 10
147.326063331224
 20
-210.4701849517227
 30
0.0
 10
147.326063331224
 20
-210.4701849517227
 30
0.0
 10
145.3506455799818
 20
-210.5411539187189
 30
0.0
 10
143.4138128981743
 20
-211.059640789249
 30
0.0
 10
141.6630153725704
 20
-211.9753471692284
 30
0.0
 10
141.6630153725704
 20
-211.9753471692284
 30
0.0
 10
140.0706922392879
 20
-209.198600208117
 30
0.0
 10
140.0706922392879
 20
-209.198600208117
 30
0.0
 10
141.7353623777606
 20
-208.3118326302137
 30
0.0
 10
143.5371473165463
 20
-207.7144530730714
 30
0.0
 10
145.3964653499356
 20
-207.4391899437999
 30
0.0
 10
145.4622666737039
 20
-207.4822536373655
 30
0.0
 10
145.5256564306325
 20
-207.5284179168679
 30
0.0
 10
145.5945583403375
 20
-207.5683810244968
 30
0.0
 10
146.1464626370745
 20
-207.8891194141736
 30
0.0
 10
146.7379855318919
 20
-208.0775661372167
 30
0.0
 10
147.3332980317431
 20
-208.1464680469217
 30
0.0
  0
SPLINE
  5
1D5
330
1BB
100
AcDbEntity
  8
\U+838C\U+8343\U+8384\U+815B_1
 62
    29
100
AcDbSpline
210
0.0
220
0.0
230
1.0
 70
    11
 71
     3
 72
    23
 73
    19
 74
     0
 42
0.0000000001
 43
0.0000000001
 40
0.0
 40
0.0
 40
0.0
 40
0.0
 40
1.0
 40
1.0
 40
1.0
 40
2.0
 40
2.0
 40
2.0
 40
3.0
 40
3.0
 40
3.0
 40
4.0
 40
4.0
 40
4.0
 40
5.0
 40
5.0
 40
5.0
 40
6.0
 40
6.0
 40
6.0
 40
6.0
 10
164.0792181664455
 20
-221.9072129436551
 30
0.0
 10
163.4291286483788
 20
-221.8755180651908
 30
0.0
 10
162.7842067735401
 20
-222.1910888116397
 30
0.0
 10
162.4341850722387
 20
-222.7926024833644
 30
0.0
 10
162.3577039524661
 20
-222.9245496404494
 30
0.0
 10
162.3060275201874
 20
-223.0630424789565
 30
0.0
 10
162.26571990301
 20
-223.2036023747547
 30
0.0
 10
162.26571990301
 20
-223.2036023747547
 30
0.0
 10
160.9713975292016
 20
-223.1998127697209
 30
0.0
 10
160.9713975292016
 20
-223.1998127697209
 30
0.0
 10
160.9004285622055
 20
-221.2254285471242
 30
0.0
 10
160.3926214876796
 20
-219.28549527938
 30
0.0
 10
159.4765705981517
 20
-217.534008734679
 30
0.0
 10
159.4765705981517
 20
-217.534008734679
 30
0.0
 10
162.2546955974572
 20
-215.941341091848
 30
0.0
 10
162.2546955974572
 20
-215.941341091848
 30
0.0
 10
163.2417154539812
 20
-217.795835991558
 30
0.0
 10
163.8535644121616
 20
-219.8246527228216
 30
0.0
 10
164.0792181664455
 20
-221.9072129436551
 30
0.0
  0
SPLINE
  5
1D6
330
1BB
100
AcDbEntity
  8
\U+838C\U+8343\U+8384\U+815B_1
 62
    29
100
AcDbSpline
210
0.0
220
0.0
230
1.0
 70
    11
 71
     3
 72
    17
 73
    13
 74
     0
 42
0.0000000001
 43
0.0000000001
 40
0.0
 40
0.0
 40
0.0
 40
0.0
 40
1.0
 40
1.0
 40
1.0
 40
2.0
 40
2.0
 40
2.0
 40
3.0
 40
3.0
 40
3.0
 40
4.0
 40
4.0
 40
4.0
 40
4.0
 10
159.9757649339644
 20
-223.1967121837842
 30
0.0
 10
159.9757649339644
 20
-223.1967121837842
 30
0.0
 10
157.9741644570342
 20
-223.1908555214592
 30
0.0
 10
157.9741644570342
 20
-223.1908555214592
 30
0.0
 10
157.8239582938774
 20
-220.0037976880546
 30
0.0
 10
156.1834038238014
 20
-216.9517875976718
 30
0.0
 10
153.337065933888
 20
-215.1076279844175
 30
0.0
 10
153.337065933888
 20
-215.1076279844175
 30
0.0
 10
154.3423447964839
 20
-213.3788790699192
 30
0.0
 10
154.3423447964839
 20
-213.3788790699192
 30
0.0
 10
157.82568084162
 20
-215.5971760528716
 30
0.0
 10
159.8241807326134
 20
-219.3185681960384
 30
0.0
 10
159.9757649339644
 20
-223.1967121837842
 30
0.0
  0
SPLINE
  5
1D7
330
1BB
100
AcDbEntity
  8
\U+838C\U+8343\U+8384\U+815B_1
 62
    29
100
AcDbSpline
210
0.0
220
0.0
230
1.0
 70
    11
 71
     3
 72
    17
 73
    13
 74
     0
 42
0.0000000001
 43
0.0000000001
 40
0.0
 40
0.0
 40
0.0
 40
0.0
 40
1.0
 40
1.0
 40
1.0
 40
2.0
 40
2.0
 40
2.0
 40
3.0
 40
3.0
 40
3.0
 40
4.0
 40
4.0
 40
4.0
 40
4.0
 10
158.9808213578243
 20
-216.6661891819446
 30
0.0
 10
157.9624511323844
 20
-215.0328694123876
 30
0.0
 10
156.5699435372464
 20
-213.6048773337516
 30
0.0
 10
154.8453287373303
 20
-212.5134710840244
 30
0.0
 10
154.8453287373303
 20
-212.5134710840244
 30
0.0
 10
156.453499309845
 20
-209.7470594093688
 30
0.0
 10
156.453499309845
 20
-209.7470594093688
 30
0.0
 10
158.6804090315105
 20
-211.1333658326333
 30
0.0
 10
160.4691026074522
 20
-212.9678791785289
 30
0.0
 10
161.7596353762268
 20
-215.0721435009195
 30
0.0
 10
161.7596353762268
 20
-215.0721435009195
 30
0.0
 10
158.9808213578243
 20
-216.6661891819446
 30
0.0
 10
158.9808213578243
 20
-216.6661891819446
 30
0.0
  0
SPLINE
  5
1D8
330
1BB
100
AcDbEntity
  8
\U+838C\U+8343\U+8384\U+815B_1
 62
    29
100
AcDbSpline
210
0.0
220
0.0
230
1.0
 70
    11
 71
     3
 72
    20
 73
    16
 74
     0
 42
0.0000000001
 43
0.0000000001
 40
0.0
 40
0.0
 40
0.0
 40
0.0
 40
1.0
 40
1.0
 40
1.0
 40
2.0
 40
2.0
 40
2.0
 40
3.0
 40
3.0
 40
3.0
 40
4.0
 40
4.0
 40
4.0
 40
5.0
 40
5.0
 40
5.0
 40
5.0
 10
153.9806097705326
 20
-212.010487143178
 30
0.0
 10
152.178824831747
 20
-211.0517170696329
 30
0.0
 10
150.2485378313615
 20
-210.5483886192379
 30
0.0
 10
148.3261745505921
 20
-210.4719074994654
 30
0.0
 10
148.3261745505921
 20
-210.4719074994654
 30
0.0
 10
148.3327202320141
 20
-208.1502576519555
 30
0.0
 10
148.3327202320141
 20
-208.1502576519555
 30
0.0
 10
149.0300075582286
 20
-208.0741210417315
 30
0.0
 10
149.7045572542405
 20
-207.8374429818948
 30
0.0
 10
150.2978026968005
 20
-207.454348363935
 30
0.0
 10
152.1064778265567
 20
-207.7340901173373
 30
0.0
 10
153.8951714024984
 20
-208.323201445315
 30
0.0
 10
155.5905028907899
 20
-209.2409748825856
 30
0.0
 10
155.5905028907899
 20
-209.2409748825856
 30
0.0
 10
153.9806097705326
 20
-212.010487143178
 30
0.0
 10
153.9806097705326
 20
-212.010487143178
 30
0.0
  0
SPLINE
  5
1D9
330
1BB
100
AcDbEntity
  8
\U+838C\U+8343\U+8384\U+815B_1
 62
    29
100
AcDbSpline
210
0.0
220
0.0
230
1.0
 70
    11
 71
     3
 72
    17
 73
    13
 74
     0
 42
0.0000000001
 43
0.0000000001
 40
0.0
 40
0.0
 40
0.0
 40
0.0
 40
1.0
 40
1.0
 40
1.0
 40
2.0
 40
2.0
 40
2.0
 40
3.0
 40
3.0
 40
3.0
 40
4.0
 40
4.0
 40
4.0
 40
4.0
 10
153.4772813201376
 20
-212.8762396386212
 30
0.0
 10
153.4772813201376
 20
-212.8762396386212
 30
0.0
 10
152.4723469670903
 20
-214.6046440435711
 30
0.0
 10
152.4723469670903
 20
-214.6046440435711
 30
0.0
 10
149.4613335129819
 20
-213.0443602983014
 30
0.0
 10
145.9976345121117
 20
-213.1284206281415
 30
0.0
 10
143.1530191699409
 20
-214.5746717128494
 30
0.0
 10
143.1530191699409
 20
-214.5746717128494
 30
0.0
 10
142.1577310842522
 20
-212.838688097832
 30
0.0
 10
142.1577310842522
 20
-212.838688097832
 30
0.0
 10
145.6024820599536
 20
-211.0510280505359
 30
0.0
 10
149.8251355962243
 20
-210.9462971477843
 30
0.0
 10
153.4772813201376
 20
-212.8762396386212
 30
0.0
  0
SPLINE
  5
1DA
330
1BB
100
AcDbEntity
  8
\U+838C\U+8343\U+8384\U+815B_1
 62
    29
100
AcDbSpline
210
0.0
220
0.0
230
1.0
 70
    11
 71
     3
 72
    14
 73
    10
 74
     0
 42
0.0000000001
 43
0.0000000001
 40
0.0
 40
0.0
 40
0.0
 40
0.0
 40
1.0
 40
1.0
 40
1.0
 40
2.0
 40
2.0
 40
2.0
 40
3.0
 40
3.0
 40
3.0
 40
3.0
 10
150.9599500490656
 20
-217.2063801540317
 30
0.0
 10
150.9599500490656
 20
-217.2063801540317
 30
0.0
 10
147.6054605750778
 20
-222.9765705822767
 30
0.0
 10
147.6054605750778
 20
-222.9765705822767
 30
0.0
 10
147.6054605750778
 20
-222.9765705822767
 30
0.0
 10
141.8345811277358
 20
-219.6217365987404
 30
0.0
 10
141.8345811277358
 20
-219.6217365987404
 30
0.0
 10
143.8451388529276
 20
-216.6541313477462
 30
0.0
 10
147.7442979231334
 20
-215.6219807403654
 30
0.0
 10
150.9599500490656
 20
-217.2063801540317
 30
0.0
  0
SPLINE
  5
1DB
330
1BB
100
AcDbEntity
  8
\U+838C\U+8343\U+8384\U+815B_1
 62
    29
100
AcDbSpline
210
0.0
220
0.0
230
1.0
 70
    11
 71
     3
 72
    14
 73
    10
 74
     0
 42
0.0000000001
 43
0.0000000001
 40
0.0
 40
0.0
 40
0.0
 40
0.0
 40
1.0
 40
1.0
 40
1.0
 40
2.0
 40
2.0
 40
2.0
 40
3.0
 40
3.0
 40
3.0
 40
3.0
 10
151.8246690158633
 20
-217.7093640948782
 30
0.0
 10
154.792618776406
 20
-219.7195773105215
 30
0.0
 10
155.8251138933354
 20
-223.6187363807273
 30
0.0
 10
154.240714479669
 20
-226.8340439971109
 30
0.0
 10
154.240714479669
 20
-226.8340439971109
 30
0.0
 10
148.470524051424
 20
-223.4795545231232
 30
0.0
 10
148.470524051424
 20
-223.4795545231232
 30
0.0
 10
148.470524051424
 20
-223.4795545231232
 30
0.0
 10
151.8246690158633
 20
-217.7093640948782
 30
0.0
 10
151.8246690158633
 20
-217.7093640948782
 30
0.0
  0
SPLINE
  5
1DC
330
1BB
100
AcDbEntity
  8
\U+838C\U+8343\U+8384\U+815B_1
 62
    29
100
AcDbSpline
210
0.0
220
0.0
230
1.0
 70
    11
 71
     3
 72
    26
 73
    22
 74
     0
 42
0.0000000001
 43
0.0000000001
 40
0.0
 40
0.0
 40
0.0
 40
0.0
 40
1.0
 40
1.0
 40
1.0
 40
2.0
 40
2.0
 40
2.0
 40
3.0
 40
3.0
 40
3.0
 40
4.0
 40
4.0
 40
4.0
 40
5.0
 40
5.0
 40
5.0
 40
6.0
 40
6.0
 40
6.0
 40
7.0
 40
7.0
 40
7.0
 40
7.0
 10
159.4383300382654
 20
-229.8557372472236
 30
0.0
 10
160.398133640456
 20
-228.0542968179864
 30
0.0
 10
160.8931938616864
 20
-226.1222872698583
 30
0.0
 10
160.9707085101045
 20
-224.1999239890889
 30
0.0
 10
160.9707085101045
 20
-224.1999239890889
 30
0.0
 10
162.2674424507526
 20
-224.2040581036712
 30
0.0
 10
162.2674424507526
 20
-224.2040581036712
 30
0.0
 10
162.3928439264157
 20
-224.6302164151966
 30
0.0
 10
162.6712076416239
 20
-225.0122775045108
 30
0.0
 10
163.0856526284994
 20
-225.2534341884783
 30
0.0
 10
163.3988118081086
 20
-225.435679739648
 30
0.0
 10
163.7440103757307
 20
-225.5097492925809
 30
0.0
 10
164.0802516950911
 20
-225.4921793056061
 30
0.0
 10
163.9224663218666
 20
-226.9177598174025
 30
0.0
 10
163.5779567733416
 20
-228.3371391573255
 30
0.0
 10
163.0294975720899
 20
-229.7141438227798
 30
0.0
 10
162.4279839003652
 20
-230.0217908496126
 30
0.0
 10
161.8912380237633
 20
-230.4668971863069
 30
0.0
 10
161.4688693172717
 20
-231.0360269604702
 30
0.0
 10
161.4688693172717
 20
-231.0360269604702
 30
0.0
 10
159.4383300382654
 20
-229.8557372472236
 30
0.0
 10
159.4383300382654
 20
-229.8557372472236
 30
0.0
  0
SPLINE
  5
1DD
330
1BB
100
AcDbEntity
  8
\U+838C\U+8343\U+8384\U+815B_1
 62
    29
100
AcDbSpline
210
0.0
220
0.0
230
1.0
 70
    11
 71
     3
 72
    20
 73
    16
 74
     0
 42
0.0000000001
 43
0.0000000001
 40
0.0
 40
0.0
 40
0.0
 40
0.0
 40
1.0
 40
1.0
 40
1.0
 40
2.0
 40
2.0
 40
2.0
 40
3.0
 40
3.0
 40
3.0
 40
4.0
 40
4.0
 40
4.0
 40
5.0
 40
5.0
 40
5.0
 40
5.0
 10
169.5772460513557
 20
-233.7132106620578
 30
0.0
 10
169.5751789940645
 20
-232.1653292605351
 30
0.0
 10
168.7779838987777
 20
-230.6598225334809
 30
0.0
 10
167.3424126100741
 20
-229.8254204069534
 30
0.0
 10
166.3705511736852
 20
-229.2600802378239
 30
0.0
 10
165.2743217902787
 20
-229.1036729027935
 30
0.0
 10
164.2497503929654
 20
-229.2972872690646
 30
0.0
 10
164.4847059050594
 20
-228.613091305694
 30
0.0
 10
164.6714300803599
 20
-227.9202826036102
 30
0.0
 10
164.8175021289345
 20
-227.2236842964927
 30
0.0
 10
164.8175021289345
 20
-227.2236842964927
 30
0.0
 10
171.3177082905039
 20
-228.3901936277983
 30
0.0
 10
171.3177082905039
 20
-228.3901936277983
 30
0.0
 10
170.9545952263586
 20
-230.1964571907148
 30
0.0
 10
170.3778862421278
 20
-231.9823946902683
 30
0.0
 10
169.5772460513557
 20
-233.7132106620578
 30
0.0
  0
SPLINE
  5
1DE
330
1BB
100
AcDbEntity
  8
\U+838C\U+8343\U+8384\U+815B_1
 62
    29
100
AcDbSpline
210
0.0
220
0.0
230
1.0
 70
    11
 71
     3
 72
    26
 73
    22
 74
     0
 42
0.0000000001
 43
0.0000000001
 40
0.0
 40
0.0
 40
0.0
 40
0.0
 40
1.0
 40
1.0
 40
1.0
 40
2.0
 40
2.0
 40
2.0
 40
3.0
 40
3.0
 40
3.0
 40
4.0
 40
4.0
 40
4.0
 40
5.0
 40
5.0
 40
5.0
 40
6.0
 40
6.0
 40
6.0
 40
7.0
 40
7.0
 40
7.0
 40
7.0
 10
171.4927191411546
 20
-227.4052408285654
 30
0.0
 10
171.4927191411546
 20
-227.4052408285654
 30
0.0
 10
164.9932019986823
 20
-226.2394205163568
 30
0.0
 10
164.9932019986823
 20
-226.2394205163568
 30
0.0
 10
165.0510796028344
 20
-225.8552923697515
 30
0.0
 10
165.0931097677545
 20
-225.4715087326946
 30
0.0
 10
165.1254936653158
 20
-225.0870360765408
 30
0.0
 10
165.2887911913167
 20
-224.9540553908101
 30
0.0
 10
165.4341742207942
 20
-224.7942029602945
 30
0.0
 10
165.5464843336134
 20
-224.6016221226691
 30
0.0
 10
165.6188313388036
 20
-224.476909666103
 30
0.0
 10
165.6698187519853
 20
-224.346340547212
 30
0.0
 10
165.7104708787113
 20
-224.2140488805784
 30
0.0
 10
165.7104708787113
 20
-224.2140488805784
 30
0.0
 10
169.898328950581
 20
-224.2264512243253
 30
0.0
 10
169.898328950581
 20
-224.2264512243253
 30
0.0
 10
169.898328950581
 20
-224.2264512243253
 30
0.0
 10
171.7765950091392
 20
-224.2323078866503
 30
0.0
 10
171.7765950091392
 20
-224.2323078866503
 30
0.0
 10
171.7524793407424
 20
-225.289952200622
 30
0.0
 10
171.6591172530922
 20
-226.3496635718848
 30
0.0
 10
171.4927191411546
 20
-227.4052408285654
 30
0.0
  0
SPLINE
  5
1DF
330
1BB
100
AcDbEntity
  8
\U+838C\U+8343\U+8384\U+815B_1
 62
    29
100
AcDbSpline
210
0.0
220
0.0
230
1.0
 70
    11
 71
     3
 72
    23
 73
    19
 74
     0
 42
0.0000000001
 43
0.0000000001
 40
0.0
 40
0.0
 40
0.0
 40
0.0
 40
1.0
 40
1.0
 40
1.0
 40
2.0
 40
2.0
 40
2.0
 40
3.0
 40
3.0
 40
3.0
 40
4.0
 40
4.0
 40
4.0
 40
5.0
 40
5.0
 40
5.0
 40
6.0
 40
6.0
 40
6.0
 40
6.0
 10
171.7779730473333
 20
-223.2321966672822
 30
0.0
 10
171.7779730473333
 20
-223.2321966672822
 30
0.0
 10
168.8558430567444
 20
-223.2232394190206
 30
0.0
 10
168.8558430567444
 20
-223.2232394190206
 30
0.0
 10
168.8558430567444
 20
-223.2232394190206
 30
0.0
 10
165.7218396938126
 20
-223.2135931516619
 30
0.0
 10
165.7218396938126
 20
-223.2135931516619
 30
0.0
 10
165.6250325106771
 20
-222.8659830172002
 30
0.0
 10
165.4207383484018
 20
-222.5497232516543
 30
0.0
 10
165.1289387608011
 20
-222.3102891154294
 30
0.0
 10
165.0986219205309
 20
-221.9337401788916
 30
0.0
 10
165.0590033224505
 20
-221.5585692805479
 30
0.0
 10
165.0052598328806
 20
-221.1847764203983
 30
0.0
 10
165.0052598328806
 20
-221.1847764203983
 30
0.0
 10
171.5068440326441
 20
-220.0582301967216
 30
0.0
 10
171.5068440326441
 20
-220.0582301967216
 30
0.0
 10
171.6663519536112
 20
-221.1069172624316
 30
0.0
 10
171.7579914935188
 20
-222.166973143243
 30
0.0
 10
171.7779730473333
 20
-223.2321966672822
 30
0.0
  0
SPLINE
  5
1E0
330
1BB
100
AcDbEntity
  8
\U+838C\U+8343\U+8384\U+815B_1
 62
    29
100
AcDbSpline
210
0.0
220
0.0
230
1.0
 70
    11
 71
     3
 72
    17
 73
    13
 74
     0
 42
0.0000000001
 43
0.0000000001
 40
0.0
 40
0.0
 40
0.0
 40
0.0
 40
1.0
 40
1.0
 40
1.0
 40
2.0
 40
2.0
 40
2.0
 40
3.0
 40
3.0
 40
3.0
 40
4.0
 40
4.0
 40
4.0
 40
4.0
 10
171.3352782774787
 20
-219.0729328879401
 30
0.0
 10
171.3352782774787
 20
-219.0729328879401
 30
0.0
 10
164.8354166254578
 20
-220.1991346020683
 30
0.0
 10
164.8354166254578
 20
-220.1991346020683
 30
0.0
 10
164.699679863339
 20
-219.533542154318
 30
0.0
 10
164.5260470508824
 20
-218.8769069548294
 30
0.0
 10
164.3141736785395
 20
-218.2319850799906
 30
0.0
 10
164.3141736785395
 20
-218.2319850799906
 30
0.0
 10
170.5205131952171
 20
-215.9940510527723
 30
0.0
 10
170.5205131952171
 20
-215.9940510527723
 30
0.0
 10
170.8601996100627
 20
-217.0017414822079
 30
0.0
 10
171.1316731343004
 20
-218.030102484555
 30
0.0
 10
171.3352782774787
 20
-219.0729328879401
 30
0.0
  0
SPLINE
  5
1E1
330
1BB
100
AcDbEntity
  8
\U+838C\U+8343\U+8384\U+815B_1
 62
    29
100
AcDbSpline
210
0.0
220
0.0
230
1.0
 70
    11
 71
     3
 72
    20
 73
    16
 74
     0
 42
0.0000000001
 43
0.0000000001
 40
0.0
 40
0.0
 40
0.0
 40
0.0
 40
1.0
 40
1.0
 40
1.0
 40
2.0
 40
2.0
 40
2.0
 40
3.0
 40
3.0
 40
3.0
 40
4.0
 40
4.0
 40
4.0
 40
5.0
 40
5.0
 40
5.0
 40
5.0
 10
170.1822048185656
 20
-215.0528509662021
 30
0.0
 10
170.1822048185656
 20
-215.0528509662021
 30
0.0
 10
163.9744872636939
 20
-217.2918185220659
 30
0.0
 10
163.9744872636939
 20
-217.2918185220659
 30
0.0
 10
163.7267848983044
 20
-216.6610215387167
 30
0.0
 10
163.4442870685139
 20
-216.0429714086629
 30
0.0
 10
163.1235486788372
 20
-215.4435247942294
 30
0.0
 10
163.1235486788372
 20
-215.4435247942294
 30
0.0
 10
165.3673393683804
 20
-214.1564371209401
 30
0.0
 10
165.3673393683804
 20
-214.1564371209401
 30
0.0
 10
165.3673393683804
 20
-214.1564371209401
 30
0.0
 10
168.8479193371283
 20
-212.1606933063348
 30
0.0
 10
168.8479193371283
 20
-212.1606933063348
 30
0.0
 10
169.3574489593967
 20
-213.0963812401287
 30
0.0
 10
169.802555296091
 20
-214.0623860141928
 30
0.0
 10
170.1822048185656
 20
-215.0528509662021
 30
0.0
  0
SPLINE
  5
1E2
330
1BB
100
AcDbEntity
  8
\U+838C\U+8343\U+8384\U+815B_1
 62
    29
100
AcDbSpline
210
0.0
220
0.0
230
1.0
 70
    11
 71
     3
 72
    17
 73
    13
 74
     0
 42
0.0000000001
 43
0.0000000001
 40
0.0
 40
0.0
 40
0.0
 40
0.0
 40
1.0
 40
1.0
 40
1.0
 40
2.0
 40
2.0
 40
2.0
 40
3.0
 40
3.0
 40
3.0
 40
4.0
 40
4.0
 40
4.0
 40
4.0
 10
168.3525146063494
 20
-211.2921847345034
 30
0.0
 10
168.3525146063494
 20
-211.2921847345034
 30
0.0
 10
162.6284884576068
 20
-214.5743272033009
 30
0.0
 10
162.6284884576068
 20
-214.5743272033009
 30
0.0
 10
162.2760551894657
 20
-213.9976182190701
 30
0.0
 10
161.8843478327928
 20
-213.4412352982022
 30
0.0
 10
161.4633571644953
 20
-212.9048339311488
 30
0.0
 10
161.4633571644953
 20
-212.9048339311488
 30
0.0
 10
166.5359157569771
 20
-208.6746011848105
 30
0.0
 10
166.5359157569771
 20
-208.6746011848105
 30
0.0
 10
167.2028862429215
 20
-209.5096923304351
 30
0.0
 10
167.8078450101314
 20
-210.3847465836886
 30
0.0
 10
168.3525146063494
 20
-211.2921847345034
 30
0.0
  0
SPLINE
  5
1E3
330
1BB
100
AcDbEntity
  8
\U+838C\U+8343\U+8384\U+815B_1
 62
    29
100
AcDbSpline
210
0.0
220
0.0
230
1.0
 70
    11
 71
     3
 72
    17
 73
    13
 74
     0
 42
0.0000000001
 43
0.0000000001
 40
0.0
 40
0.0
 40
0.0
 40
0.0
 40
1.0
 40
1.0
 40
1.0
 40
2.0
 40
2.0
 40
2.0
 40
3.0
 40
3.0
 40
3.0
 40
4.0
 40
4.0
 40
4.0
 40
4.0
 10
165.8968505444633
 20
-207.9049668534057
 30
0.0
 10
165.8968505444633
 20
-207.9049668534057
 30
0.0
 10
160.8225694042388
 20
-212.1365776379381
 30
0.0
 10
160.8225694042388
 20
-212.1365776379381
 30
0.0
 10
160.3760850293504
 20
-211.6311821302519
 30
0.0
 10
159.900661852386
 20
-211.1461126859288
 30
0.0
 10
159.3900987014719
 20
-210.6903265532302
 30
0.0
 10
159.3900987014719
 20
-210.6903265532302
 30
0.0
 10
163.6482367212407
 20
-205.6460177437274
 30
0.0
 10
163.6482367212407
 20
-205.6460177437274
 30
0.0
 10
164.4543890647892
 20
-206.3546738850433
 30
0.0
 10
165.2047308614766
 20
-207.109149796313
 30
0.0
 10
165.8968505444633
 20
-207.9049668534057
 30
0.0
  0
SPLINE
  5
1E4
330
1BB
100
AcDbEntity
  8
\U+838C\U+8343\U+8384\U+815B_1
 62
    29
100
AcDbSpline
210
0.0
220
0.0
230
1.0
 70
    11
 71
     3
 72
    17
 73
    13
 74
     0
 42
0.0000000001
 43
0.0000000001
 40
0.0
 40
0.0
 40
0.0
 40
0.0
 40
1.0
 40
1.0
 40
1.0
 40
2.0
 40
2.0
 40
2.0
 40
3.0
 40
3.0
 40
3.0
 40
4.0
 40
4.0
 40
4.0
 40
4.0
 10
162.8820474853212
 20
-205.0038519452768
 30
0.0
 10
162.8820474853212
 20
-205.0038519452768
 30
0.0
 10
158.6232204464553
 20
-210.0478162452311
 30
0.0
 10
158.6232204464553
 20
-210.0478162452311
 30
0.0
 10
158.0978433849547
 20
-209.6302706724188
 30
0.0
 10
157.5411159545383
 20
-209.2416639016826
 30
0.0
 10
156.957516779337
 20
-208.8799288757314
 30
0.0
 10
156.957516779337
 20
-208.8799288757314
 30
0.0
 10
160.2747992220841
 20
-203.1734727139636
 30
0.0
 10
160.2747992220841
 20
-203.1734727139636
 30
0.0
 10
161.1946397166458
 20
-203.7336452398652
 30
0.0
 10
162.0648708362199
 20
-204.3444606694
 30
0.0
 10
162.8820474853212
 20
-205.0038519452768
 30
0.0
  0
SPLINE
  5
1E5
330
1BB
100
AcDbEntity
  8
\U+838C\U+8343\U+8384\U+815B_1
 62
    29
100
AcDbSpline
210
0.0
220
0.0
230
1.0
 70
    11
 71
     3
 72
    17
 73
    13
 74
     0
 42
0.0000000001
 43
0.0000000001
 40
0.0
 40
0.0
 40
0.0
 40
0.0
 40
1.0
 40
1.0
 40
1.0
 40
2.0
 40
2.0
 40
2.0
 40
3.0
 40
3.0
 40
3.0
 40
4.0
 40
4.0
 40
4.0
 40
4.0
 10
159.4090467266408
 20
-202.6725558304083
 30
0.0
 10
159.4090467266408
 20
-202.6725558304083
 30
0.0
 10
156.0924533029908
 20
-208.3772894444335
 30
0.0
 10
156.0924533029908
 20
-208.3772894444335
 30
0.0
 10
155.4895615930721
 20
-208.0489718446892
 30
0.0
 10
154.8756455776006
 20
-207.7571722570885
 30
0.0
 10
154.2527723138674
 20
-207.5070583248593
 30
0.0
 10
154.2527723138674
 20
-207.5070583248593
 30
0.0
 10
156.5286023914234
 20
-201.3141546805743
 30
0.0
 10
156.5286023914234
 20
-201.3141546805743
 30
0.0
 10
157.5056314710403
 20
-201.6962157698885
 30
0.0
 10
158.466813111425
 20
-202.1502793548444
 30
0.0
 10
159.4090467266408
 20
-202.6725558304083
 30
0.0
  0
SPLINE
  5
1E6
330
1BB
100
AcDbEntity
  8
\U+838C\U+8343\U+8384\U+815B_1
 62
    29
100
AcDbSpline
210
0.0
220
0.0
230
1.0
 70
    11
 71
     3
 72
    23
 73
    19
 74
     0
 42
0.0000000001
 43
0.0000000001
 40
0.0
 40
0.0
 40
0.0
 40
0.0
 40
1.0
 40
1.0
 40
1.0
 40
2.0
 40
2.0
 40
2.0
 40
3.0
 40
3.0
 40
3.0
 40
4.0
 40
4.0
 40
4.0
 40
5.0
 40
5.0
 40
5.0
 40
6.0
 40
6.0
 40
6.0
 40
6.0
 10
150.0866183435547
 20
-199.7714409222794
 30
0.0
 10
151.9376681477795
 20
-199.9488633397697
 30
0.0
 10
153.7835503087763
 20
-200.3502169638013
 30
0.0
 10
155.5880913239502
 20
-200.9710231702434
 30
0.0
 10
155.5880913239502
 20
-200.9710231702434
 30
0.0
 10
153.3157063418794
 20
-207.1591036808491
 30
0.0
 10
153.3157063418794
 20
-207.1591036808491
 30
0.0
 10
152.6384005694793
 20
-206.9310383597256
 30
0.0
 10
151.9528265679146
 20
-206.7525824135896
 30
0.0
 10
151.2648409995102
 20
-206.61236702734
 30
0.0
 10
151.4415743979035
 20
-206.405661298225
 30
0.0
 10
151.6048719239043
 20
-206.1834526394264
 30
0.0
 10
151.7468098578966
 20
-205.9395398790707
 30
0.0
 10
152.9960014808482
 20
-203.7911783344689
 30
0.0
 10
152.2677082952664
 20
-201.0375135131087
 30
0.0
 10
150.1179687124705
 20
-199.7876328710601
 30
0.0
 10
150.1076334260148
 20
-199.7817762087351
 30
0.0
 10
150.096609120462
 20
-199.7772975846043
 30
0.0
 10
150.0866183435547
 20
-199.7714409222794
 30
0.0
  0
SPLINE
  5
1E7
330
1BB
100
AcDbEntity
  8
\U+838C\U+8343\U+8384\U+815B_1
 62
    29
100
AcDbSpline
210
0.0
220
0.0
230
1.0
 70
    11
 71
     3
 72
    20
 73
    16
 74
     0
 42
0.0000000001
 43
0.0000000001
 40
0.0
 40
0.0
 40
0.0
 40
0.0
 40
1.0
 40
1.0
 40
1.0
 40
2.0
 40
2.0
 40
2.0
 40
3.0
 40
3.0
 40
3.0
 40
4.0
 40
4.0
 40
4.0
 40
5.0
 40
5.0
 40
5.0
 40
5.0
 10
145.6517469253926
 20
-199.7604166167266
 30
0.0
 10
144.9744411529925
 20
-200.1407551582982
 30
0.0
 10
144.3849853154663
 20
-200.6967935696175
 30
0.0
 10
143.9664062140084
 20
-201.4168185260347
 30
0.0
 10
142.981797924324
 20
-203.110771976132
 30
0.0
 10
143.2312228374561
 20
-205.178518286379
 30
0.0
 10
144.4318386140657
 20
-206.5910074353314
 30
0.0
 10
143.7300726637203
 20
-206.7291557642899
 30
0.0
 10
143.0376084711851
 20
-206.9093342581685
 30
0.0
 10
142.3582356414938
 20
-207.1322319360642
 30
0.0
 10
142.3582356414938
 20
-207.1322319360642
 30
0.0
 10
140.1189235760814
 20
-200.9238253620954
 30
0.0
 10
140.1189235760814
 20
-200.9238253620954
 30
0.0
 10
141.9089951902172
 20
-200.3223116903708
 30
0.0
 10
143.7665906758639
 20
-199.9306043336979
 30
0.0
 10
145.6517469253926
 20
-199.7604166167266
 30
0.0
  0
SPLINE
  5
1E8
330
1BB
100
AcDbEntity
  8
\U+838C\U+8343\U+8384\U+815B_1
 62
    29
100
AcDbSpline
210
0.0
220
0.0
230
1.0
 70
    11
 71
     3
 72
    20
 73
    16
 74
     0
 42
0.0000000001
 43
0.0000000001
 40
0.0
 40
0.0
 40
0.0
 40
0.0
 40
1.0
 40
1.0
 40
1.0
 40
2.0
 40
2.0
 40
2.0
 40
3.0
 40
3.0
 40
3.0
 40
4.0
 40
4.0
 40
4.0
 40
5.0
 40
5.0
 40
5.0
 40
5.0
 10
139.1791015277052
 20
-201.2645453055866
 30
0.0
 10
139.1791015277052
 20
-201.2645453055866
 30
0.0
 10
141.4170355549235
 20
-207.4722628604583
 30
0.0
 10
141.4170355549235
 20
-207.4722628604583
 30
0.0
 10
140.7865830811228
 20
-207.7203097353963
 30
0.0
 10
140.169221970166
 20
-208.0028075651868
 30
0.0
 10
139.5690863366355
 20
-208.323201445315
 30
0.0
 10
139.5690863366355
 20
-208.323201445315
 30
0.0
 10
138.3019802171606
 20
-206.1142062201729
 30
0.0
 10
138.3019802171606
 20
-206.1142062201729
 30
0.0
 10
138.3019802171606
 20
-206.1142062201729
 30
0.0
 10
136.2852213200954
 20
-202.5960747106357
 30
0.0
 10
136.2852213200954
 20
-202.5960747106357
 30
0.0
 10
137.2202202347922
 20
-202.0865450883673
 30
0.0
 10
138.1886365756959
 20
-201.6438503185126
 30
0.0
 10
139.1791015277052
 20
-201.2645453055866
 30
0.0
  0
SPLINE
  5
1E9
330
1BB
100
AcDbEntity
  8
\U+838C\U+8343\U+8384\U+815B_1
 62
    29
100
AcDbSpline
210
0.0
220
0.0
230
1.0
 70
    11
 71
     3
 72
    20
 73
    16
 74
     0
 42
0.0000000001
 43
0.0000000001
 40
0.0
 40
0.0
 40
0.0
 40
0.0
 40
1.0
 40
1.0
 40
1.0
 40
2.0
 40
2.0
 40
2.0
 40
3.0
 40
3.0
 40
3.0
 40
4.0
 40
4.0
 40
4.0
 40
5.0
 40
5.0
 40
5.0
 40
5.0
 10
135.4177462769095
 20
-203.0942355178028
 30
0.0
 10
135.4177462769095
 20
-203.0942355178028
 30
0.0
 10
136.2507703652429
 20
-204.5459987552871
 30
0.0
 10
136.2507703652429
 20
-204.5459987552871
 30
0.0
 10
136.2507703652429
 20
-204.5459987552871
 30
0.0
 10
138.7002332552555
 20
-208.818606176094
 30
0.0
 10
138.7002332552555
 20
-208.818606176094
 30
0.0
 10
138.1228352519276
 20
-209.1706949346865
 30
0.0
 10
137.5667968406083
 20
-209.5617132722624
 30
0.0
 10
137.0307399831034
 20
-209.983392959657
 30
0.0
 10
137.0307399831034
 20
-209.983392959657
 30
0.0
 10
132.7994737081196
 20
-204.9098008385295
 30
0.0
 10
132.7994737081196
 20
-204.9098008385295
 30
0.0
 10
133.6345648537441
 20
-204.2435193716822
 30
0.0
 10
134.5099636165461
 20
-203.6382160949238
 30
0.0
 10
135.4177462769095
 20
-203.0942355178028
 30
0.0
  0
SPLINE
  5
1EA
330
1BB
100
AcDbEntity
  8
\U+838C\U+8343\U+8384\U+815B_1
 62
    29
100
AcDbSpline
210
0.0
220
0.0
230
1.0
 70
    11
 71
     3
 72
    17
 73
    13
 74
     0
 42
0.0000000001
 43
0.0000000001
 40
0.0
 40
0.0
 40
0.0
 40
0.0
 40
1.0
 40
1.0
 40
1.0
 40
2.0
 40
2.0
 40
2.0
 40
3.0
 40
3.0
 40
3.0
 40
4.0
 40
4.0
 40
4.0
 40
4.0
 10
132.0319064340059
 20
-205.5516221274316
 30
0.0
 10
132.0319064340059
 20
-205.5516221274316
 30
0.0
 10
136.2624836898927
 20
-210.6238362103649
 30
0.0
 10
136.2624836898927
 20
-210.6238362103649
 30
0.0
 10
135.7570881822066
 20
-211.0706650948018
 30
0.0
 10
135.2720187378834
 20
-211.5457437622177
 30
0.0
 10
134.8158880956363
 20
-212.0559624035832
 30
0.0
 10
134.8158880956363
 20
-212.0559624035832
 30
0.0
 10
129.771923795682
 20
-207.7985134029115
 30
0.0
 10
129.771923795682
 20
-207.7985134029115
 30
0.0
 10
130.4802354274494
 20
-206.9930500784601
 30
0.0
 10
131.2357448673647
 20
-206.2433973008697
 30
0.0
 10
132.0319064340059
 20
-205.5516221274316
 30
0.0
  0
SPLINE
  5
1EB
330
1BB
100
AcDbEntity
  8
\U+838C\U+8343\U+8384\U+815B_1
 62
    29
100
AcDbSpline
210
0.0
220
0.0
230
1.0
 70
    11
 71
     3
 72
    17
 73
    13
 74
     0
 42
0.0000000001
 43
0.0000000001
 40
0.0
 40
0.0
 40
0.0
 40
0.0
 40
1.0
 40
1.0
 40
1.0
 40
2.0
 40
2.0
 40
2.0
 40
3.0
 40
3.0
 40
3.0
 40
4.0
 40
4.0
 40
4.0
 40
4.0
 10
127.2952446513359
 20
-211.1695393352284
 30
0.0
 10
127.8557616867861
 20
-210.2496988406668
 30
0.0
 10
128.4676106449664
 20
-209.3791232115441
 30
0.0
 10
129.1263129017462
 20
-208.5626355815399
 30
0.0
 10
129.1263129017462
 20
-208.5626355815399
 30
0.0
 10
134.1740668067343
 20
-212.8231851681484
 30
0.0
 10
134.1740668067343
 20
-212.8231851681484
 30
0.0
 10
133.7558322148249
 20
-213.348562229649
 30
0.0
 10
133.3675699536373
 20
-213.9059786791624
 30
0.0
 10
133.0061794372346
 20
-214.4895778543637
 30
0.0
 10
133.0061794372346
 20
-214.4895778543637
 30
0.0
 10
127.2952446513359
 20
-211.1695393352284
 30
0.0
 10
127.2952446513359
 20
-211.1695393352284
 30
0.0
  0
SPLINE
  5
1EC
330
1BB
100
AcDbEntity
  8
\U+838C\U+8343\U+8384\U+815B_1
 62
    29
100
AcDbSpline
210
0.0
220
0.0
230
1.0
 70
    11
 71
     3
 72
    17
 73
    13
 74
     0
 42
0.0000000001
 43
0.0000000001
 40
0.0
 40
0.0
 40
0.0
 40
0.0
 40
1.0
 40
1.0
 40
1.0
 40
2.0
 40
2.0
 40
2.0
 40
3.0
 40
3.0
 40
3.0
 40
4.0
 40
4.0
 40
4.0
 40
4.0
 10
133.8722764422264
 20
-214.9929063047587
 30
0.0
 10
135.2578938463939
 20
-212.7656520735447
 30
0.0
 10
137.0996418928084
 20
-210.9862602554132
 30
0.0
 10
139.2025281770049
 20
-209.6950384675415
 30
0.0
 10
139.2025281770049
 20
-209.6950384675415
 30
0.0
 10
140.7941622911904
 20
-212.4704073904588
 30
0.0
 10
140.7941622911904
 20
-212.4704073904588
 30
0.0
 10
139.1611870311819
 20
-213.4887776158986
 30
0.0
 10
137.727338290221
 20
-214.8747395296147
 30
0.0
 10
136.6366210595909
 20
-216.6000433486278
 30
0.0
 10
136.6366210595909
 20
-216.6000433486278
 30
0.0
 10
133.8722764422264
 20
-214.9929063047587
 30
0.0
 10
133.8722764422264
 20
-214.9929063047587
 30
0.0
  0
SPLINE
  5
1ED
330
1BB
100
AcDbEntity
  8
\U+838C\U+8343\U+8384\U+815B_1
 62
    29
100
AcDbSpline
210
0.0
220
0.0
230
1.0
 70
    11
 71
     3
 72
    23
 73
    19
 74
     0
 42
0.0000000001
 43
0.0000000001
 40
0.0
 40
0.0
 40
0.0
 40
0.0
 40
1.0
 40
1.0
 40
1.0
 40
2.0
 40
2.0
 40
2.0
 40
3.0
 40
3.0
 40
3.0
 40
4.0
 40
4.0
 40
4.0
 40
5.0
 40
5.0
 40
5.0
 40
6.0
 40
6.0
 40
6.0
 40
6.0
 10
141.2895670219693
 20
-213.334781847708
 30
0.0
 10
141.2895670219693
 20
-213.334781847708
 30
0.0
 10
142.285544126755
 20
-215.0717989913709
 30
0.0
 10
142.285544126755
 20
-215.0717989913709
 30
0.0
 10
140.9615939317735
 20
-215.9179144425483
 30
0.0
 10
139.8123100778942
 20
-217.0816676974657
 30
0.0
 10
138.9682616840079
 20
-218.5337754444985
 30
0.0
 10
138.1242132901217
 20
-219.9862277010799
 30
0.0
 10
137.6815185202671
 20
-221.5602918282905
 30
0.0
 10
137.6009032859123
 20
-223.1302218409188
 30
0.0
 10
137.6009032859123
 20
-223.1302218409188
 30
0.0
 10
135.5989582994336
 20
-223.1240206690454
 30
0.0
 10
135.5989582994336
 20
-223.1240206690454
 30
0.0
 10
135.6812960815311
 20
-221.2144042415714
 30
0.0
 10
136.2121852958081
 20
-219.2958305658358
 30
0.0
 10
137.2395127695096
 20
-217.5288410914511
 30
0.0
 10
138.2668402432111
 20
-215.7618516170665
 30
0.0
 10
139.6710611629989
 20
-214.3514295254052
 30
0.0
 10
141.2895670219693
 20
-213.334781847708
 30
0.0
  0
SPLINE
  5
1EE
330
1BB
100
AcDbEntity
  8
\U+838C\U+8343\U+8384\U+815B_1
 62
    29
100
AcDbSpline
210
0.0
220
0.0
230
1.0
 70
    11
 71
     3
 72
    17
 73
    13
 74
     0
 42
0.0000000001
 43
0.0000000001
 40
0.0
 40
0.0
 40
0.0
 40
0.0
 40
1.0
 40
1.0
 40
1.0
 40
2.0
 40
2.0
 40
2.0
 40
3.0
 40
3.0
 40
3.0
 40
4.0
 40
4.0
 40
4.0
 40
4.0
 10
126.792605220038
 20
-212.0342583020262
 30
0.0
 10
126.792605220038
 20
-212.0342583020262
 30
0.0
 10
132.5031954963881
 20
-215.3542968211614
 30
0.0
 10
132.5031954963881
 20
-215.3542968211614
 30
0.0
 10
132.1748778966438
 20
-215.9575330406287
 30
0.0
 10
131.8830783090431
 20
-216.5707600370031
 30
0.0
 10
131.632964376814
 20
-217.1939778102848
 30
0.0
 10
131.632964376814
 20
-217.1939778102848
 30
0.0
 10
125.4331705415584
 20
-214.9167696945347
 30
0.0
 10
125.4331705415584
 20
-214.9167696945347
 30
0.0
 10
125.8169541786152
 20
-213.9390515958208
 30
0.0
 10
126.2710177635711
 20
-212.977180936339
 30
0.0
 10
126.792605220038
 20
-212.0342583020262
 30
0.0
  0
SPLINE
  5
1EF
330
1BB
100
AcDbEntity
  8
\U+838C\U+8343\U+8384\U+815B_1
 62
    29
100
AcDbSpline
210
0.0
220
0.0
230
1.0
 70
    11
 71
     3
 72
    17
 73
    13
 74
     0
 42
0.0000000001
 43
0.0000000001
 40
0.0
 40
0.0
 40
0.0
 40
0.0
 40
1.0
 40
1.0
 40
1.0
 40
2.0
 40
2.0
 40
2.0
 40
3.0
 40
3.0
 40
3.0
 40
4.0
 40
4.0
 40
4.0
 40
4.0
 10
125.0890055025819
 20
-215.8559027238138
 30
0.0
 10
125.0890055025819
 20
-215.8559027238138
 30
0.0
 10
131.2846652232552
 20
-218.1317328013698
 30
0.0
 10
131.2846652232552
 20
-218.1317328013698
 30
0.0
 10
131.0665906790389
 20
-218.7800997716939
 30
0.0
 10
130.8936468856794
 20
-219.4367349711825
 30
0.0
 10
130.7551540471723
 20
-220.0968152661564
 30
0.0
 10
130.7551540471723
 20
-220.0968152661564
 30
0.0
 10
124.2542588665059
 20
-218.9303059348508
 30
0.0
 10
124.2542588665059
 20
-218.9303059348508
 30
0.0
 10
124.4613091051694
 20
-217.8964327797273
 30
0.0
 10
124.7393283108291
 20
-216.8694498155743
 30
0.0
 10
125.0890055025819
 20
-215.8559027238138
 30
0.0
  0
SPLINE
  5
1F0
330
1BB
100
AcDbEntity
  8
\U+838C\U+8343\U+8384\U+815B_1
 62
    29
100
AcDbSpline
210
0.0
220
0.0
230
1.0
 70
    11
 71
     3
 72
    26
 73
    22
 74
     0
 42
0.0000000001
 43
0.0000000001
 40
0.0
 40
0.0
 40
0.0
 40
0.0
 40
1.0
 40
1.0
 40
1.0
 40
2.0
 40
2.0
 40
2.0
 40
3.0
 40
3.0
 40
3.0
 40
4.0
 40
4.0
 40
4.0
 40
5.0
 40
5.0
 40
5.0
 40
6.0
 40
6.0
 40
6.0
 40
7.0
 40
7.0
 40
7.0
 40
7.0
 10
124.077180958564
 20
-219.9145697149866
 30
0.0
 10
124.077180958564
 20
-219.9145697149866
 30
0.0
 10
130.5791096678761
 20
-221.0810790462922
 30
0.0
 10
130.5791096678761
 20
-221.0810790462922
 30
0.0
 10
130.5250216687576
 20
-221.442469562695
 30
0.0
 10
130.4836805229346
 20
-221.8045490981947
 30
0.0
 10
130.4512966253733
 20
-222.1662841241459
 30
0.0
 10
130.2442463867098
 20
-222.3113226440749
 30
0.0
 10
130.0626898546371
 20
-222.498391328924
 30
0.0
 10
129.9272976020668
 20
-222.7316242932754
 30
0.0
 10
129.8570176541677
 20
-222.8525471448077
 30
0.0
 10
129.8063747505345
 20
-222.9782931300193
 30
0.0
 10
129.7664116429056
 20
-223.1067951916191
 30
0.0
 10
129.7664116429056
 20
-223.1067951916191
 30
0.0
 10
124.6387315226598
 20
-223.0912922619355
 30
0.0
 10
124.6387315226598
 20
-223.0912922619355
 30
0.0
 10
124.6387315226598
 20
-223.0912922619355
 30
0.0
 10
123.7946831287736
 20
-223.0888806950958
 30
0.0
 10
123.7946831287736
 20
-223.0888806950958
 30
0.0
 10
123.8184542876218
 20
-222.0308918715756
 30
0.0
 10
123.9104383370779
 20
-220.9704914812157
 30
0.0
 10
124.077180958564
 20
-219.9145697149866
 30
0.0
  0
SPLINE
  5
1F1
330
1BB
100
AcDbEntity
  8
\U+838C\U+8343\U+8384\U+815B_1
 62
    29
100
AcDbSpline
210
0.0
220
0.0
230
1.0
 70
    11
 71
     3
 72
    23
 73
    19
 74
     0
 42
0.0000000001
 43
0.0000000001
 40
0.0
 40
0.0
 40
0.0
 40
0.0
 40
1.0
 40
1.0
 40
1.0
 40
2.0
 40
2.0
 40
2.0
 40
3.0
 40
3.0
 40
3.0
 40
4.0
 40
4.0
 40
4.0
 40
5.0
 40
5.0
 40
5.0
 40
6.0
 40
6.0
 40
6.0
 40
6.0
 10
123.7905490141913
 20
-224.0889919144639
 30
0.0
 10
123.7905490141913
 20
-224.0889919144639
 30
0.0
 10
126.613460254805
 20
-224.0972601436285
 30
0.0
 10
126.613460254805
 20
-224.0972601436285
 30
0.0
 10
126.613460254805
 20
-224.0972601436285
 30
0.0
 10
129.7464300890912
 20
-224.1062173918901
 30
0.0
 10
129.7464300890912
 20
-224.1062173918901
 30
0.0
 10
129.8532280491339
 20
-224.4989582772086
 30
0.0
 10
130.0971408094896
 20
-224.8493244880585
 30
0.0
 10
130.4492295680821
 20
-225.0980603820936
 30
0.0
 10
130.4785128797068
 20
-225.4453260070067
 30
0.0
 10
130.5177869682386
 20
-225.7915581032744
 30
0.0
 10
130.5677408527747
 20
-226.1360676517993
 30
0.0
 10
130.5677408527747
 20
-226.1360676517993
 30
0.0
 10
124.0654676339142
 20
-227.262613875476
 30
0.0
 10
124.0654676339142
 20
-227.262613875476
 30
0.0
 10
123.9049261843016
 20
-226.2142713193145
 30
0.0
 10
123.8112195871028
 20
-225.1542154385031
 30
0.0
 10
123.7905490141913
 20
-224.0889919144639
 30
0.0
  0
SPLINE
  5
1F2
330
1BB
100
AcDbEntity
  8
\U+838C\U+8343\U+8384\U+815B_1
 62
    29
100
AcDbSpline
210
0.0
220
0.0
230
1.0
 70
    11
 71
     3
 72
    20
 73
    16
 74
     0
 42
0.0000000001
 43
0.0000000001
 40
0.0
 40
0.0
 40
0.0
 40
0.0
 40
1.0
 40
1.0
 40
1.0
 40
2.0
 40
2.0
 40
2.0
 40
3.0
 40
3.0
 40
3.0
 40
4.0
 40
4.0
 40
4.0
 40
5.0
 40
5.0
 40
5.0
 40
5.0
 10
124.2349663317885
 20
-228.248255693806
 30
0.0
 10
124.2349663317885
 20
-228.248255693806
 30
0.0
 10
130.7375840601975
 20
-227.1217094701293
 30
0.0
 10
130.7375840601975
 20
-227.1217094701293
 30
0.0
 10
130.8798665037384
 20
-227.8227864013776
 30
0.0
 10
131.0662461694904
 20
-228.5142170652673
 30
0.0
 10
131.2939669810654
 20
-229.1929008758615
 30
0.0
 10
129.4728895075623
 20
-228.8490803464336
 30
0.0
 10
127.5525932840841
 20
-229.655232689982
 30
0.0
 10
126.5683295039482
 20
-231.3488416305308
 30
0.0
 10
126.1490613833933
 20
-232.0695556060451
 30
0.0
 10
125.9582030935104
 20
-232.8591714912644
 30
0.0
 10
125.9637152462869
 20
-233.6367295422853
 30
0.0
 10
125.1771999470043
 20
-231.9128037614663
 30
0.0
 10
124.5977348863853
 20
-230.1030951030645
 30
0.0
 10
124.2349663317885
 20
-228.248255693806
 30
0.0
  0
SPLINE
  5
1F3
330
1BB
100
AcDbEntity
  8
\U+838C\U+8343\U+8384\U+815B_1
 62
    29
100
AcDbSpline
210
0.0
220
0.0
230
1.0
 70
    11
 71
     3
 72
    23
 73
    19
 74
     0
 42
0.0000000001
 43
0.0000000001
 40
0.0
 40
0.0
 40
0.0
 40
0.0
 40
1.0
 40
1.0
 40
1.0
 40
2.0
 40
2.0
 40
2.0
 40
3.0
 40
3.0
 40
3.0
 40
4.0
 40
4.0
 40
4.0
 40
5.0
 40
5.0
 40
5.0
 40
6.0
 40
6.0
 40
6.0
 40
6.0
 10
128.1651312613615
 20
-237.48007806563
 30
0.0
 10
128.1765000764628
 20
-237.4869682566005
 30
0.0
 10
128.1864908533701
 20
-237.4945474666681
 30
0.0
 10
128.1968261398258
 20
-237.5007486385415
 30
0.0
 10
130.3469102321702
 20
-238.7506292805901
 30
0.0
 10
133.0998860344334
 20
-238.0195800186201
 30
0.0
 10
134.3483886382879
 20
-235.8715629835668
 30
0.0
 10
134.4896375531831
 20
-235.6283392423082
 30
0.0
 10
134.6026366850994
 20
-235.3765027623364
 30
0.0
 10
134.694276225007
 20
-235.1205321677824
 30
0.0
 10
135.1569525486761
 20
-235.6490098152197
 30
0.0
 10
135.6506347317124
 20
-236.1557833611
 30
0.0
 10
136.1825574746349
 20
-236.6308620285159
 30
0.0
 10
136.1825574746349
 20
-236.6308620285159
 30
0.0
 10
131.9306206267396
 20
-241.6679361374997
 30
0.0
 10
131.9306206267396
 20
-241.6679361374997
 30
0.0
 10
130.4974609048757
 20
-240.4066866803497
 30
0.0
 10
129.2351779190801
 20
-239.0014322319163
 30
0.0
 10
128.1651312613615
 20
-237.48007806563
 30
0.0
  0
SPLINE
  5
1F4
330
1BB
100
AcDbEntity
  8
\U+838C\U+8343\U+8384\U+815B_1
 62
    29
100
AcDbSpline
210
0.0
220
0.0
230
1.0
 70
    11
 71
     3
 72
    17
 73
    13
 74
     0
 42
0.0000000001
 43
0.0000000001
 40
0.0
 40
0.0
 40
0.0
 40
0.0
 40
1.0
 40
1.0
 40
1.0
 40
2.0
 40
2.0
 40
2.0
 40
3.0
 40
3.0
 40
3.0
 40
4.0
 40
4.0
 40
4.0
 40
4.0
 10
132.6933647671739
 20
-242.3149250696296
 30
0.0
 10
132.6933647671739
 20
-242.3149250696296
 30
0.0
 10
136.9494357296515
 20
-237.273372336515
 30
0.0
 10
136.9494357296515
 20
-237.273372336515
 30
0.0
 10
137.4751573007007
 20
-237.6905733997787
 30
0.0
 10
138.031884731117
 20
-238.0791801705149
 30
0.0
 10
138.6154839063184
 20
-238.4409151964662
 30
0.0
 10
138.6154839063184
 20
-238.4409151964662
 30
0.0
 10
135.2992349922169
 20
-244.1459933200399
 30
0.0
 10
135.2992349922169
 20
-244.1459933200399
 30
0.0
 10
134.3790499881066
 20
-243.5854762845898
 30
0.0
 10
133.509163378081
 20
-242.9750053646035
 30
0.0
 10
132.6933647671739
 20
-242.3149250696296
 30
0.0
  0
SPLINE
  5
1F5
330
1BB
100
AcDbEntity
  8
\U+838C\U+8343\U+8384\U+815B_1
 62
    29
100
AcDbSpline
210
0.0
220
0.0
230
1.0
 70
    11
 71
     3
 72
    17
 73
    13
 74
     0
 42
0.0000000001
 43
0.0000000001
 40
0.0
 40
0.0
 40
0.0
 40
0.0
 40
1.0
 40
1.0
 40
1.0
 40
2.0
 40
2.0
 40
2.0
 40
3.0
 40
3.0
 40
3.0
 40
4.0
 40
4.0
 40
4.0
 40
4.0
 10
147.2530273069368
 20
-204.7158419627099
 30
0.0
 10
146.6804524372882
 20
-204.3830457388348
 30
0.0
 10
146.4861490519201
 20
-203.6485513813795
 30
0.0
 10
146.8189452757953
 20
-203.0756320021825
 30
0.0
 10
147.1524305187675
 20
-202.5023681134369
 30
0.0
 10
147.8869248762227
 20
-202.3080647280688
 30
0.0
 10
148.4591552363227
 20
-202.6408609519439
 30
0.0
 10
149.0327636346168
 20
-202.9743461949161
 30
0.0
 10
149.2270670199849
 20
-203.7084960428229
 30
0.0
 10
148.8935817770127
 20
-204.2814154220199
 30
0.0
 10
148.5607855531376
 20
-204.8546793107655
 30
0.0
 10
147.8269802147794
 20
-205.0493272056821
 30
0.0
 10
147.2530273069368
 20
-204.7158419627099
 30
0.0
  0
SPLINE
  5
1F6
330
1BB
100
AcDbEntity
  8
\U+838C\U+8343\U+8384\U+815B_1
 62
    29
100
AcDbSpline
210
0.0
220
0.0
230
1.0
 70
    11
 71
     3
 72
    17
 73
    13
 74
     0
 42
0.0000000001
 43
0.0000000001
 40
0.0
 40
0.0
 40
0.0
 40
0.0
 40
1.0
 40
1.0
 40
1.0
 40
2.0
 40
2.0
 40
2.0
 40
3.0
 40
3.0
 40
3.0
 40
4.0
 40
4.0
 40
4.0
 40
4.0
 10
129.8552951064251
 20
-234.6482095767546
 30
0.0
 10
129.282375727228
 20
-234.315068843331
 30
0.0
 10
129.0877278323114
 20
-233.5802299763272
 30
0.0
 10
129.4212130752836
 20
-233.0073105971301
 30
0.0
 10
129.7540092991587
 20
-232.4340467083846
 30
0.0
 10
130.488503656614
 20
-232.240087832565
 30
0.0
 10
131.0617675453596
 20
-232.5732285659886
 30
0.0
 10
131.6343424150081
 20
-232.9063692994123
 30
0.0
 10
131.8286458003762
 20
-233.6401746377705
 30
0.0
 10
131.495849576501
 20
-234.2134385265161
 30
0.0
 10
131.1623643335289
 20
-234.7863579057131
 30
0.0
 10
130.4285589951706
 20
-234.9813503101783
 30
0.0
 10
129.8552951064251
 20
-234.6482095767546
 30
0.0
  0
SPLINE
  5
1F7
330
1BB
100
AcDbEntity
  8
\U+838C\U+8343\U+8384\U+815B_1
 62
    29
100
AcDbSpline
210
0.0
220
0.0
230
1.0
 70
    11
 71
     3
 72
    17
 73
    13
 74
     0
 42
0.0000000001
 43
0.0000000001
 40
0.0
 40
0.0
 40
0.0
 40
0.0
 40
1.0
 40
1.0
 40
1.0
 40
2.0
 40
2.0
 40
2.0
 40
3.0
 40
3.0
 40
3.0
 40
4.0
 40
4.0
 40
4.0
 40
4.0
 10
164.4778157140889
 20
-234.7525959699577
 30
0.0
 10
163.9048963348918
 20
-234.419455236534
 30
0.0
 10
163.7102484399752
 20
-233.6849608790788
 30
0.0
 10
164.0430446638504
 20
-233.1123860094303
 30
0.0
 10
164.3765299068226
 20
-232.5394666302332
 30
0.0
 10
165.1110242642778
 20
-232.3448187353166
 30
0.0
 10
165.6842881530234
 20
-232.6779594687403
 30
0.0
 10
166.2568630226719
 20
-233.0111002021639
 30
0.0
 10
166.45116640804
 20
-233.7455945596192
 30
0.0
 10
166.1176811650678
 20
-234.3185139388162
 30
0.0
 10
165.7848849411927
 20
-234.8910888084647
 30
0.0
 10
165.0510796028344
 20
-235.0857367033813
 30
0.0
 10
164.4778157140889
 20
-234.7525959699577
 30
0.0
  0
INSERT
  5
1F9
330
1BB
100
AcDbEntity
  8
\U+838C\U+8343\U+8384\U+815B_1
100
AcDbBlockReference
  2
BLOCK_14
 10
0.0
 20
0.0
 30
0.0
  0
INSERT
  5
207
330
1BB
100
AcDbEntity
  8
\U+838C\U+8343\U+8384\U+815B_1
100
AcDbBlockReference
  2
BLOCK_15
 10
0.0
 20
0.0
 30
0.0
  0
INSERT
  5
215
330
1BB
100
AcDbEntity
  8
\U+838C\U+8343\U+8384\U+815B_1
100
AcDbBlockReference
  2
BLOCK_16
 10
0.0
 20
0.0
 30
0.0
  0
SPLINE
  5
222
330
1BB
100
AcDbEntity
  8
\U+838C\U+8343\U+8384\U+815B_1
 62
    29
100
AcDbSpline
210
0.0
220
0.0
230
1.0
 70
    11
 71
     3
 72
    17
 73
    13
 74
     0
 42
0.0000000001
 43
0.0000000001
 40
0.0
 40
0.0
 40
0.0
 40
0.0
 40
1.0
 40
1.0
 40
1.0
 40
2.0
 40
2.0
 40
2.0
 40
3.0
 40
3.0
 40
3.0
 40
4.0
 40
4.0
 40
4.0
 40
4.0
 10
145.1728786529429
 20
-228.1562716443498
 30
0.0
 10
142.6903428462719
 20
-226.7127766360302
 30
0.0
 10
141.8476724905798
 20
-223.5298529172078
 30
0.0
 10
143.2911674988994
 20
-221.0469726009883
 30
0.0
 10
144.7339734881221
 20
-218.5644367943172
 30
0.0
 10
147.9172417164929
 20
-217.7217664386251
 30
0.0
 10
150.3997775231639
 20
-219.1649169373963
 30
0.0
 10
152.8826578393835
 20
-220.608411945716
 30
0.0
 10
153.7253281950756
 20
-223.7913356645383
 30
0.0
 10
152.2821776963045
 20
-226.2738714712093
 30
0.0
 10
150.8386826879848
 20
-228.7567517874289
 30
0.0
 10
147.6557589691625
 20
-229.599422143121
 30
0.0
 10
145.1728786529429
 20
-228.1562716443498
 30
0.0
  0
SPLINE
  5
223
330
1BB
100
AcDbEntity
  8
\U+838C\U+8343\U+8384\U+815B_1
 62
    29
100
AcDbSpline
210
0.0
220
0.0
230
1.0
 70
    11
 71
     3
 72
    17
 73
    13
 74
     0
 42
0.0000000001
 43
0.0000000001
 40
0.0
 40
0.0
 40
0.0
 40
0.0
 40
1.0
 40
1.0
 40
1.0
 40
2.0
 40
2.0
 40
2.0
 40
3.0
 40
3.0
 40
3.0
 40
4.0
 40
4.0
 40
4.0
 40
4.0
 10
135.2213758342502
 20
-245.2735730723622
 30
0.0
 10
123.2851535065051
 20
-238.334461745972
 30
0.0
 10
119.2340657253998
 20
-223.0323811291377
 30
0.0
 10
126.17317705179
 20
-211.0951252727471
 30
0.0
 10
133.1122883781803
 20
-199.158902945002
 30
0.0
 10
148.4140244854659
 20
-195.1081596734452
 30
0.0
 10
160.3505913227596
 20
-202.0469264902869
 30
0.0
 10
172.2864691409562
 20
-208.9860378166771
 30
0.0
 10
176.338590450707
 20
-224.2881184335113
 30
0.0
 10
169.3998236338653
 20
-236.2243407612564
 30
0.0
 10
162.4603677979266
 20
-248.1615966176471
 30
0.0
 10
147.1572536524468
 20
-252.2123398892039
 30
0.0
 10
135.2213758342502
 20
-245.2735730723622
 30
0.0
  0
ENDBLK
  5
1BE
330
1BB
100
AcDbEntity
  8
0
100
AcDbBlockEnd
  0
BLOCK
  5
1FA
330
1F8
100
AcDbEntity
  8
0
100
AcDbBlockBegin
  2
BLOCK_14
 70
     0
 71
     0
 10
0.0
 20
0.0
 30
0.0
  3
BLOCK_14
  1

  0
POLYLINE
  5
1FC
330
1F8
100
AcDbEntity
  8
\U+838C\U+8343\U+8384\U+815B_1
  6
AI-LINETYPE-17
 62
   253
100
AcDb2dPolyline
 66
     1
 10
0.0
 20
0.0
 30
0.0
  0
VERTEX
  5
1FD
330
1FC
100
AcDbEntity
  8
\U+838C\U+8343\U+8384\U+815B_1
  6
AI-LINETYPE-17
 62
   253
100
AcDbVertex
100
AcDb2dVertex
 10
168.0955104831498
 20
-230.2853406542342
 30
0.0
  0
VERTEX
  5
1FE
330
1FC
100
AcDbEntity
  8
\U+838C\U+8343\U+8384\U+815B_1
  6
AI-LINETYPE-17
 62
   253
100
AcDbVertex
100
AcDb2dVertex
 10
162.0648708362199
 20
-237.1459038035608
 30
0.0
  0
SEQEND
  5
1FF
330
1FC
100
AcDbEntity
  8
\U+838C\U+8343\U+8384\U+815B_1
  6
AI-LINETYPE-17
  0
POLYLINE
  5
201
330
1F8
100
AcDbEntity
  8
\U+838C\U+8343\U+8384\U+815B_1
  6
AI-LINETYPE-18
 62
   253
100
AcDb2dPolyline
 66
     1
 10
0.0
 20
0.0
 30
0.0
  0
VERTEX
  5
202
330
201
100
AcDbEntity
  8
\U+838C\U+8343\U+8384\U+815B_1
  6
AI-LINETYPE-18
 62
   253
100
AcDbVertex
100
AcDb2dVertex
 10
161.6500813397958
 20
-230.7001301506583
 30
0.0
  0
VERTEX
  5
203
330
201
100
AcDbEntity
  8
\U+838C\U+8343\U+8384\U+815B_1
  6
AI-LINETYPE-18
 62
   253
100
AcDbVertex
100
AcDb2dVertex
 10
168.5102999795738
 20
-236.7307697975882
 30
0.0
  0
SEQEND
  5
204
330
201
100
AcDbEntity
  8
\U+838C\U+8343\U+8384\U+815B_1
  6
AI-LINETYPE-18
  0
ENDBLK
  5
1FB
330
1F8
100
AcDbEntity
  8
0
100
AcDbBlockEnd
  0
BLOCK
  5
208
330
206
100
AcDbEntity
  8
0
100
AcDbBlockBegin
  2
BLOCK_15
 70
     0
 71
     0
 10
0.0
 20
0.0
 30
0.0
  3
BLOCK_15
  1

  0
POLYLINE
  5
20A
330
206
100
AcDbEntity
  8
\U+838C\U+8343\U+8384\U+815B_1
  6
AI-LINETYPE-19
 62
   253
100
AcDb2dPolyline
 66
     1
 10
0.0
 20
0.0
 30
0.0
  0
VERTEX
  5
20B
330
20A
100
AcDbEntity
  8
\U+838C\U+8343\U+8384\U+815B_1
  6
AI-LINETYPE-19
 62
   253
100
AcDbVertex
100
AcDb2dVertex
 10
133.6924424578963
 20
-236.8348116812427
 30
0.0
  0
VERTEX
  5
20C
330
20A
100
AcDbEntity
  8
\U+838C\U+8343\U+8384\U+815B_1
  6
AI-LINETYPE-19
 62
   253
100
AcDbVertex
100
AcDb2dVertex
 10
127.2239311747912
 20
-230.385592932855
 30
0.0
  0
SEQEND
  5
20D
330
20A
100
AcDbEntity
  8
\U+838C\U+8343\U+8384\U+815B_1
  6
AI-LINETYPE-19
  0
POLYLINE
  5
20F
330
206
100
AcDbEntity
  8
\U+838C\U+8343\U+8384\U+815B_1
  6
AI-LINETYPE-20
 62
   253
100
AcDb2dPolyline
 66
     1
 10
0.0
 20
0.0
 30
0.0
  0
VERTEX
  5
210
330
20F
100
AcDbEntity
  8
\U+838C\U+8343\U+8384\U+815B_1
  6
AI-LINETYPE-20
 62
   253
100
AcDbVertex
100
AcDb2dVertex
 10
133.6827961905376
 20
-230.3752576463993
 30
0.0
  0
VERTEX
  5
211
330
20F
100
AcDbEntity
  8
\U+838C\U+8343\U+8384\U+815B_1
  6
AI-LINETYPE-20
 62
   253
100
AcDbVertex
100
AcDb2dVertex
 10
127.234266461247
 20
-236.8451469676984
 30
0.0
  0
SEQEND
  5
212
330
20F
100
AcDbEntity
  8
\U+838C\U+8343\U+8384\U+815B_1
  6
AI-LINETYPE-20
  0
ENDBLK
  5
209
330
206
100
AcDbEntity
  8
0
100
AcDbBlockEnd
  0
BLOCK
  5
216
330
214
100
AcDbEntity
  8
0
100
AcDbBlockBegin
  2
BLOCK_16
 70
     0
 71
     0
 10
0.0
 20
0.0
 30
0.0
  3
BLOCK_16
  1

  0
POLYLINE
  5
218
330
214
100
AcDbEntity
  8
\U+838C\U+8343\U+8384\U+815B_1
  6
AI-LINETYPE-21
 62
   253
100
AcDb2dPolyline
 66
     1
 10
0.0
 20
0.0
 30
0.0
  0
VERTEX
  5
219
330
218
100
AcDbEntity
  8
\U+838C\U+8343\U+8384\U+815B_1
  6
AI-LINETYPE-21
 62
   253
100
AcDbVertex
100
AcDb2dVertex
 10
151.1487412816573
 20
-200.5100693943169
 30
0.0
  0
VERTEX
  5
21A
330
218
100
AcDbEntity
  8
\U+838C\U+8343\U+8384\U+815B_1
  6
AI-LINETYPE-21
 62
   253
100
AcDbVertex
100
AcDb2dVertex
 10
144.5624077329566
 20
-206.8393988198179
 30
0.0
  0
SEQEND
  5
21B
330
218
100
AcDbEntity
  8
\U+838C\U+8343\U+8384\U+815B_1
  6
AI-LINETYPE-21
  0
POLYLINE
  5
21D
330
214
100
AcDbEntity
  8
\U+838C\U+8343\U+8384\U+815B_1
  6
AI-LINETYPE-22
 62
   253
100
AcDb2dPolyline
 66
     1
 10
0.0
 20
0.0
 30
0.0
  0
VERTEX
  5
21E
330
21D
100
AcDbEntity
  8
\U+838C\U+8343\U+8384\U+815B_1
  6
AI-LINETYPE-22
 62
   253
100
AcDbVertex
100
AcDb2dVertex
 10
144.6902207754594
 20
-200.3815673327171
 30
0.0
  0
VERTEX
  5
21F
330
21D
100
AcDbEntity
  8
\U+838C\U+8343\U+8384\U+815B_1
  6
AI-LINETYPE-22
 62
   253
100
AcDbVertex
100
AcDb2dVertex
 10
151.0209282391545
 20
-206.9672118623207
 30
0.0
  0
SEQEND
  5
220
330
21D
100
AcDbEntity
  8
\U+838C\U+8343\U+8384\U+815B_1
  6
AI-LINETYPE-22
  0
ENDBLK
  5
217
330
214
100
AcDbEntity
  8
0
100
AcDbBlockEnd
  0
BLOCK
  5
296
330
294
100
AcDbEntity
  8
0
100
AcDbBlockBegin
  2
BLOCK_17
 70
     0
 71
     0
 10
0.0
 20
0.0
 30
0.0
  3
BLOCK_17
  1

  0
SPLINE
  5
298
330
294
100
AcDbEntity
  8
\U+838C\U+8343\U+8384\U+815B_1
 62
    29
100
AcDbSpline
210
0.0
220
0.0
230
1.0
 70
    11
 71
     3
 72
    17
 73
    13
 74
     0
 42
0.0000000001
 43
0.0000000001
 40
0.0
 40
0.0
 40
0.0
 40
0.0
 40
1.0
 40
1.0
 40
1.0
 40
2.0
 40
2.0
 40
2.0
 40
3.0
 40
3.0
 40
3.0
 40
4.0
 40
4.0
 40
4.0
 40
4.0
 10
155.7858398048035
 20
-35.53426512783518
 30
0.0
 10
155.7858398048035
 20
-39.9526000876681
 30
0.0
 10
152.2043185383378
 20
-43.53429360890809
 30
0.0
 10
147.7856390689564
 20
-43.53429360890809
 30
0.0
 10
143.367648618672
 20
-43.53429360890809
 30
0.0
 10
139.7861273522063
 20
-39.9526000876681
 30
0.0
 10
139.7861273522063
 20
-35.53426512783518
 30
0.0
 10
139.7861273522063
 20
-31.11610242277653
 30
0.0
 10
143.367648618672
 20
-27.53440890153654
 30
0.0
 10
147.7856390689564
 20
-27.53440890153654
 30
0.0
 10
152.2043185383378
 20
-27.53440890153654
 30
0.0
 10
155.7858398048035
 20
-31.11610242277653
 30
0.0
 10
155.7858398048035
 20
-35.53426512783518
 30
0.0
  0
SPLINE
  5
299
330
294
100
AcDbEntity
  8
\U+838C\U+8343\U+8384\U+815B_1
  6
AI-LINETYPE-25
 62
    29
100
AcDbSpline
210
0.0
220
0.0
230
1.0
 70
    11
 71
     3
 72
    17
 73
    13
 74
     0
 42
0.0000000001
 43
0.0000000001
 40
0.0
 40
0.0
 40
0.0
 40
0.0
 40
1.0
 40
1.0
 40
1.0
 40
2.0
 40
2.0
 40
2.0
 40
3.0
 40
3.0
 40
3.0
 40
4.0
 40
4.0
 40
4.0
 40
4.0
 10
140.3855739666397
 20
-35.53426512783518
 30
0.0
 10
140.3855739666397
 20
-39.6146362205651
 30
0.0
 10
143.7052679762265
 20
-42.93433023015184
 30
0.0
 10
147.7856390689564
 20
-42.93433023015184
 30
0.0
 10
151.8660101616863
 20
-42.93433023015184
 30
0.0
 10
155.185704171273
 20
-39.6146362205651
 30
0.0
 10
155.185704171273
 20
-35.53426512783518
 30
0.0
 10
155.185704171273
 20
-31.45389403510528
 30
0.0
 10
151.8660101616863
 20
-28.1343722802928
 30
0.0
 10
147.7856390689564
 20
-28.1343722802928
 30
0.0
 10
143.7052679762265
 20
-28.1343722802928
 30
0.0
 10
140.3855739666397
 20
-31.45389403510528
 30
0.0
 10
140.3855739666397
 20
-35.53426512783518
 30
0.0
  0
SPLINE
  5
29B
330
294
100
AcDbEntity
  8
\U+838C\U+8343\U+8384\U+815B_1
 62
    29
100
AcDbSpline
210
0.0
220
0.0
230
1.0
 70
    11
 71
     3
 72
    17
 73
    13
 74
     0
 42
0.0000000001
 43
0.0000000001
 40
0.0
 40
0.0
 40
0.0
 40
0.0
 40
1.0
 40
1.0
 40
1.0
 40
2.0
 40
2.0
 40
2.0
 40
3.0
 40
3.0
 40
3.0
 40
4.0
 40
4.0
 40
4.0
 40
4.0
 10
148.3795735306134
 20
-35.53426512783518
 30
0.0
 10
148.3795735306134
 20
-35.86568331351622
 30
0.0
 10
148.110856082764
 20
-36.1344007613657
 30
0.0
 10
147.7794378970829
 20
-36.1344007613657
 30
0.0
 10
147.4480197114019
 20
-36.1344007613657
 30
0.0
 10
147.1799912826494
 20
-35.86568331351622
 30
0.0
 10
147.1799912826494
 20
-35.53426512783518
 30
0.0
 10
147.1799912826494
 20
-35.20301919692842
 30
0.0
 10
147.4480197114019
 20
-34.93430174907893
 30
0.0
 10
147.7794378970829
 20
-34.93430174907893
 30
0.0
 10
148.110856082764
 20
-34.93430174907893
 30
0.0
 10
148.3795735306134
 20
-35.20301919692842
 30
0.0
 10
148.3795735306134
 20
-35.53426512783518
 30
0.0
  0
ENDBLK
  5
297
330
294
100
AcDbEntity
  8
0
100
AcDbBlockEnd
  0
BLOCK
  5
2A1
330
29F
100
AcDbEntity
  8
0
100
AcDbBlockBegin
  2
BLOCK_18
 70
     0
 71
     0
 10
0.0
 20
0.0
 30
0.0
  3
BLOCK_18
  1

  0
POLYLINE
  5
2A3
330
29F
100
AcDbEntity
  8
\U+838C\U+8343\U+8384\U+815B_1
 62
    18
100
AcDb2dPolyline
 66
     1
 10
0.0
 20
0.0
 30
0.0
  0
VERTEX
  5
2A4
330
2A3
100
AcDbEntity
  8
\U+838C\U+8343\U+8384\U+815B_1
 62
    18
100
AcDbVertex
100
AcDb2dVertex
 10
110.928974039108
 20
-124.6237453572989
 30
0.0
  0
VERTEX
  5
2A5
330
2A3
100
AcDbEntity
  8
\U+838C\U+8343\U+8384\U+815B_1
 62
    18
100
AcDbVertex
100
AcDb2dVertex
 10
97.8644829399436
 20
-124.6237453572989
 30
0.0
  0
SEQEND
  5
2A6
330
2A3
100
AcDbEntity
  8
\U+838C\U+8343\U+8384\U+815B_1
  0
POLYLINE
  5
2A7
330
29F
100
AcDbEntity
  8
\U+838C\U+8343\U+8384\U+815B_1
 62
    18
100
AcDb2dPolyline
 66
     1
 10
0.0
 20
0.0
 30
0.0
  0
VERTEX
  5
2A8
330
2A7
100
AcDbEntity
  8
\U+838C\U+8343\U+8384\U+815B_1
 62
    18
100
AcDbVertex
100
AcDb2dVertex
 10
110.928974039108
 20
-126.072752518395
 30
0.0
  0
VERTEX
  5
2A9
330
2A7
100
AcDbEntity
  8
\U+838C\U+8343\U+8384\U+815B_1
 62
    18
100
AcDbVertex
100
AcDb2dVertex
 10
97.78679603675123
 20
-126.072752518395
 30
0.0
  0
SEQEND
  5
2AA
330
2A7
100
AcDbEntity
  8
\U+838C\U+8343\U+8384\U+815B_1
  0
POLYLINE
  5
2AB
330
29F
100
AcDbEntity
  8
\U+838C\U+8343\U+8384\U+815B_1
 62
    18
100
AcDb2dPolyline
 66
     1
 10
0.0
 20
0.0
 30
0.0
  0
VERTEX
  5
2AC
330
2AB
100
AcDbEntity
  8
\U+838C\U+8343\U+8384\U+815B_1
 62
    18
100
AcDbVertex
100
AcDb2dVertex
 10
97.38165280768584
 20
-124.9878919500898
 30
0.0
  0
VERTEX
  5
2AD
330
2AB
100
AcDbEntity
  8
\U+838C\U+8343\U+8384\U+815B_1
 62
    18
100
AcDbVertex
100
AcDb2dVertex
 10
97.38165280768584
 20
-125.7184244477371
 30
0.0
  0
SEQEND
  5
2AE
330
2AB
100
AcDbEntity
  8
\U+838C\U+8343\U+8384\U+815B_1
  0
SPLINE
  5
2AF
330
29F
100
AcDbEntity
  8
\U+838C\U+8343\U+8384\U+815B_1
 62
    18
100
AcDbSpline
210
0.0
220
0.0
230
1.0
 70
     8
 71
     3
 72
     8
 73
     4
 74
     0
 42
0.0000000001
 43
0.0000000001
 40
0.0
 40
0.0
 40
0.0
 40
0.0
 40
1.0
 40
1.0
 40
1.0
 40
1.0
 10
97.38165280768584
 20
-125.7184244477371
 30
0.0
 10
97.43246796609327
 20
-125.9077324446515
 30
0.0
 10
97.59214814183461
 20
-126.0474310665784
 30
0.0
 10
97.78679603675123
 20
-126.072752518395
 30
0.0
  0
SPLINE
  5
2B0
330
29F
100
AcDbEntity
  8
\U+838C\U+8343\U+8384\U+815B_1
 62
    18
100
AcDbSpline
210
0.0
220
0.0
230
1.0
 70
     8
 71
     3
 72
     8
 73
     4
 74
     0
 42
0.0000000001
 43
0.0000000001
 40
0.0
 40
0.0
 40
0.0
 40
0.0
 40
1.0
 40
1.0
 40
1.0
 40
1.0
 10
97.8644829399436
 20
-124.6237453572989
 30
0.0
 10
97.63865693088547
 20
-124.621161535685
 30
0.0
 10
97.4397026666123
 20
-124.7725734822617
 30
0.0
 10
97.38165280768584
 20
-124.9909925360266
 30
0.0
  0
POLYLINE
  5
2B1
330
29F
100
AcDbEntity
  8
\U+838C\U+8343\U+8384\U+815B_1
 62
    18
100
AcDb2dPolyline
 66
     1
 10
0.0
 20
0.0
 30
0.0
  0
VERTEX
  5
2B2
330
2B1
100
AcDbEntity
  8
\U+838C\U+8343\U+8384\U+815B_1
 62
    18
100
AcDbVertex
100
AcDb2dVertex
 10
120.5886772702001
 20
-123.8988972672024
 30
0.0
  0
VERTEX
  5
2B3
330
2B1
100
AcDbEntity
  8
\U+838C\U+8343\U+8384\U+815B_1
 62
    18
100
AcDbVertex
100
AcDb2dVertex
 10
121.7965277473287
 20
-123.8988972672024
 30
0.0
  0
SEQEND
  5
2B4
330
2B1
100
AcDbEntity
  8
\U+838C\U+8343\U+8384\U+815B_1
  0
POLYLINE
  5
2B5
330
29F
100
AcDbEntity
  8
\U+838C\U+8343\U+8384\U+815B_1
 62
    18
100
AcDb2dPolyline
 66
     1
 10
0.0
 20
0.0
 30
0.0
  0
VERTEX
  5
2B6
330
2B5
100
AcDbEntity
  8
\U+838C\U+8343\U+8384\U+815B_1
 62
    18
100
AcDbVertex
100
AcDb2dVertex
 10
120.5886772702001
 20
-126.796567079846
 30
0.0
  0
VERTEX
  5
2B7
330
2B5
100
AcDbEntity
  8
\U+838C\U+8343\U+8384\U+815B_1
 62
    18
100
AcDbVertex
100
AcDb2dVertex
 10
121.7965277473287
 20
-126.796567079846
 30
0.0
  0
VERTEX
  5
2B8
330
2B5
100
AcDbEntity
  8
\U+838C\U+8343\U+8384\U+815B_1
 62
    18
100
AcDbVertex
100
AcDb2dVertex
 10
121.7965277473287
 20
-123.9018255983648
 30
0.0
  0
SEQEND
  5
2B9
330
2B5
100
AcDbEntity
  8
\U+838C\U+8343\U+8384\U+815B_1
  0
POLYLINE
  5
2BA
330
29F
100
AcDbEntity
  8
\U+838C\U+8343\U+8384\U+815B_1
 62
    18
100
AcDb2dPolyline
 66
     1
 10
0.0
 20
0.0
 30
0.0
  0
VERTEX
  5
2BB
330
2BA
100
AcDbEntity
  8
\U+838C\U+8343\U+8384\U+815B_1
 62
    18
100
AcDbVertex
100
AcDb2dVertex
 10
120.5886772702001
 20
-126.796567079846
 30
0.0
  0
VERTEX
  5
2BC
330
2BA
100
AcDbEntity
  8
\U+838C\U+8343\U+8384\U+815B_1
 62
    18
100
AcDbVertex
100
AcDb2dVertex
 10
120.5886772702001
 20
-123.8988972672024
 30
0.0
  0
SEQEND
  5
2BD
330
2BA
100
AcDbEntity
  8
\U+838C\U+8343\U+8384\U+815B_1
  0
POLYLINE
  5
2BE
330
29F
100
AcDbEntity
  8
\U+838C\U+8343\U+8384\U+815B_1
 62
    18
100
AcDb2dPolyline
 66
     1
 10
0.0
 20
0.0
 30
0.0
  0
VERTEX
  5
2BF
330
2BE
100
AcDbEntity
  8
\U+838C\U+8343\U+8384\U+815B_1
 62
    18
100
AcDbVertex
100
AcDb2dVertex
 10
110.928974039108
 20
-124.6237453572989
 30
0.0
  0
VERTEX
  5
2C0
330
2BE
100
AcDbEntity
  8
\U+838C\U+8343\U+8384\U+815B_1
 62
    18
100
AcDbVertex
100
AcDb2dVertex
 10
120.5886772702001
 20
-124.3216104832425
 30
0.0
  0
SEQEND
  5
2C1
330
2BE
100
AcDbEntity
  8
\U+838C\U+8343\U+8384\U+815B_1
  0
POLYLINE
  5
2C2
330
29F
100
AcDbEntity
  8
\U+838C\U+8343\U+8384\U+815B_1
 62
    18
100
AcDb2dPolyline
 66
     1
 10
0.0
 20
0.0
 30
0.0
  0
VERTEX
  5
2C3
330
2C2
100
AcDbEntity
  8
\U+838C\U+8343\U+8384\U+815B_1
 62
    18
100
AcDbVertex
100
AcDb2dVertex
 10
110.928974039108
 20
-126.072752518395
 30
0.0
  0
VERTEX
  5
2C4
330
2C2
100
AcDbEntity
  8
\U+838C\U+8343\U+8384\U+815B_1
 62
    18
100
AcDbVertex
100
AcDb2dVertex
 10
120.5886772702001
 20
-126.3741983733544
 30
0.0
  0
SEQEND
  5
2C5
330
2C2
100
AcDbEntity
  8
\U+838C\U+8343\U+8384\U+815B_1
  0
ENDBLK
  5
2A2
330
29F
100
AcDbEntity
  8
0
100
AcDbBlockEnd
  0
BLOCK
  5
2EA
330
2E8
100
AcDbEntity
  8
0
100
AcDbBlockBegin
  2
BLOCK_19
 70
     0
 71
     0
 10
0.0
 20
0.0
 30
0.0
  3
BLOCK_19
  1

  0
MTEXT
  5
2EC
330
2E8
100
AcDbEntity
  8
\U+838C\U+8343\U+8384\U+815B_1
 62
    29
100
AcDbMText
 10
66.28053655027014
 20
-256.798795508717
 30
0.0
 40
2.15899999946025
 41
0.0
 71
     7
 72
     1
  1
\fKozuka Gothic Pro R|b0|i0|c0|p34;\W1;ベース（平面）
  0
POLYLINE
  5
2ED
330
2E8
100
AcDbEntity
  8
\U+838C\U+8343\U+8384\U+815B_1
 62
    18
100
AcDb2dPolyline
 66
     1
 10
0.0
 20
0.0
 30
0.0
  0
VERTEX
  5
2EE
330
2ED
100
AcDbEntity
  8
\U+838C\U+8343\U+8384\U+815B_1
 62
    18
100
AcDbVertex
100
AcDb2dVertex
 10
90.7250393110861
 20
-258.5192761940507
 30
0.0
  0
VERTEX
  5
2EF
330
2ED
100
AcDbEntity
  8
\U+838C\U+8343\U+8384\U+815B_1
 62
    18
100
AcDbVertex
100
AcDb2dVertex
 10
62.47370603906908
 20
-258.5192761940507
 30
0.0
  0
VERTEX
  5
2F0
330
2ED
100
AcDbEntity
  8
\U+838C\U+8343\U+8384\U+815B_1
 62
    18
100
AcDbVertex
100
AcDb2dVertex
 10
62.47370603906908
 20
-252.5072400627413
 30
0.0
  0
VERTEX
  5
2F1
330
2ED
100
AcDbEntity
  8
\U+838C\U+8343\U+8384\U+815B_1
 62
    18
100
AcDbVertex
100
AcDb2dVertex
 10
90.7250393110861
 20
-252.5072400627413
 30
0.0
  0
VERTEX
  5
2F2
330
2ED
100
AcDbEntity
  8
\U+838C\U+8343\U+8384\U+815B_1
 62
    18
100
AcDbVertex
100
AcDb2dVertex
 10
90.7250393110861
 20
-258.5192761940507
 30
0.0
  0
SEQEND
  5
2F3
330
2ED
100
AcDbEntity
  8
\U+838C\U+8343\U+8384\U+815B_1
  0
ENDBLK
  5
2EB
330
2E8
100
AcDbEntity
  8
0
100
AcDbBlockEnd
  0
BLOCK
  5
2F6
330
2F4
100
AcDbEntity
  8
0
100
AcDbBlockBegin
  2
BLOCK_20
 70
     0
 71
     0
 10
0.0
 20
0.0
 30
0.0
  3
BLOCK_20
  1

  0
MTEXT
  5
2F8
330
2F4
100
AcDbEntity
  8
\U+838C\U+8343\U+8384\U+815B_1
 62
    29
100
AcDbMText
 10
138.0322292406656
 20
-256.798795508717
 30
0.0
 40
2.15899999946025
 41
0.0
 71
     7
 72
     1
  1
\fKozuka Gothic Pro R|b0|i0|c0|p34;\W1;ベース（底面）
  0
POLYLINE
  5
2F9
330
2F4
100
AcDbEntity
  8
\U+838C\U+8343\U+8384\U+815B_1
 62
    18
100
AcDb2dPolyline
 66
     1
 10
0.0
 20
0.0
 30
0.0
  0
VERTEX
  5
2FA
330
2F9
100
AcDbEntity
  8
\U+838C\U+8343\U+8384\U+815B_1
 62
    18
100
AcDbVertex
100
AcDb2dVertex
 10
162.4769042562558
 20
-258.5192761940507
 30
0.0
  0
VERTEX
  5
2FB
330
2F9
100
AcDbEntity
  8
\U+838C\U+8343\U+8384\U+815B_1
 62
    18
100
AcDbVertex
100
AcDb2dVertex
 10
134.2253987294645
 20
-258.5192761940507
 30
0.0
  0
VERTEX
  5
2FC
330
2F9
100
AcDbEntity
  8
\U+838C\U+8343\U+8384\U+815B_1
 62
    18
100
AcDbVertex
100
AcDb2dVertex
 10
134.2253987294645
 20
-252.5072400627413
 30
0.0
  0
VERTEX
  5
2FD
330
2F9
100
AcDbEntity
  8
\U+838C\U+8343\U+8384\U+815B_1
 62
    18
100
AcDbVertex
100
AcDb2dVertex
 10
162.4769042562558
 20
-252.5072400627413
 30
0.0
  0
VERTEX
  5
2FE
330
2F9
100
AcDbEntity
  8
\U+838C\U+8343\U+8384\U+815B_1
 62
    18
100
AcDbVertex
100
AcDb2dVertex
 10
162.4769042562558
 20
-258.5192761940507
 30
0.0
  0
SEQEND
  5
2FF
330
2F9
100
AcDbEntity
  8
\U+838C\U+8343\U+8384\U+815B_1
  0
ENDBLK
  5
2F7
330
2F4
100
AcDbEntity
  8
0
100
AcDbBlockEnd
  0
BLOCK
  5
303
330
301
100
AcDbEntity
  8
0
100
AcDbBlockBegin
  2
BLOCK_21
 70
     0
 71
     0
 10
0.0
 20
0.0
 30
0.0
  3
BLOCK_21
  1

  0
INSERT
  5
306
330
301
100
AcDbEntity
  8
\U+838C\U+8343\U+8384\U+815B_1
100
AcDbBlockReference
  2
BLOCK_22
 10
0.0
 20
0.0
 30
0.0
  0
POLYLINE
  5
319
330
301
100
AcDbEntity
  8
\U+838C\U+8343\U+8384\U+815B_1
 62
    29
100
AcDb2dPolyline
 66
     1
 10
0.0
 20
0.0
 30
0.0
  0
VERTEX
  5
31A
330
319
100
AcDbEntity
  8
\U+838C\U+8343\U+8384\U+815B_1
 62
    29
100
AcDbVertex
100
AcDb2dVertex
 10
139.7878498999489
 20
-150.9754529787492
 30
0.0
  0
VERTEX
  5
31B
330
319
100
AcDbEntity
  8
\U+838C\U+8343\U+8384\U+815B_1
 62
    29
100
AcDbVertex
100
AcDb2dVertex
 10
139.7878498999489
 20
-48.76291502687177
 30
0.0
  0
VERTEX
  5
31C
330
319
100
AcDbEntity
  8
\U+838C\U+8343\U+8384\U+815B_1
 62
    29
100
AcDbVertex
100
AcDb2dVertex
 10
155.7879068620947
 20
-48.76291502687177
 30
0.0
  0
VERTEX
  5
31D
330
319
100
AcDbEntity
  8
\U+838C\U+8343\U+8384\U+815B_1
 62
    29
100
AcDbVertex
100
AcDb2dVertex
 10
155.7879068620947
 20
-134.9871093412532
 30
0.0
  0
SEQEND
  5
31E
330
319
100
AcDbEntity
  8
\U+838C\U+8343\U+8384\U+815B_1
  0
POLYLINE
  5
31F
330
301
100
AcDbEntity
  8
\U+838C\U+8343\U+8384\U+815B_1
 62
    29
100
AcDb2dPolyline
 66
     1
 10
0.0
 20
0.0
 30
0.0
  0
VERTEX
  5
320
330
31F
100
AcDbEntity
  8
\U+838C\U+8343\U+8384\U+815B_1
 62
    29
100
AcDbVertex
100
AcDb2dVertex
 10
155.7879068620947
 20
-137.1871473181338
 30
0.0
  0
VERTEX
  5
321
330
31F
100
AcDbEntity
  8
\U+838C\U+8343\U+8384\U+815B_1
 62
    29
100
AcDbVertex
100
AcDb2dVertex
 10
155.7879068620947
 20
-168.7628254786426
 30
0.0
  0
VERTEX
  5
322
330
31F
100
AcDbEntity
  8
\U+838C\U+8343\U+8384\U+815B_1
 62
    29
100
AcDbVertex
100
AcDb2dVertex
 10
139.7878498999489
 20
-168.7628254786426
 30
0.0
  0
VERTEX
  5
323
330
31F
100
AcDbEntity
  8
\U+838C\U+8343\U+8384\U+815B_1
 62
    29
100
AcDbVertex
100
AcDb2dVertex
 10
139.7878498999489
 20
-153.248526979917
 30
0.0
  0
SEQEND
  5
324
330
31F
100
AcDbEntity
  8
\U+838C\U+8343\U+8384\U+815B_1
  0
ENDBLK
  5
304
330
301
100
AcDbEntity
  8
0
100
AcDbBlockEnd
  0
BLOCK
  5
307
330
305
100
AcDbEntity
  8
0
100
AcDbBlockBegin
  2
BLOCK_22
 70
     0
 71
     0
 10
0.0
 20
0.0
 30
0.0
  3
BLOCK_22
  1

  0
POLYLINE
  5
309
330
305
100
AcDbEntity
  8
\U+838C\U+8343\U+8384\U+815B_1
 62
    29
100
AcDb2dPolyline
 66
     1
 10
0.0
 20
0.0
 30
0.0
  0
VERTEX
  5
30A
330
309
100
AcDbEntity
  8
\U+838C\U+8343\U+8384\U+815B_1
 62
    29
100
AcDbVertex
100
AcDb2dVertex
 10
137.2346896358302
 20
-153.5286132428679
 30
0.0
  0
VERTEX
  5
30B
330
309
100
AcDbEntity
  8
\U+838C\U+8343\U+8384\U+815B_1
 62
    29
100
AcDbVertex
100
AcDb2dVertex
 10
147.2323567340252
 20
-143.5309461446728
 30
0.0
  0
VERTEX
  5
30C
330
309
100
AcDbEntity
  8
\U+838C\U+8343\U+8384\U+815B_1
 62
    29
100
AcDbVertex
100
AcDb2dVertex
 10
147.7491210568127
 20
-140.1203016142755
 30
0.0
  0
VERTEX
  5
30D
330
309
100
AcDbEntity
  8
\U+838C\U+8343\U+8384\U+815B_1
 62
    29
100
AcDbVertex
100
AcDb2dVertex
 10
149.1436957092419
 20
-143.685286422412
 30
0.0
  0
VERTEX
  5
30E
330
309
100
AcDbEntity
  8
\U+838C\U+8343\U+8384\U+815B_1
 62
    29
100
AcDbVertex
100
AcDb2dVertex
 10
150.4356065162106
 20
-140.3270073433905
 30
0.0
  0
VERTEX
  5
30F
330
309
100
AcDbEntity
  8
\U+838C\U+8343\U+8384\U+815B_1
 62
    29
100
AcDbVertex
100
AcDb2dVertex
 10
158.2890461843861
 20
-132.473567675215
 30
0.0
  0
SEQEND
  5
310
330
309
100
AcDbEntity
  8
\U+838C\U+8343\U+8384\U+815B_1
  0
POLYLINE
  5
311
330
305
100
AcDbEntity
  8
\U+838C\U+8343\U+8384\U+815B_1
 62
    29
100
AcDb2dPolyline
 66
     1
 10
0.0
 20
0.0
 30
0.0
  0
VERTEX
  5
312
330
311
100
AcDbEntity
  8
\U+838C\U+8343\U+8384\U+815B_1
 62
    29
100
AcDbVertex
100
AcDb2dVertex
 10
137.286366068109
 20
-155.7500108117569
 30
0.0
  0
VERTEX
  5
313
330
311
100
AcDbEntity
  8
\U+838C\U+8343\U+8384\U+815B_1
 62
    29
100
AcDbVertex
100
AcDb2dVertex
 10
147.3095268728948
 20
-145.726160987874
 30
0.0
  0
VERTEX
  5
314
330
311
100
AcDbEntity
  8
\U+838C\U+8343\U+8384\U+815B_1
 62
    29
100
AcDbVertex
100
AcDb2dVertex
 10
148.0591796504852
 20
-143.1168456673458
 30
0.0
  0
VERTEX
  5
315
330
311
100
AcDbEntity
  8
\U+838C\U+8343\U+8384\U+815B_1
 62
    29
100
AcDbVertex
100
AcDb2dVertex
 10
149.4020778706356
 20
-145.8040201458407
 30
0.0
  0
VERTEX
  5
316
330
311
100
AcDbEntity
  8
\U+838C\U+8343\U+8384\U+815B_1
 62
    29
100
AcDbVertex
100
AcDb2dVertex
 10
150.358436377341
 20
-142.677940502525
 30
0.0
  0
VERTEX
  5
317
330
311
100
AcDbEntity
  8
\U+838C\U+8343\U+8384\U+815B_1
 62
    29
100
AcDbVertex
100
AcDb2dVertex
 10
158.3407226166648
 20
-134.6956542632011
 30
0.0
  0
SEQEND
  5
318
330
311
100
AcDbEntity
  8
\U+838C\U+8343\U+8384\U+815B_1
  0
ENDBLK
  5
308
330
305
100
AcDbEntity
  8
0
100
AcDbBlockEnd
  0
BLOCK
  5
327
330
325
100
AcDbEntity
  8
0
100
AcDbBlockBegin
  2
BLOCK_23
 70
     0
 71
     0
 10
0.0
 20
0.0
 30
0.0
  3
BLOCK_23
  1

  0
POLYLINE
  5
329
330
325
100
AcDbEntity
  8
\U+838C\U+8343\U+8384\U+815B_1
 62
    29
100
AcDb2dPolyline
 66
     1
 10
0.0
 20
0.0
 30
0.0
  0
VERTEX
  5
32A
330
329
100
AcDbEntity
  8
\U+838C\U+8343\U+8384\U+815B_1
 62
    29
100
AcDbVertex
100
AcDb2dVertex
 10
46.86501192404764
 20
-120.9922702062971
 30
0.0
  0
VERTEX
  5
32B
330
329
100
AcDbEntity
  8
\U+838C\U+8343\U+8384\U+815B_1
 62
    29
100
AcDbVertex
100
AcDb2dVertex
 10
57.04406329954107
 20
-120.9922702062971
 30
0.0
  0
SEQEND
  5
32C
330
329
100
AcDbEntity
  8
\U+838C\U+8343\U+8384\U+815B_1
  0
POLYLINE
  5
32D
330
325
100
AcDbEntity
  8
\U+838C\U+8343\U+8384\U+815B_1
 62
    29
100
AcDb2dPolyline
 66
     1
 10
0.0
 20
0.0
 30
0.0
  0
VERTEX
  5
32E
330
32D
100
AcDbEntity
  8
\U+838C\U+8343\U+8384\U+815B_1
 62
    29
100
AcDbVertex
100
AcDb2dVertex
 10
57.04406329954107
 20
-110.8261379388733
 30
0.0
  0
VERTEX
  5
32F
330
32D
100
AcDbEntity
  8
\U+838C\U+8343\U+8384\U+815B_1
 62
    29
100
AcDbVertex
100
AcDb2dVertex
 10
46.86501192404764
 20
-110.8261379388733
 30
0.0
  0
SEQEND
  5
330
330
32D
100
AcDbEntity
  8
\U+838C\U+8343\U+8384\U+815B_1
  0
ENDBLK
  5
328
330
325
100
AcDbEntity
  8
0
100
AcDbBlockEnd
  0
ENDSEC
  0
SECTION
  2
ENTITIES
  0
INSERT
  5
3D
330
1F
100
AcDbEntity
  8
\U+838C\U+8343\U+8384\U+815B_1
100
AcDbBlockReference
  2
BLOCK_2
 10
0.0
 20
0.0
 30
0.0
  0
MTEXT
  5
50
330
1F
100
AcDbEntity
  8
\U+838C\U+8343\U+8384\U+815B_1
 62
    29
100
AcDbMText
 10
95.24534909728241
 20
-270.6746065946577
 30
0.0
 40
2.427951431197246
 41
0.0
 71
     7
 72
     1
  1
\fMS Gothic|b0|i0|c0|p34;\W1;品  名
  0
MTEXT
  5
51
330
1F
100
AcDbEntity
  8
\U+838C\U+8343\U+8384\U+815B_1
 62
    29
100
AcDbMText
 10
95.24534909728241
 20
-277.9637396223494
 30
0.0
 40
2.427951431197246
 41
0.0
 71
     7
 72
     1
  1
\fMS Gothic|b0|i0|c0|p34;\W1;材  質
  0
MTEXT
  5
52
330
1F
100
AcDbEntity
  8
\U+838C\U+8343\U+8384\U+815B_1
 62
    29
100
AcDbMText
 10
112.5481689171755
 20
-270.6746065946577
 30
0.0
 40
2.427951431197246
 41
0.0
 71
     7
 72
     1
  1
\fMS Gothic|b0|i0|c0|p34;\W1;ラウンドポスト 
  0
MTEXT
  5
53
330
1F
100
AcDbEntity
  8
\U+838C\U+8343\U+8384\U+815B_1
 62
    29
100
AcDbMText
 10
18.35512423586261
 20
-278.3254746483006
 30
0.0
 40
4.37031005962045
 41
0.0
 71
     7
 72
     1
  1
\fKozuka Gothic Pro M|b0|i0|c0|p34;\W1;保安道路企画株式会社
  0
POLYLINE
  5
54
330
1F
100
AcDbEntity
  8
\U+838C\U+8343\U+8384\U+815B_1
 62
    29
100
AcDb2dPolyline
 66
     1
 10
0.0
 20
0.0
 30
0.0
  0
VERTEX
  5
55
330
54
100
AcDbEntity
  8
\U+838C\U+8343\U+8384\U+815B_1
 62
    29
100
AcDbVertex
100
AcDb2dVertex
 10
109.6222493215528
 20
-265.3863850247993
 30
0.0
  0
VERTEX
  5
56
330
54
100
AcDbEntity
  8
\U+838C\U+8343\U+8384\U+815B_1
 62
    29
100
AcDbVertex
100
AcDb2dVertex
 10
109.6222493215528
 20
-273.1702337641727
 30
0.0
  0
SEQEND
  5
57
330
54
100
AcDbEntity
  8
\U+838C\U+8343\U+8384\U+815B_1
  0
POLYLINE
  5
58
330
1F
100
AcDbEntity
  8
\U+838C\U+8343\U+8384\U+815B_1
 62
    29
100
AcDb2dPolyline
 66
     1
 10
0.0
 20
0.0
 30
0.0
  0
VERTEX
  5
59
330
58
100
AcDbEntity
  8
\U+838C\U+8343\U+8384\U+815B_1
 62
    29
100
AcDbVertex
100
AcDb2dVertex
 10
109.6222493215528
 20
-272.9170192460069
 30
0.0
  0
VERTEX
  5
5A
330
58
100
AcDbEntity
  8
\U+838C\U+8343\U+8384\U+815B_1
 62
    29
100
AcDbVertex
100
AcDb2dVertex
 10
109.6222493215528
 20
-287.542483109538
 30
0.0
  0
SEQEND
  5
5B
330
58
100
AcDbEntity
  8
\U+838C\U+8343\U+8384\U+815B_1
  0
POLYLINE
  5
5C
330
1F
100
AcDbEntity
  8
\U+838C\U+8343\U+8384\U+815B_1
 62
    29
100
AcDb2dPolyline
 66
     1
 10
0.0
 20
0.0
 30
0.0
  0
VERTEX
  5
5D
330
5C
100
AcDbEntity
  8
\U+838C\U+8343\U+8384\U+815B_1
 62
    29
100
AcDbVertex
100
AcDb2dVertex
 10
145.5542507231601
 20
-265.3863850247993
 30
0.0
  0
VERTEX
  5
5E
330
5C
100
AcDbEntity
  8
\U+838C\U+8343\U+8384\U+815B_1
 62
    29
100
AcDbVertex
100
AcDb2dVertex
 10
145.5542507231601
 20
-273.1702337641727
 30
0.0
  0
SEQEND
  5
5F
330
5C
100
AcDbEntity
  8
\U+838C\U+8343\U+8384\U+815B_1
  0
POLYLINE
  5
60
330
1F
100
AcDbEntity
  8
\U+838C\U+8343\U+8384\U+815B_1
 62
    29
100
AcDb2dPolyline
 66
     1
 10
0.0
 20
0.0
 30
0.0
  0
VERTEX
  5
61
330
60
100
AcDbEntity
  8
\U+838C\U+8343\U+8384\U+815B_1
 62
    29
100
AcDbVertex
100
AcDb2dVertex
 10
160.6124185796386
 20
-265.3863850247993
 30
0.0
  0
VERTEX
  5
62
330
60
100
AcDbEntity
  8
\U+838C\U+8343\U+8384\U+815B_1
 62
    29
100
AcDbVertex
100
AcDb2dVertex
 10
160.6124185796386
 20
-273.1702337641727
 30
0.0
  0
SEQEND
  5
63
330
60
100
AcDbEntity
  8
\U+838C\U+8343\U+8384\U+815B_1
  0
POLYLINE
  5
64
330
1F
100
AcDbEntity
  8
\U+838C\U+8343\U+8384\U+815B_1
 62
    29
100
AcDb2dPolyline
 66
     1
 10
0.0
 20
0.0
 30
0.0
  0
VERTEX
  5
65
330
64
100
AcDbEntity
  8
\U+838C\U+8343\U+8384\U+815B_1
 62
    29
100
AcDbVertex
100
AcDb2dVertex
 10
200.2206813735559
 20
-287.542483109538
 30
0.0
  0
VERTEX
  5
66
330
64
100
AcDbEntity
  8
\U+838C\U+8343\U+8384\U+815B_1
 62
    29
100
AcDbVertex
100
AcDb2dVertex
 10
9.466605629143766
 20
-287.542483109538
 30
0.0
  0
VERTEX
  5
67
330
64
100
AcDbEntity
  8
\U+838C\U+8343\U+8384\U+815B_1
 62
    29
100
AcDbVertex
100
AcDb2dVertex
 10
9.466605629143766
 20
-10.50289035110692
 30
0.0
  0
VERTEX
  5
68
330
64
100
AcDbEntity
  8
\U+838C\U+8343\U+8384\U+815B_1
 62
    29
100
AcDbVertex
100
AcDb2dVertex
 10
200.2206813735559
 20
-10.50289035110692
 30
0.0
  0
VERTEX
  5
69
330
64
100
AcDbEntity
  8
\U+838C\U+8343\U+8384\U+815B_1
 62
    29
100
AcDbVertex
100
AcDb2dVertex
 10
200.2206813735559
 20
-287.542483109538
 30
0.0
  0
SEQEND
  5
6A
330
64
100
AcDbEntity
  8
\U+838C\U+8343\U+8384\U+815B_1
  0
POLYLINE
  5
6B
330
1F
100
AcDbEntity
  8
\U+838C\U+8343\U+8384\U+815B_1
 62
    18
100
AcDb2dPolyline
 66
     1
 10
0.0
 20
0.0
 30
0.0
  0
VERTEX
  5
6C
330
6B
100
AcDbEntity
  8
\U+838C\U+8343\U+8384\U+815B_1
 62
    18
100
AcDbVertex
100
AcDb2dVertex
 10
91.51103784604585
 20
-280.6392007761944
 30
0.0
  0
VERTEX
  5
6D
330
6B
100
AcDbEntity
  8
\U+838C\U+8343\U+8384\U+815B_1
 62
    18
100
AcDbVertex
100
AcDb2dVertex
 10
200.0670301149138
 20
-280.6392007761944
 30
0.0
  0
SEQEND
  5
6E
330
6B
100
AcDbEntity
  8
\U+838C\U+8343\U+8384\U+815B_1
  0
POLYLINE
  5
6F
330
1F
100
AcDbEntity
  8
\U+838C\U+8343\U+8384\U+815B_1
 62
    18
100
AcDb2dPolyline
 66
     1
 10
0.0
 20
0.0
 30
0.0
  0
VERTEX
  5
70
330
6F
100
AcDbEntity
  8
\U+838C\U+8343\U+8384\U+815B_1
 62
    18
100
AcDbVertex
100
AcDb2dVertex
 10
91.51103784604585
 20
-273.1702337641727
 30
0.0
  0
VERTEX
  5
71
330
6F
100
AcDbEntity
  8
\U+838C\U+8343\U+8384\U+815B_1
 62
    18
100
AcDbVertex
100
AcDb2dVertex
 10
200.0670301149138
 20
-273.1702337641727
 30
0.0
  0
SEQEND
  5
72
330
6F
100
AcDbEntity
  8
\U+838C\U+8343\U+8384\U+815B_1
  0
POLYLINE
  5
73
330
1F
100
AcDbEntity
  8
\U+838C\U+8343\U+8384\U+815B_1
 62
    18
100
AcDb2dPolyline
 66
     1
 10
0.0
 20
0.0
 30
0.0
  0
VERTEX
  5
74
330
73
100
AcDbEntity
  8
\U+838C\U+8343\U+8384\U+815B_1
 62
    18
100
AcDbVertex
100
AcDb2dVertex
 10
91.51103784604585
 20
-265.3863850247993
 30
0.0
  0
VERTEX
  5
75
330
73
100
AcDbEntity
  8
\U+838C\U+8343\U+8384\U+815B_1
 62
    18
100
AcDbVertex
100
AcDb2dVertex
 10
91.51103784604585
 20
-287.542483109538
 30
0.0
  0
SEQEND
  5
76
330
73
100
AcDbEntity
  8
\U+838C\U+8343\U+8384\U+815B_1
  0
POLYLINE
  5
77
330
1F
100
AcDbEntity
  8
\U+838C\U+8343\U+8384\U+815B_1
 62
    18
100
AcDb2dPolyline
 66
     1
 10
0.0
 20
0.0
 30
0.0
  0
VERTEX
  5
78
330
77
100
AcDbEntity
  8
\U+838C\U+8343\U+8384\U+815B_1
 62
    18
100
AcDbVertex
100
AcDb2dVertex
 10
9.466605629143766
 20
-265.3863850247993
 30
0.0
  0
VERTEX
  5
79
330
77
100
AcDbEntity
  8
\U+838C\U+8343\U+8384\U+815B_1
 62
    18
100
AcDbVertex
100
AcDb2dVertex
 10
200.2131021634884
 20
-265.3863850247993
 30
0.0
  0
SEQEND
  5
7A
330
77
100
AcDbEntity
  8
\U+838C\U+8343\U+8384\U+815B_1
  0
MTEXT
  5
7B
330
1F
100
AcDbEntity
  8
\U+838C\U+8343\U+8384\U+815B_1
 62
    29
100
AcDbMText
 10
112.5481689171755
 20
-278.3254746483006
 30
0.0
 40
2.06375694350465
 41
0.0
 71
     7
 72
     1
  1
\fMS Gothic|b0|i0|c0|p34;\W1;ポスト：ポリウレタン
  0
MTEXT
  5
7C
330
1F
100
AcDbEntity
  8
\U+838C\U+8343\U+8384\U+815B_1
 62
    29
100
AcDbMText
 10
146.6373887437226
 20
-278.3254746483006
 30
0.0
 40
2.06375694350465
 41
0.0
 71
     7
 72
     1
  1
\fMS Gothic|b0|i0|c0|p34;\W1;ベース・セットピン：スチレニクス
  0
SPLINE
  5
7D
330
1F
100
AcDbEntity
  8
\U+838C\U+8343\U+8384\U+815B_1
100
AcDbSpline
210
0.0
220
0.0
230
1.0
 70
    11
 71
     3
 72
    17
 73
    13
 74
     0
 42
0.0000000001
 43
0.0000000001
 40
0.0
 40
0.0
 40
0.0
 40
0.0
 40
1.0
 40
1.0
 40
1.0
 40
2.0
 40
2.0
 40
2.0
 40
3.0
 40
3.0
 40
3.0
 40
4.0
 40
4.0
 40
4.0
 40
4.0
 10
78.2339843554415
 20
-257.7782361551735
 30
0.0
 10
78.2339843554415
 20
-257.8829670579251
 30
0.0
 10
78.14923500650436
 20
-257.9677164068622
 30
0.0
 10
78.04450410375277
 20
-257.9677164068622
 30
0.0
 10
77.93977320100117
 20
-257.9677164068622
 30
0.0
 10
77.85502385206402
 20
-257.8829670579251
 30
0.0
 10
77.85502385206402
 20
-257.7782361551735
 30
0.0
 10
77.85502385206402
 20
-257.6735052524219
 30
0.0
 10
77.93977320100117
 20
-257.5887559034848
 30
0.0
 10
78.04450410375277
 20
-257.5887559034848
 30
0.0
 10
78.14923500650436
 20
-257.5887559034848
 30
0.0
 10
78.2339843554415
 20
-257.6735052524219
 30
0.0
 10
78.2339843554415
 20
-257.7782361551735
 30
0.0
  0
HATCH
  5
7E
330
1F
100
AcDbEntity
  8
\U+838C\U+8343\U+8384\U+815B_1
 62
    29
100
AcDbHatch
 10
0.0
 20
0.0
 30
0.0
210
0.0
220
0.0
230
1.0
  2
SOLID
 70
     1
 71
     0
 91
        1
 92
        1
 93
        1
 72
     4
 94
        3
 73
     0
 74
     1
 95
       17
 96
       13
 40
0.0
 40
0.0
 40
0.0
 40
0.0
 40
1.0
 40
1.0
 40
1.0
 40
2.0
 40
2.0
 40
2.0
 40
3.0
 40
3.0
 40
3.0
 40
4.0
 40
4.0
 40
4.0
 40
4.0
 10
78.2339843554415
 20
-257.7782361551735
 10
78.2339843554415
 20
-257.8829670579251
 10
78.14923500650436
 20
-257.9677164068622
 10
78.04450410375277
 20
-257.9677164068622
 10
77.93977320100117
 20
-257.9677164068622
 10
77.85502385206402
 20
-257.8829670579251
 10
77.85502385206402
 20
-257.7782361551735
 10
77.85502385206402
 20
-257.6735052524219
 10
77.93977320100117
 20
-257.5887559034848
 10
78.04450410375277
 20
-257.5887559034848
 10
78.14923500650436
 20
-257.5887559034848
 10
78.2339843554415
 20
-257.6735052524219
 10
78.2339843554415
 20
-257.7782361551735
 97
        0
 75
     2
 76
     1
 98
        0
  0
MTEXT
  5
7F
330
1F
100
AcDbEntity
  8
\U+838C\U+8343\U+8384\U+815B_1
 62
    29
100
AcDbMText
 10
112.548513426724
 20
-285.3472682663368
 30
0.0
 40
2.427951431197246
 41
0.0
 71
     7
 72
     1
  1
\fMS Gothic|b0|i0|c0|p34;\W1;250台座/接着固定タイプ
  0
MTEXT
  5
80
330
1F
100
AcDbEntity
  8
\U+838C\U+8343\U+8384\U+815B_1
 62
    29
100
AcDbMText
 10
147.6536919118713
 20
-270.6746065946577
 30
0.0
 40
2.427951431197246
 41
0.0
 71
     7
 72
     1
  1
\fMS Gothic|b0|i0|c0|p34;\W1;品　番   RP1000-25
  0
POLYLINE
  5
81
330
1F
100
AcDbEntity
  8
\U+838C\U+8343\U+8384\U+815B_1
 62
    29
100
AcDb2dPolyline
 66
     1
 10
0.0
 20
0.0
 30
0.0
  0
VERTEX
  5
82
330
81
100
AcDbEntity
  8
\U+838C\U+8343\U+8384\U+815B_1
 62
    29
100
AcDbVertex
100
AcDb2dVertex
 10
84.95467662806689
 20
-164.1026448157452
 30
0.0
  0
VERTEX
  5
83
330
81
100
AcDbEntity
  8
\U+838C\U+8343\U+8384\U+815B_1
 62
    29
100
AcDbVertex
100
AcDb2dVertex
 10
68.95461966592107
 20
-164.1026448157452
 30
0.0
  0
VERTEX
  5
84
330
81
100
AcDbEntity
  8
\U+838C\U+8343\U+8384\U+815B_1
 62
    29
100
AcDbVertex
100
AcDb2dVertex
 10
68.95461966592107
 20
-159.1027777380021
 30
0.0
  0
VERTEX
  5
85
330
81
100
AcDbEntity
  8
\U+838C\U+8343\U+8384\U+815B_1
 62
    29
100
AcDbVertex
100
AcDb2dVertex
 10
84.95467662806689
 20
-159.1027777380021
 30
0.0
  0
VERTEX
  5
86
330
81
100
AcDbEntity
  8
\U+838C\U+8343\U+8384\U+815B_1
 62
    29
100
AcDbVertex
100
AcDb2dVertex
 10
84.95467662806689
 20
-164.1026448157452
 30
0.0
  0
SEQEND
  5
87
330
81
100
AcDbEntity
  8
\U+838C\U+8343\U+8384\U+815B_1
  0
POLYLINE
  5
88
330
1F
100
AcDbEntity
  8
\U+838C\U+8343\U+8384\U+815B_1
 62
    29
100
AcDb2dPolyline
 66
     1
 10
0.0
 20
0.0
 30
0.0
  0
VERTEX
  5
89
330
88
100
AcDbEntity
  8
\U+838C\U+8343\U+8384\U+815B_1
 62
    29
100
AcDbVertex
100
AcDb2dVertex
 10
84.95433211851837
 20
-70.66631535776746
 30
0.0
  0
VERTEX
  5
8A
330
88
100
AcDbEntity
  8
\U+838C\U+8343\U+8384\U+815B_1
 62
    29
100
AcDbVertex
100
AcDb2dVertex
 10
68.9549641754696
 20
-70.66631535776746
 30
0.0
  0
VERTEX
  5
8B
330
88
100
AcDbEntity
  8
\U+838C\U+8343\U+8384\U+815B_1
 62
    29
100
AcDbVertex
100
AcDb2dVertex
 10
68.9549641754696
 20
-60.66658120228127
 30
0.0
  0
VERTEX
  5
8C
330
88
100
AcDbEntity
  8
\U+838C\U+8343\U+8384\U+815B_1
 62
    29
100
AcDbVertex
100
AcDb2dVertex
 10
84.95433211851837
 20
-60.66658120228127
 30
0.0
  0
VERTEX
  5
8D
330
88
100
AcDbEntity
  8
\U+838C\U+8343\U+8384\U+815B_1
 62
    29
100
AcDbVertex
100
AcDb2dVertex
 10
84.95433211851837
 20
-70.66631535776746
 30
0.0
  0
SEQEND
  5
8E
330
88
100
AcDbEntity
  8
\U+838C\U+8343\U+8384\U+815B_1
  0
POLYLINE
  5
8F
330
1F
100
AcDbEntity
  8
\U+838C\U+8343\U+8384\U+815B_1
 62
    29
100
AcDb2dPolyline
 66
     1
 10
0.0
 20
0.0
 30
0.0
  0
VERTEX
  5
90
330
8F
100
AcDbEntity
  8
\U+838C\U+8343\U+8384\U+815B_1
 62
    29
100
AcDbVertex
100
AcDb2dVertex
 10
84.95433211851837
 20
-110.8261379388733
 30
0.0
  0
VERTEX
  5
91
330
8F
100
AcDbEntity
  8
\U+838C\U+8343\U+8384\U+815B_1
 62
    29
100
AcDbVertex
100
AcDb2dVertex
 10
68.9549641754696
 20
-110.8261379388733
 30
0.0
  0
VERTEX
  5
92
330
8F
100
AcDbEntity
  8
\U+838C\U+8343\U+8384\U+815B_1
 62
    29
100
AcDbVertex
100
AcDb2dVertex
 10
68.9549641754696
 20
-100.828298585904
 30
0.0
  0
VERTEX
  5
93
330
8F
100
AcDbEntity
  8
\U+838C\U+8343\U+8384\U+815B_1
 62
    29
100
AcDbVertex
100
AcDb2dVertex
 10
84.95433211851837
 20
-100.828298585904
 30
0.0
  0
VERTEX
  5
94
330
8F
100
AcDbEntity
  8
\U+838C\U+8343\U+8384\U+815B_1
 62
    29
100
AcDbVertex
100
AcDb2dVertex
 10
84.95433211851837
 20
-110.8261379388733
 30
0.0
  0
SEQEND
  5
95
330
8F
100
AcDbEntity
  8
\U+838C\U+8343\U+8384\U+815B_1
  0
POLYLINE
  5
96
330
1F
100
AcDbEntity
  8
\U+838C\U+8343\U+8384\U+815B_1
 62
    29
100
AcDb2dPolyline
 66
     1
 10
0.0
 20
0.0
 30
0.0
  0
VERTEX
  5
97
330
96
100
AcDbEntity
  8
\U+838C\U+8343\U+8384\U+815B_1
 62
    29
100
AcDbVertex
100
AcDb2dVertex
 10
84.95433211851837
 20
-130.8261230141685
 30
0.0
  0
VERTEX
  5
98
330
96
100
AcDbEntity
  8
\U+838C\U+8343\U+8384\U+815B_1
 62
    29
100
AcDbVertex
100
AcDb2dVertex
 10
68.9549641754696
 20
-130.8261230141685
 30
0.0
  0
VERTEX
  5
99
330
96
100
AcDbEntity
  8
\U+838C\U+8343\U+8384\U+815B_1
 62
    29
100
AcDbVertex
100
AcDb2dVertex
 10
68.9549641754696
 20
-120.8282836611992
 30
0.0
  0
VERTEX
  5
9A
330
96
100
AcDbEntity
  8
\U+838C\U+8343\U+8384\U+815B_1
 62
    29
100
AcDbVertex
100
AcDb2dVertex
 10
84.95433211851837
 20
-120.8282836611992
 30
0.0
  0
VERTEX
  5
9B
330
96
100
AcDbEntity
  8
\U+838C\U+8343\U+8384\U+815B_1
 62
    29
100
AcDbVertex
100
AcDb2dVertex
 10
84.95433211851837
 20
-130.8261230141685
 30
0.0
  0
SEQEND
  5
9C
330
96
100
AcDbEntity
  8
\U+838C\U+8343\U+8384\U+815B_1
  0
POLYLINE
  5
9D
330
1F
100
AcDbEntity
  8
\U+838C\U+8343\U+8384\U+815B_1
 62
    29
100
AcDb2dPolyline
 66
     1
 10
0.0
 20
0.0
 30
0.0
  0
VERTEX
  5
9E
330
9D
100
AcDbEntity
  8
\U+838C\U+8343\U+8384\U+815B_1
 62
    29
100
AcDbVertex
100
AcDb2dVertex
 10
155.7858398048035
 20
-130.8261230141685
 30
0.0
  0
VERTEX
  5
9F
330
9D
100
AcDbEntity
  8
\U+838C\U+8343\U+8384\U+815B_1
 62
    29
100
AcDbVertex
100
AcDb2dVertex
 10
139.7864718617548
 20
-130.8261230141685
 30
0.0
  0
VERTEX
  5
A0
330
9D
100
AcDbEntity
  8
\U+838C\U+8343\U+8384\U+815B_1
 62
    29
100
AcDbVertex
100
AcDb2dVertex
 10
139.7864718617548
 20
-120.8282836611992
 30
0.0
  0
VERTEX
  5
A1
330
9D
100
AcDbEntity
  8
\U+838C\U+8343\U+8384\U+815B_1
 62
    29
100
AcDbVertex
100
AcDb2dVertex
 10
155.7858398048035
 20
-120.8282836611992
 30
0.0
  0
VERTEX
  5
A2
330
9D
100
AcDbEntity
  8
\U+838C\U+8343\U+8384\U+815B_1
 62
    29
100
AcDbVertex
100
AcDb2dVertex
 10
155.7858398048035
 20
-130.8261230141685
 30
0.0
  0
SEQEND
  5
A3
330
9D
100
AcDbEntity
  8
\U+838C\U+8343\U+8384\U+815B_1
  0
POLYLINE
  5
A4
330
1F
100
AcDbEntity
  8
\U+838C\U+8343\U+8384\U+815B_1
 62
    29
100
AcDb2dPolyline
 66
     1
 10
0.0
 20
0.0
 30
0.0
  0
VERTEX
  5
A5
330
A4
100
AcDbEntity
  8
\U+838C\U+8343\U+8384\U+815B_1
 62
    29
100
AcDbVertex
100
AcDb2dVertex
 10
84.95433211851837
 20
-90.6621663184803
 30
0.0
  0
VERTEX
  5
A6
330
A4
100
AcDbEntity
  8
\U+838C\U+8343\U+8384\U+815B_1
 62
    29
100
AcDbVertex
100
AcDb2dVertex
 10
68.9549641754696
 20
-90.6621663184803
 30
0.0
  0
VERTEX
  5
A7
330
A4
100
AcDbEntity
  8
\U+838C\U+8343\U+8384\U+815B_1
 62
    29
100
AcDbVertex
100
AcDb2dVertex
 10
68.9549641754696
 20
-80.66363794641396
 30
0.0
  0
VERTEX
  5
A8
330
A4
100
AcDbEntity
  8
\U+838C\U+8343\U+8384\U+815B_1
 62
    29
100
AcDbVertex
100
AcDb2dVertex
 10
84.95433211851837
 20
-80.66363794641396
 30
0.0
  0
VERTEX
  5
A9
330
A4
100
AcDbEntity
  8
\U+838C\U+8343\U+8384\U+815B_1
 62
    29
100
AcDbVertex
100
AcDb2dVertex
 10
84.95433211851837
 20
-90.6621663184803
 30
0.0
  0
SEQEND
  5
AA
330
A4
100
AcDbEntity
  8
\U+838C\U+8343\U+8384\U+815B_1
  0
POLYLINE
  5
AB
330
1F
100
AcDbEntity
  8
\U+838C\U+8343\U+8384\U+815B_1
 62
    29
100
AcDb2dPolyline
 66
     1
 10
0.0
 20
0.0
 30
0.0
  0
VERTEX
  5
AC
330
AB
100
AcDbEntity
  8
\U+838C\U+8343\U+8384\U+815B_1
 62
    29
100
AcDbVertex
100
AcDb2dVertex
 10
68.95461966592107
 20
-150.9754529787492
 30
0.0
  0
VERTEX
  5
AD
330
AB
100
AcDbEntity
  8
\U+838C\U+8343\U+8384\U+815B_1
 62
    29
100
AcDbVertex
100
AcDb2dVertex
 10
68.95461966592107
 20
-48.76291502687177
 30
0.0
  0
VERTEX
  5
AE
330
AB
100
AcDbEntity
  8
\U+838C\U+8343\U+8384\U+815B_1
 62
    29
100
AcDbVertex
100
AcDb2dVertex
 10
84.95467662806689
 20
-48.76291502687177
 30
0.0
  0
VERTEX
  5
AF
330
AB
100
AcDbEntity
  8
\U+838C\U+8343\U+8384\U+815B_1
 62
    29
100
AcDbVertex
100
AcDb2dVertex
 10
84.95467662806689
 20
-134.9871093412532
 30
0.0
  0
SEQEND
  5
B0
330
AB
100
AcDbEntity
  8
\U+838C\U+8343\U+8384\U+815B_1
  0
POLYLINE
  5
B1
330
1F
100
AcDbEntity
  8
\U+838C\U+8343\U+8384\U+815B_1
 62
    29
100
AcDb2dPolyline
 66
     1
 10
0.0
 20
0.0
 30
0.0
  0
VERTEX
  5
B2
330
B1
100
AcDbEntity
  8
\U+838C\U+8343\U+8384\U+815B_1
 62
    29
100
AcDbVertex
100
AcDb2dVertex
 10
84.95467662806689
 20
-137.187319572908
 30
0.0
  0
VERTEX
  5
B3
330
B1
100
AcDbEntity
  8
\U+838C\U+8343\U+8384\U+815B_1
 62
    29
100
AcDbVertex
100
AcDb2dVertex
 10
84.95467662806689
 20
-168.7628254786426
 30
0.0
  0
VERTEX
  5
B4
330
B1
100
AcDbEntity
  8
\U+838C\U+8343\U+8384\U+815B_1
 62
    29
100
AcDbVertex
100
AcDb2dVertex
 10
68.95461966592107
 20
-168.7628254786426
 30
0.0
  0
VERTEX
  5
B5
330
B1
100
AcDbEntity
  8
\U+838C\U+8343\U+8384\U+815B_1
 62
    29
100
AcDbVertex
100
AcDb2dVertex
 10
68.95461966592107
 20
-153.248526979917
 30
0.0
  0
SEQEND
  5
B6
330
B1
100
AcDbEntity
  8
\U+838C\U+8343\U+8384\U+815B_1
  0
POLYLINE
  5
B7
330
1F
100
AcDbEntity
  8
\U+838C\U+8343\U+8384\U+815B_1
 62
    29
100
AcDb2dPolyline
 66
     1
 10
0.0
 20
0.0
 30
0.0
  0
VERTEX
  5
B8
330
B7
100
AcDbEntity
  8
\U+838C\U+8343\U+8384\U+815B_1
 62
    29
100
AcDbVertex
100
AcDb2dVertex
 10
68.95461966592107
 20
-49.69085149582381
 30
0.0
  0
VERTEX
  5
B9
330
B7
100
AcDbEntity
  8
\U+838C\U+8343\U+8384\U+815B_1
 62
    29
100
AcDbVertex
100
AcDb2dVertex
 10
84.95467662806689
 20
-49.69085149582381
 30
0.0
  0
SEQEND
  5
BA
330
B7
100
AcDbEntity
  8
\U+838C\U+8343\U+8384\U+815B_1
  0
SPLINE
  5
BB
330
1F
100
AcDbEntity
  8
\U+838C\U+8343\U+8384\U+815B_1
 62
    29
100
AcDbSpline
210
0.0
220
0.0
230
1.0
 70
    11
 71
     3
 72
    17
 73
    13
 74
     0
 42
0.0000000001
 43
0.0000000001
 40
0.0
 40
0.0
 40
0.0
 40
0.0
 40
1.0
 40
1.0
 40
1.0
 40
2.0
 40
2.0
 40
2.0
 40
3.0
 40
3.0
 40
3.0
 40
4.0
 40
4.0
 40
4.0
 40
4.0
 10
77.55461152575025
 20
-112.2592976607373
 30
0.0
 10
77.55461152575025
 20
-112.5907158464183
 30
0.0
 10
77.28623858744928
 20
-112.8594332942678
 30
0.0
 10
76.95516491131677
 20
-112.8594332942678
 30
0.0
 10
76.62340221608721
 20
-112.8594332942678
 30
0.0
 10
76.35468476823772
 20
-112.5907158464183
 30
0.0
 10
76.35468476823772
 20
-112.2592976607373
 30
0.0
 10
76.35468476823772
 20
-111.9280517298305
 30
0.0
 10
76.62340221608721
 20
-111.6596787915295
 30
0.0
 10
76.95516491131677
 20
-111.6596787915295
 30
0.0
 10
77.28623858744928
 20
-111.6596787915295
 30
0.0
 10
77.55461152575025
 20
-111.9280517298305
 30
0.0
 10
77.55461152575025
 20
-112.2592976607373
 30
0.0
  0
SPLINE
  5
BC
330
1F
100
AcDbEntity
  8
\U+838C\U+8343\U+8384\U+815B_1
 62
    29
100
AcDbSpline
210
0.0
220
0.0
230
1.0
 70
    11
 71
     3
 72
    17
 73
    13
 74
     0
 42
0.0000000001
 43
0.0000000001
 40
0.0
 40
0.0
 40
0.0
 40
0.0
 40
1.0
 40
1.0
 40
1.0
 40
2.0
 40
2.0
 40
2.0
 40
3.0
 40
3.0
 40
3.0
 40
4.0
 40
4.0
 40
4.0
 40
4.0
 10
77.55461152575025
 20
-71.8073309824822
 30
0.0
 10
77.55461152575025
 20
-72.1389214229375
 30
0.0
 10
77.28623858744928
 20
-72.40763887078698
 30
0.0
 10
76.95516491131677
 20
-72.40763887078698
 30
0.0
 10
76.62340221608721
 20
-72.40763887078698
 30
0.0
 10
76.35468476823772
 20
-72.1389214229375
 30
0.0
 10
76.35468476823772
 20
-71.8073309824822
 30
0.0
 10
76.35468476823772
 20
-71.47660181589822
 30
0.0
 10
76.62340221608721
 20
-71.2075398585002
 30
0.0
 10
76.95516491131677
 20
-71.2075398585002
 30
0.0
 10
77.28623858744928
 20
-71.2075398585002
 30
0.0
 10
77.55461152575025
 20
-71.47660181589822
 30
0.0
 10
77.55461152575025
 20
-71.8073309824822
 30
0.0
  0
SPLINE
  5
BD
330
1F
100
AcDbEntity
  8
\U+838C\U+8343\U+8384\U+815B_1
 62
    29
100
AcDbSpline
210
0.0
220
0.0
230
1.0
 70
    11
 71
     3
 72
    17
 73
    13
 74
     0
 42
0.0000000001
 43
0.0000000001
 40
0.0
 40
0.0
 40
0.0
 40
0.0
 40
1.0
 40
1.0
 40
1.0
 40
2.0
 40
2.0
 40
2.0
 40
3.0
 40
3.0
 40
3.0
 40
4.0
 40
4.0
 40
4.0
 40
4.0
 10
77.55461152575025
 20
-91.79801429996716
 30
0.0
 10
77.55461152575025
 20
-92.12994924997099
 30
0.0
 10
77.28623858744928
 20
-92.39866669782047
 30
0.0
 10
76.95516491131677
 20
-92.39866669782047
 30
0.0
 10
76.62340221608721
 20
-92.39866669782047
 30
0.0
 10
76.35468476823772
 20
-92.12994924997099
 30
0.0
 10
76.35468476823772
 20
-91.79801429996716
 30
0.0
 10
76.35468476823772
 20
-91.46728513338319
 30
0.0
 10
76.62340221608721
 20
-91.19856768553369
 30
0.0
 10
76.95516491131677
 20
-91.19856768553369
 30
0.0
 10
77.28623858744928
 20
-91.19856768553369
 30
0.0
 10
77.55461152575025
 20
-91.46728513338319
 30
0.0
 10
77.55461152575025
 20
-91.79801429996716
 30
0.0
  0
INSERT
  5
BF
330
1F
100
AcDbEntity
  8
\U+838C\U+8343\U+8384\U+815B_1
100
AcDbBlockReference
  2
BLOCK_3
 10
0.0
 20
0.0
 30
0.0
  0
INSERT
  5
E6
330
1F
100
AcDbEntity
  8
\U+838C\U+8343\U+8384\U+815B_1
100
AcDbBlockReference
  2
BLOCK_4
 10
0.0
 20
0.0
 30
0.0
  0
POLYLINE
  5
EB
330
1F
100
AcDbEntity
  8
\U+838C\U+8343\U+8384\U+815B_1
 62
    18
100
AcDb2dPolyline
 66
     1
 10
0.0
 20
0.0
 30
0.0
  0
VERTEX
  5
EC
330
EB
100
AcDbEntity
  8
\U+838C\U+8343\U+8384\U+815B_1
 62
    18
100
AcDbVertex
100
AcDb2dVertex
 10
101.9546725548065
 20
-179.4016248466426
 30
0.0
  0
VERTEX
  5
ED
330
EB
100
AcDbEntity
  8
\U+838C\U+8343\U+8384\U+815B_1
 62
    18
100
AcDbVertex
100
AcDb2dVertex
 10
51.95462373918149
 20
-179.4016248466426
 30
0.0
  0
SEQEND
  5
EE
330
EB
100
AcDbEntity
  8
\U+838C\U+8343\U+8384\U+815B_1
  0
POLYLINE
  5
EF
330
1F
100
AcDbEntity
  8
\U+838C\U+8343\U+8384\U+815B_1
 62
    18
100
AcDb2dPolyline
 66
     1
 10
0.0
 20
0.0
 30
0.0
  0
VERTEX
  5
F0
330
EF
100
AcDbEntity
  8
\U+838C\U+8343\U+8384\U+815B_1
 62
    18
100
AcDbVertex
100
AcDb2dVertex
 10
101.4658135054495
 20
-179.7630153630454
 30
0.0
  0
VERTEX
  5
F1
330
EF
100
AcDbEntity
  8
\U+838C\U+8343\U+8384\U+815B_1
 62
    18
100
AcDbVertex
100
AcDb2dVertex
 10
52.44348278853844
 20
-179.7630153630454
 30
0.0
  0
SEQEND
  5
F2
330
EF
100
AcDbEntity
  8
\U+838C\U+8343\U+8384\U+815B_1
  0
POLYLINE
  5
F3
330
1F
100
AcDbEntity
  8
\U+838C\U+8343\U+8384\U+815B_1
 62
    29
100
AcDb2dPolyline
 66
     1
 10
0.0
 20
0.0
 30
0.0
  0
VERTEX
  5
F4
330
F3
100
AcDbEntity
  8
\U+838C\U+8343\U+8384\U+815B_1
 62
    29
100
AcDbVertex
100
AcDb2dVertex
 10
101.9546725548065
 20
-179.4016248466426
 30
0.0
  0
VERTEX
  5
F5
330
F3
100
AcDbEntity
  8
\U+838C\U+8343\U+8384\U+815B_1
 62
    29
100
AcDbVertex
100
AcDb2dVertex
 10
101.4534111617026
 20
-179.7630153630454
 30
0.0
  0
VERTEX
  5
F6
330
F3
100
AcDbEntity
  8
\U+838C\U+8343\U+8384\U+815B_1
 62
    29
100
AcDbVertex
100
AcDb2dVertex
 10
52.43108044479154
 20
-179.7630153630454
 30
0.0
  0
VERTEX
  5
F7
330
F3
100
AcDbEntity
  8
\U+838C\U+8343\U+8384\U+815B_1
 62
    29
100
AcDbVertex
100
AcDb2dVertex
 10
51.95462373918149
 20
-179.4016248466426
 30
0.0
  0
VERTEX
  5
F8
330
F3
100
AcDbEntity
  8
\U+838C\U+8343\U+8384\U+815B_1
 62
    29
100
AcDbVertex
100
AcDb2dVertex
 10
66.45468612704953
 20
-168.7628254786426
 30
0.0
  0
VERTEX
  5
F9
330
F3
100
AcDbEntity
  8
\U+838C\U+8343\U+8384\U+815B_1
 62
    29
100
AcDbVertex
100
AcDb2dVertex
 10
87.45461016693844
 20
-168.7628254786426
 30
0.0
  0
VERTEX
  5
FA
330
F3
100
AcDbEntity
  8
\U+838C\U+8343\U+8384\U+815B_1
 62
    29
100
AcDbVertex
100
AcDb2dVertex
 10
101.9546725548065
 20
-179.4016248466426
 30
0.0
  0
SEQEND
  5
FB
330
F3
100
AcDbEntity
  8
\U+838C\U+8343\U+8384\U+815B_1
  0
POLYLINE
  5
FC
330
1F
100
AcDbEntity
  8
\U+838C\U+8343\U+8384\U+815B_1
 62
   178
100
AcDb2dPolyline
 66
     1
 10
0.0
 20
0.0
 30
0.0
  0
VERTEX
  5
FD
330
FC
100
AcDbEntity
  8
\U+838C\U+8343\U+8384\U+815B_1
 62
   178
100
AcDbVertex
100
AcDb2dVertex
 10
39.67785372271943
 20
-179.7630153630454
 30
0.0
  0
VERTEX
  5
FE
330
FC
100
AcDbEntity
  8
\U+838C\U+8343\U+8384\U+815B_1
 62
   178
100
AcDbVertex
100
AcDb2dVertex
 10
177.5305934886035
 20
-179.7630153630454
 30
0.0
  0
SEQEND
  5
FF
330
FC
100
AcDbEntity
  8
\U+838C\U+8343\U+8384\U+815B_1
  0
MTEXT
  5
100
330
1F
100
AcDbEntity
  8
\U+838C\U+8343\U+8384\U+815B_1
 62
    29
100
AcDbMText
 10
104.8473469789965
 20
-178.7601480672892
 30
0.0
 40
1.637148051170507
 41
0.0
 71
     7
 72
     1
  1
\fKozuka Gothic Pro R|b0|i0|c0|p34;\W1;G.L.
  0
MTEXT
  5
101
330
1F
100
AcDbEntity
  8
\U+838C\U+8343\U+8384\U+815B_1
 62
    29
100
AcDbMText
 10
176.6221218091431
 20
-178.6023626940647
 30
0.0
 40
1.637148051170507
 41
0.0
 71
     7
 72
     1
  1
\fKozuka Gothic Pro R|b0|i0|c0|p34;\W1;G.L.
  0
INSERT
  5
103
330
1F
100
AcDbEntity
  8
\U+838C\U+8343\U+8384\U+815B_1
100
AcDbBlockReference
  2
BLOCK_5
 10
0.0
 20
0.0
 30
0.0
  0
POLYLINE
  5
10E
330
1F
100
AcDbEntity
  8
\U+838C\U+8343\U+8384\U+815B_1
 62
    29
100
AcDb2dPolyline
 66
     1
 10
0.0
 20
0.0
 30
0.0
  0
VERTEX
  5
10F
330
10E
100
AcDbEntity
  8
\U+838C\U+8343\U+8384\U+815B_1
 62
    29
100
AcDbVertex
100
AcDb2dVertex
 10
155.7865288239006
 20
-164.1026448157452
 30
0.0
  0
VERTEX
  5
110
330
10E
100
AcDbEntity
  8
\U+838C\U+8343\U+8384\U+815B_1
 62
    29
100
AcDbVertex
100
AcDb2dVertex
 10
139.7861273522063
 20
-164.1026448157452
 30
0.0
  0
VERTEX
  5
111
330
10E
100
AcDbEntity
  8
\U+838C\U+8343\U+8384\U+815B_1
 62
    29
100
AcDbVertex
100
AcDb2dVertex
 10
139.7861273522063
 20
-159.1027777380021
 30
0.0
  0
VERTEX
  5
112
330
10E
100
AcDbEntity
  8
\U+838C\U+8343\U+8384\U+815B_1
 62
    29
100
AcDbVertex
100
AcDb2dVertex
 10
155.7865288239006
 20
-159.1027777380021
 30
0.0
  0
VERTEX
  5
113
330
10E
100
AcDbEntity
  8
\U+838C\U+8343\U+8384\U+815B_1
 62
    29
100
AcDbVertex
100
AcDb2dVertex
 10
155.7865288239006
 20
-164.1026448157452
 30
0.0
  0
SEQEND
  5
114
330
10E
100
AcDbEntity
  8
\U+838C\U+8343\U+8384\U+815B_1
  0
POLYLINE
  5
115
330
1F
100
AcDbEntity
  8
\U+838C\U+8343\U+8384\U+815B_1
 62
    29
100
AcDb2dPolyline
 66
     1
 10
0.0
 20
0.0
 30
0.0
  0
VERTEX
  5
116
330
115
100
AcDbEntity
  8
\U+838C\U+8343\U+8384\U+815B_1
 62
    29
100
AcDbVertex
100
AcDb2dVertex
 10
155.7858398048035
 20
-70.66631535776746
 30
0.0
  0
VERTEX
  5
117
330
115
100
AcDbEntity
  8
\U+838C\U+8343\U+8384\U+815B_1
 62
    29
100
AcDbVertex
100
AcDb2dVertex
 10
139.7868163713033
 20
-70.66631535776746
 30
0.0
  0
VERTEX
  5
118
330
115
100
AcDbEntity
  8
\U+838C\U+8343\U+8384\U+815B_1
 62
    29
100
AcDbVertex
100
AcDb2dVertex
 10
139.7868163713033
 20
-60.66658120228127
 30
0.0
  0
VERTEX
  5
119
330
115
100
AcDbEntity
  8
\U+838C\U+8343\U+8384\U+815B_1
 62
    29
100
AcDbVertex
100
AcDb2dVertex
 10
155.7858398048035
 20
-60.66658120228127
 30
0.0
  0
VERTEX
  5
11A
330
115
100
AcDbEntity
  8
\U+838C\U+8343\U+8384\U+815B_1
 62
    29
100
AcDbVertex
100
AcDb2dVertex
 10
155.7858398048035
 20
-70.66631535776746
 30
0.0
  0
SEQEND
  5
11B
330
115
100
AcDbEntity
  8
\U+838C\U+8343\U+8384\U+815B_1
  0
POLYLINE
  5
11C
330
1F
100
AcDbEntity
  8
\U+838C\U+8343\U+8384\U+815B_1
 62
    29
100
AcDb2dPolyline
 66
     1
 10
0.0
 20
0.0
 30
0.0
  0
VERTEX
  5
11D
330
11C
100
AcDbEntity
  8
\U+838C\U+8343\U+8384\U+815B_1
 62
    29
100
AcDbVertex
100
AcDb2dVertex
 10
155.7858398048035
 20
-110.8261379388733
 30
0.0
  0
VERTEX
  5
11E
330
11C
100
AcDbEntity
  8
\U+838C\U+8343\U+8384\U+815B_1
 62
    29
100
AcDbVertex
100
AcDb2dVertex
 10
139.7868163713033
 20
-110.8261379388733
 30
0.0
  0
VERTEX
  5
11F
330
11C
100
AcDbEntity
  8
\U+838C\U+8343\U+8384\U+815B_1
 62
    29
100
AcDbVertex
100
AcDb2dVertex
 10
139.7868163713033
 20
-100.828298585904
 30
0.0
  0
VERTEX
  5
120
330
11C
100
AcDbEntity
  8
\U+838C\U+8343\U+8384\U+815B_1
 62
    29
100
AcDbVertex
100
AcDb2dVertex
 10
155.7858398048035
 20
-100.828298585904
 30
0.0
  0
VERTEX
  5
121
330
11C
100
AcDbEntity
  8
\U+838C\U+8343\U+8384\U+815B_1
 62
    29
100
AcDbVertex
100
AcDb2dVertex
 10
155.7858398048035
 20
-110.8261379388733
 30
0.0
  0
SEQEND
  5
122
330
11C
100
AcDbEntity
  8
\U+838C\U+8343\U+8384\U+815B_1
  0
POLYLINE
  5
123
330
1F
100
AcDbEntity
  8
\U+838C\U+8343\U+8384\U+815B_1
 62
    29
100
AcDb2dPolyline
 66
     1
 10
0.0
 20
0.0
 30
0.0
  0
VERTEX
  5
124
330
123
100
AcDbEntity
  8
\U+838C\U+8343\U+8384\U+815B_1
 62
    29
100
AcDbVertex
100
AcDb2dVertex
 10
155.7858398048035
 20
-90.6621663184803
 30
0.0
  0
VERTEX
  5
125
330
123
100
AcDbEntity
  8
\U+838C\U+8343\U+8384\U+815B_1
 62
    29
100
AcDbVertex
100
AcDb2dVertex
 10
139.7868163713033
 20
-90.6621663184803
 30
0.0
  0
VERTEX
  5
126
330
123
100
AcDbEntity
  8
\U+838C\U+8343\U+8384\U+815B_1
 62
    29
100
AcDbVertex
100
AcDb2dVertex
 10
139.7868163713033
 20
-80.66363794641396
 30
0.0
  0
VERTEX
  5
127
330
123
100
AcDbEntity
  8
\U+838C\U+8343\U+8384\U+815B_1
 62
    29
100
AcDbVertex
100
AcDb2dVertex
 10
155.7858398048035
 20
-80.66363794641396
 30
0.0
  0
VERTEX
  5
128
330
123
100
AcDbEntity
  8
\U+838C\U+8343\U+8384\U+815B_1
 62
    29
100
AcDbVertex
100
AcDb2dVertex
 10
155.7858398048035
 20
-90.6621663184803
 30
0.0
  0
SEQEND
  5
129
330
123
100
AcDbEntity
  8
\U+838C\U+8343\U+8384\U+815B_1
  0
POLYLINE
  5
12A
330
1F
100
AcDbEntity
  8
\U+838C\U+8343\U+8384\U+815B_1
 62
    29
100
AcDb2dPolyline
 66
     1
 10
0.0
 20
0.0
 30
0.0
  0
VERTEX
  5
12B
330
12A
100
AcDbEntity
  8
\U+838C\U+8343\U+8384\U+815B_1
 62
    29
100
AcDbVertex
100
AcDb2dVertex
 10
139.7861273522063
 20
-49.69085149582381
 30
0.0
  0
VERTEX
  5
12C
330
12A
100
AcDbEntity
  8
\U+838C\U+8343\U+8384\U+815B_1
 62
    29
100
AcDbVertex
100
AcDb2dVertex
 10
155.7865288239006
 20
-49.69085149582381
 30
0.0
  0
SEQEND
  5
12D
330
12A
100
AcDbEntity
  8
\U+838C\U+8343\U+8384\U+815B_1
  0
SPLINE
  5
12E
330
1F
100
AcDbEntity
  8
\U+838C\U+8343\U+8384\U+815B_1
 62
    29
100
AcDbSpline
210
0.0
220
0.0
230
1.0
 70
    11
 71
     3
 72
    17
 73
    13
 74
     0
 42
0.0000000001
 43
0.0000000001
 40
0.0
 40
0.0
 40
0.0
 40
0.0
 40
1.0
 40
1.0
 40
1.0
 40
2.0
 40
2.0
 40
2.0
 40
3.0
 40
3.0
 40
3.0
 40
4.0
 40
4.0
 40
4.0
 40
4.0
 10
148.3864637215839
 20
-112.2592976607373
 30
0.0
 10
148.3864637215839
 20
-112.5907158464183
 30
0.0
 10
148.1177462737345
 20
-112.8594332942678
 30
0.0
 10
147.7863280880534
 20
-112.8594332942678
 30
0.0
 10
147.4549099023724
 20
-112.8594332942678
 30
0.0
 10
147.1861924545229
 20
-112.5907158464183
 30
0.0
 10
147.1861924545229
 20
-112.2592976607373
 30
0.0
 10
147.1861924545229
 20
-111.9280517298305
 30
0.0
 10
147.4549099023724
 20
-111.6596787915295
 30
0.0
 10
147.7863280880534
 20
-111.6596787915295
 30
0.0
 10
148.1177462737345
 20
-111.6596787915295
 30
0.0
 10
148.3864637215839
 20
-111.9280517298305
 30
0.0
 10
148.3864637215839
 20
-112.2592976607373
 30
0.0
  0
SPLINE
  5
12F
330
1F
100
AcDbEntity
  8
\U+838C\U+8343\U+8384\U+815B_1
 62
    29
100
AcDbSpline
210
0.0
220
0.0
230
1.0
 70
    11
 71
     3
 72
    17
 73
    13
 74
     0
 42
0.0000000001
 43
0.0000000001
 40
0.0
 40
0.0
 40
0.0
 40
0.0
 40
1.0
 40
1.0
 40
1.0
 40
2.0
 40
2.0
 40
2.0
 40
3.0
 40
3.0
 40
3.0
 40
4.0
 40
4.0
 40
4.0
 40
4.0
 10
148.3864637215839
 20
-71.8073309824822
 30
0.0
 10
148.3864637215839
 20
-72.1389214229375
 30
0.0
 10
148.1177462737345
 20
-72.40763887078698
 30
0.0
 10
147.7863280880534
 20
-72.40763887078698
 30
0.0
 10
147.4549099023724
 20
-72.40763887078698
 30
0.0
 10
147.1861924545229
 20
-72.1389214229375
 30
0.0
 10
147.1861924545229
 20
-71.8073309824822
 30
0.0
 10
147.1861924545229
 20
-71.47660181589822
 30
0.0
 10
147.4549099023724
 20
-71.2075398585002
 30
0.0
 10
147.7863280880534
 20
-71.2075398585002
 30
0.0
 10
148.1177462737345
 20
-71.2075398585002
 30
0.0
 10
148.3864637215839
 20
-71.47660181589822
 30
0.0
 10
148.3864637215839
 20
-71.8073309824822
 30
0.0
  0
SPLINE
  5
130
330
1F
100
AcDbEntity
  8
\U+838C\U+8343\U+8384\U+815B_1
 62
    29
100
AcDbSpline
210
0.0
220
0.0
230
1.0
 70
    11
 71
     3
 72
    17
 73
    13
 74
     0
 42
0.0000000001
 43
0.0000000001
 40
0.0
 40
0.0
 40
0.0
 40
0.0
 40
1.0
 40
1.0
 40
1.0
 40
2.0
 40
2.0
 40
2.0
 40
3.0
 40
3.0
 40
3.0
 40
4.0
 40
4.0
 40
4.0
 40
4.0
 10
148.3864637215839
 20
-91.79801429996716
 30
0.0
 10
148.3864637215839
 20
-92.12994924997099
 30
0.0
 10
148.1177462737345
 20
-92.39866669782047
 30
0.0
 10
147.7863280880534
 20
-92.39866669782047
 30
0.0
 10
147.4549099023724
 20
-92.39866669782047
 30
0.0
 10
147.1861924545229
 20
-92.12994924997099
 30
0.0
 10
147.1861924545229
 20
-91.79801429996716
 30
0.0
 10
147.1861924545229
 20
-91.46728513338319
 30
0.0
 10
147.4549099023724
 20
-91.19856768553369
 30
0.0
 10
147.7863280880534
 20
-91.19856768553369
 30
0.0
 10
148.1177462737345
 20
-91.19856768553369
 30
0.0
 10
148.3864637215839
 20
-91.46728513338319
 30
0.0
 10
148.3864637215839
 20
-91.79801429996716
 30
0.0
  0
POLYLINE
  5
131
330
1F
100
AcDbEntity
  8
\U+838C\U+8343\U+8384\U+815B_1
  6
AI-LINETYPE-6
 62
    29
100
AcDb2dPolyline
 66
     1
 10
0.0
 20
0.0
 30
0.0
  0
VERTEX
  5
132
330
131
100
AcDbEntity
  8
\U+838C\U+8343\U+8384\U+815B_1
  6
AI-LINETYPE-6
 62
    29
100
AcDbVertex
100
AcDb2dVertex
 10
155.9608506554542
 20
-179.1549560098988
 30
0.0
  0
VERTEX
  5
133
330
131
100
AcDbEntity
  8
\U+838C\U+8343\U+8384\U+815B_1
  6
AI-LINETYPE-6
 62
    29
100
AcDbVertex
100
AcDb2dVertex
 10
139.6118055206526
 20
-179.1549560098988
 30
0.0
  0
VERTEX
  5
134
330
131
100
AcDbEntity
  8
\U+838C\U+8343\U+8384\U+815B_1
  6
AI-LINETYPE-6
 62
    29
100
AcDbVertex
100
AcDb2dVertex
 10
139.6118055206526
 20
-168.7628254786426
 30
0.0
  0
VERTEX
  5
135
330
131
100
AcDbEntity
  8
\U+838C\U+8343\U+8384\U+815B_1
  6
AI-LINETYPE-6
 62
    29
100
AcDbVertex
100
AcDb2dVertex
 10
155.9608506554542
 20
-168.7628254786426
 30
0.0
  0
VERTEX
  5
136
330
131
100
AcDbEntity
  8
\U+838C\U+8343\U+8384\U+815B_1
  6
AI-LINETYPE-6
 62
    29
100
AcDbVertex
100
AcDb2dVertex
 10
155.9608506554542
 20
-179.1549560098988
 30
0.0
  0
SEQEND
  5
137
330
131
100
AcDbEntity
  8
\U+838C\U+8343\U+8384\U+815B_1
  6
AI-LINETYPE-6
  0
POLYLINE
  5
139
330
1F
100
AcDbEntity
  8
\U+838C\U+8343\U+8384\U+815B_1
  6
AI-LINETYPE-7
 62
    29
100
AcDb2dPolyline
 66
     1
 10
0.0
 20
0.0
 30
0.0
  0
VERTEX
  5
13A
330
139
100
AcDbEntity
  8
\U+838C\U+8343\U+8384\U+815B_1
  6
AI-LINETYPE-7
 62
    29
100
AcDbVertex
100
AcDb2dVertex
 10
155.2187770879314
 20
-179.1928520602365
 30
0.0
  0
VERTEX
  5
13B
330
139
100
AcDbEntity
  8
\U+838C\U+8343\U+8384\U+815B_1
  6
AI-LINETYPE-7
 62
    29
100
AcDbVertex
100
AcDb2dVertex
 10
140.3535345786269
 20
-179.1928520602365
 30
0.0
  0
VERTEX
  5
13C
330
139
100
AcDbEntity
  8
\U+838C\U+8343\U+8384\U+815B_1
  6
AI-LINETYPE-7
 62
    29
100
AcDbVertex
100
AcDb2dVertex
 10
140.3535345786269
 20
-168.7628254786426
 30
0.0
  0
VERTEX
  5
13D
330
139
100
AcDbEntity
  8
\U+838C\U+8343\U+8384\U+815B_1
  6
AI-LINETYPE-7
 62
    29
100
AcDbVertex
100
AcDb2dVertex
 10
155.2187770879314
 20
-168.7628254786426
 30
0.0
  0
VERTEX
  5
13E
330
139
100
AcDbEntity
  8
\U+838C\U+8343\U+8384\U+815B_1
  6
AI-LINETYPE-7
 62
    29
100
AcDbVertex
100
AcDb2dVertex
 10
155.2187770879314
 20
-179.1928520602365
 30
0.0
  0
SEQEND
  5
13F
330
139
100
AcDbEntity
  8
\U+838C\U+8343\U+8384\U+815B_1
  6
AI-LINETYPE-7
  0
POLYLINE
  5
141
330
1F
100
AcDbEntity
  8
\U+838C\U+8343\U+8384\U+815B_1
 62
    29
100
AcDb2dPolyline
 66
     1
 10
0.0
 20
0.0
 30
0.0
  0
VERTEX
  5
142
330
141
100
AcDbEntity
  8
\U+838C\U+8343\U+8384\U+815B_1
 62
    29
100
AcDbVertex
100
AcDb2dVertex
 10
172.7860079863174
 20
-179.4016248466426
 30
0.0
  0
VERTEX
  5
143
330
141
100
AcDbEntity
  8
\U+838C\U+8343\U+8384\U+815B_1
 62
    29
100
AcDbVertex
100
AcDb2dVertex
 10
172.2850911027621
 20
-179.7630153630454
 30
0.0
  0
VERTEX
  5
144
330
141
100
AcDbEntity
  8
\U+838C\U+8343\U+8384\U+815B_1
 62
    29
100
AcDbVertex
100
AcDb2dVertex
 10
123.262760385851
 20
-179.7630153630454
 30
0.0
  0
VERTEX
  5
145
330
141
100
AcDbEntity
  8
\U+838C\U+8343\U+8384\U+815B_1
 62
    29
100
AcDbVertex
100
AcDb2dVertex
 10
122.7863036802409
 20
-179.4016248466426
 30
0.0
  0
VERTEX
  5
146
330
141
100
AcDbEntity
  8
\U+838C\U+8343\U+8384\U+815B_1
 62
    29
100
AcDbVertex
100
AcDb2dVertex
 10
137.286366068109
 20
-168.7628254786426
 30
0.0
  0
VERTEX
  5
147
330
141
100
AcDbEntity
  8
\U+838C\U+8343\U+8384\U+815B_1
 62
    29
100
AcDbVertex
100
AcDb2dVertex
 10
158.2862901079979
 20
-168.7628254786426
 30
0.0
  0
VERTEX
  5
148
330
141
100
AcDbEntity
  8
\U+838C\U+8343\U+8384\U+815B_1
 62
    29
100
AcDbVertex
100
AcDb2dVertex
 10
172.7860079863174
 20
-179.4016248466426
 30
0.0
  0
SEQEND
  5
149
330
141
100
AcDbEntity
  8
\U+838C\U+8343\U+8384\U+815B_1
  0
INSERT
  5
14B
330
1F
100
AcDbEntity
  8
\U+838C\U+8343\U+8384\U+815B_1
100
AcDbBlockReference
  2
BLOCK_6
 10
0.0
 20
0.0
 30
0.0
  0
SPLINE
  5
161
330
1F
100
AcDbEntity
  8
\U+838C\U+8343\U+8384\U+815B_1
 62
    29
100
AcDbSpline
210
0.0
220
0.0
230
1.0
 70
    11
 71
     3
 72
    17
 73
    13
 74
     0
 42
0.0000000001
 43
0.0000000001
 40
0.0
 40
0.0
 40
0.0
 40
0.0
 40
1.0
 40
1.0
 40
1.0
 40
2.0
 40
2.0
 40
2.0
 40
3.0
 40
3.0
 40
3.0
 40
4.0
 40
4.0
 40
4.0
 40
4.0
 10
151.3864528701395
 20
-176.0609157545959
 30
0.0
 10
151.3864528701395
 20
-177.468581769869
 30
0.0
 10
149.7741481830426
 20
-178.6023626940647
 30
0.0
 10
147.7863280880534
 20
-178.6023626940647
 30
0.0
 10
145.7978189739672
 20
-178.6023626940647
 30
0.0
 10
144.1862033059674
 20
-177.6029404937937
 30
0.0
 10
144.1862033059674
 20
-176.0609157545959
 30
0.0
 10
144.1862033059674
 20
-174.262920420844
 30
0.0
 10
145.7978189739672
 20
-172.8135687501994
 30
0.0
 10
147.7863280880534
 20
-172.8135687501994
 30
0.0
 10
149.7741481830426
 20
-172.8135687501994
 30
0.0
 10
151.3864528701395
 20
-174.3225205727388
 30
0.0
 10
151.3864528701395
 20
-176.0609157545959
 30
0.0
  0
INSERT
  5
163
330
1F
100
AcDbEntity
  8
\U+838C\U+8343\U+8384\U+815B_1
100
AcDbBlockReference
  2
BLOCK_7
 10
0.0
 20
0.0
 30
0.0
  0
INSERT
  5
1BC
330
1F
100
AcDbEntity
  8
\U+838C\U+8343\U+8384\U+815B_1
100
AcDbBlockReference
  2
BLOCK_13
 10
0.0
 20
0.0
 30
0.0
  0
POLYLINE
  5
224
330
1F
100
AcDbEntity
  8
\U+838C\U+8343\U+8384\U+815B_1
 62
    29
100
AcDb2dPolyline
 66
     1
 10
0.0
 20
0.0
 30
0.0
  0
VERTEX
  5
225
330
224
100
AcDbEntity
  8
\U+838C\U+8343\U+8384\U+815B_1
 62
    29
100
AcDbVertex
100
AcDb2dVertex
 10
57.0444078090896
 20
-130.8045911673857
 30
0.0
  0
VERTEX
  5
226
330
224
100
AcDbEntity
  8
\U+838C\U+8343\U+8384\U+815B_1
 62
    29
100
AcDbVertex
100
AcDb2dVertex
 10
46.86501192404764
 20
-130.8045911673857
 30
0.0
  0
VERTEX
  5
227
330
224
100
AcDbEntity
  8
\U+838C\U+8343\U+8384\U+815B_1
 62
    29
100
AcDbVertex
100
AcDb2dVertex
 10
46.86501192404764
 20
-48.76291502687177
 30
0.0
  0
VERTEX
  5
228
330
224
100
AcDbEntity
  8
\U+838C\U+8343\U+8384\U+815B_1
 62
    29
100
AcDbVertex
100
AcDb2dVertex
 10
57.0444078090896
 20
-48.76291502687177
 30
0.0
  0
SEQEND
  5
229
330
224
100
AcDbEntity
  8
\U+838C\U+8343\U+8384\U+815B_1
  0
POLYLINE
  5
22A
330
1F
100
AcDbEntity
  8
\U+838C\U+8343\U+8384\U+815B_1
 62
    29
100
AcDb2dPolyline
 66
     1
 10
0.0
 20
0.0
 30
0.0
  0
VERTEX
  5
22B
330
22A
100
AcDbEntity
  8
\U+838C\U+8343\U+8384\U+815B_1
 62
    29
100
AcDbVertex
100
AcDb2dVertex
 10
57.0444078090896
 20
-179.7633598725939
 30
0.0
  0
VERTEX
  5
22C
330
22A
100
AcDbEntity
  8
\U+838C\U+8343\U+8384\U+815B_1
 62
    29
100
AcDbVertex
100
AcDb2dVertex
 10
46.86501192404764
 20
-179.7633598725939
 30
0.0
  0
VERTEX
  5
22D
330
22A
100
AcDbEntity
  8
\U+838C\U+8343\U+8384\U+815B_1
 62
    29
100
AcDbVertex
100
AcDb2dVertex
 10
46.86501192404764
 20
-159.1027777380021
 30
0.0
  0
VERTEX
  5
22E
330
22A
100
AcDbEntity
  8
\U+838C\U+8343\U+8384\U+815B_1
 62
    29
100
AcDbVertex
100
AcDb2dVertex
 10
57.0444078090896
 20
-159.1027777380021
 30
0.0
  0
SEQEND
  5
22F
330
22A
100
AcDbEntity
  8
\U+838C\U+8343\U+8384\U+815B_1
  0
POLYLINE
  5
230
330
1F
100
AcDbEntity
  8
\U+838C\U+8343\U+8384\U+815B_1
 62
    29
100
AcDb2dPolyline
 66
     1
 10
0.0
 20
0.0
 30
0.0
  0
VERTEX
  5
231
330
230
100
AcDbEntity
  8
\U+838C\U+8343\U+8384\U+815B_1
 62
    29
100
AcDbVertex
100
AcDb2dVertex
 10
48.53054333639167
 20
-179.7633598725939
 30
0.0
  0
VERTEX
  5
232
330
230
100
AcDbEntity
  8
\U+838C\U+8343\U+8384\U+815B_1
 62
    29
100
AcDbVertex
100
AcDb2dVertex
 10
36.3521307960335
 20
-179.7633598725939
 30
0.0
  0
VERTEX
  5
233
330
230
100
AcDbEntity
  8
\U+838C\U+8343\U+8384\U+815B_1
 62
    29
100
AcDbVertex
100
AcDb2dVertex
 10
36.3521307960335
 20
-48.76308728164604
 30
0.0
  0
VERTEX
  5
234
330
230
100
AcDbEntity
  8
\U+838C\U+8343\U+8384\U+815B_1
 62
    29
100
AcDbVertex
100
AcDb2dVertex
 10
48.53054333639167
 20
-48.76308728164604
 30
0.0
  0
SEQEND
  5
235
330
230
100
AcDbEntity
  8
\U+838C\U+8343\U+8384\U+815B_1
  0
POLYLINE
  5
236
330
1F
100
AcDbEntity
  8
\U+838C\U+8343\U+8384\U+815B_1
 62
    29
100
AcDb2dPolyline
 66
     1
 10
0.0
 20
0.0
 30
0.0
  0
VERTEX
  5
237
330
236
100
AcDbEntity
  8
\U+838C\U+8343\U+8384\U+815B_1
 62
    29
100
AcDbVertex
100
AcDb2dVertex
 10
46.86501192404764
 20
-159.1027777380021
 30
0.0
  0
VERTEX
  5
238
330
236
100
AcDbEntity
  8
\U+838C\U+8343\U+8384\U+815B_1
 62
    29
100
AcDbVertex
100
AcDb2dVertex
 10
57.0444078090896
 20
-159.1027777380021
 30
0.0
  0
SEQEND
  5
239
330
236
100
AcDbEntity
  8
\U+838C\U+8343\U+8384\U+815B_1
  0
POLYLINE
  5
23A
330
1F
100
AcDbEntity
  8
\U+838C\U+8343\U+8384\U+815B_1
 62
    29
100
AcDb2dPolyline
 66
     1
 10
0.0
 20
0.0
 30
0.0
  0
VERTEX
  5
23B
330
23A
100
AcDbEntity
  8
\U+838C\U+8343\U+8384\U+815B_1
 62
    29
100
AcDbVertex
100
AcDb2dVertex
 10
57.0444078090896
 20
-164.1026448157452
 30
0.0
  0
VERTEX
  5
23C
330
23A
100
AcDbEntity
  8
\U+838C\U+8343\U+8384\U+815B_1
 62
    29
100
AcDbVertex
100
AcDb2dVertex
 10
46.86501192404764
 20
-164.1026448157452
 30
0.0
  0
SEQEND
  5
23D
330
23A
100
AcDbEntity
  8
\U+838C\U+8343\U+8384\U+815B_1
  0
POLYLINE
  5
23E
330
1F
100
AcDbEntity
  8
\U+838C\U+8343\U+8384\U+815B_1
 62
    29
100
AcDb2dPolyline
 66
     1
 10
0.0
 20
0.0
 30
0.0
  0
VERTEX
  5
23F
330
23E
100
AcDbEntity
  8
\U+838C\U+8343\U+8384\U+815B_1
 62
    29
100
AcDbVertex
100
AcDb2dVertex
 10
46.8651841788219
 20
-60.66658120228127
 30
0.0
  0
VERTEX
  5
240
330
23E
100
AcDbEntity
  8
\U+838C\U+8343\U+8384\U+815B_1
 62
    29
100
AcDbVertex
100
AcDb2dVertex
 10
57.04423555431534
 20
-60.66658120228127
 30
0.0
  0
SEQEND
  5
241
330
23E
100
AcDbEntity
  8
\U+838C\U+8343\U+8384\U+815B_1
  0
POLYLINE
  5
242
330
1F
100
AcDbEntity
  8
\U+838C\U+8343\U+8384\U+815B_1
 62
    29
100
AcDb2dPolyline
 66
     1
 10
0.0
 20
0.0
 30
0.0
  0
VERTEX
  5
243
330
242
100
AcDbEntity
  8
\U+838C\U+8343\U+8384\U+815B_1
 62
    29
100
AcDbVertex
100
AcDb2dVertex
 10
57.04423555431534
 20
-70.66631535776746
 30
0.0
  0
VERTEX
  5
244
330
242
100
AcDbEntity
  8
\U+838C\U+8343\U+8384\U+815B_1
 62
    29
100
AcDbVertex
100
AcDb2dVertex
 10
46.8651841788219
 20
-70.66631535776746
 30
0.0
  0
SEQEND
  5
245
330
242
100
AcDbEntity
  8
\U+838C\U+8343\U+8384\U+815B_1
  0
POLYLINE
  5
246
330
1F
100
AcDbEntity
  8
\U+838C\U+8343\U+8384\U+815B_1
 62
    29
100
AcDb2dPolyline
 66
     1
 10
0.0
 20
0.0
 30
0.0
  0
VERTEX
  5
247
330
246
100
AcDbEntity
  8
\U+838C\U+8343\U+8384\U+815B_1
 62
    29
100
AcDbVertex
100
AcDb2dVertex
 10
46.8651841788219
 20
-100.828298585904
 30
0.0
  0
VERTEX
  5
248
330
246
100
AcDbEntity
  8
\U+838C\U+8343\U+8384\U+815B_1
 62
    29
100
AcDbVertex
100
AcDb2dVertex
 10
57.04423555431534
 20
-100.828298585904
 30
0.0
  0
SEQEND
  5
249
330
246
100
AcDbEntity
  8
\U+838C\U+8343\U+8384\U+815B_1
  0
POLYLINE
  5
24A
330
1F
100
AcDbEntity
  8
\U+838C\U+8343\U+8384\U+815B_1
 62
    29
100
AcDb2dPolyline
 66
     1
 10
0.0
 20
0.0
 30
0.0
  0
VERTEX
  5
24B
330
24A
100
AcDbEntity
  8
\U+838C\U+8343\U+8384\U+815B_1
 62
    29
100
AcDbVertex
100
AcDb2dVertex
 10
46.8651841788219
 20
-80.66363794641396
 30
0.0
  0
VERTEX
  5
24C
330
24A
100
AcDbEntity
  8
\U+838C\U+8343\U+8384\U+815B_1
 62
    29
100
AcDbVertex
100
AcDb2dVertex
 10
57.04423555431534
 20
-80.66363794641396
 30
0.0
  0
SEQEND
  5
24D
330
24A
100
AcDbEntity
  8
\U+838C\U+8343\U+8384\U+815B_1
  0
POLYLINE
  5
24E
330
1F
100
AcDbEntity
  8
\U+838C\U+8343\U+8384\U+815B_1
 62
    29
100
AcDb2dPolyline
 66
     1
 10
0.0
 20
0.0
 30
0.0
  0
VERTEX
  5
24F
330
24E
100
AcDbEntity
  8
\U+838C\U+8343\U+8384\U+815B_1
 62
    29
100
AcDbVertex
100
AcDb2dVertex
 10
57.04423555431534
 20
-90.6621663184803
 30
0.0
  0
VERTEX
  5
250
330
24E
100
AcDbEntity
  8
\U+838C\U+8343\U+8384\U+815B_1
 62
    29
100
AcDbVertex
100
AcDb2dVertex
 10
46.8651841788219
 20
-90.6621663184803
 30
0.0
  0
SEQEND
  5
251
330
24E
100
AcDbEntity
  8
\U+838C\U+8343\U+8384\U+815B_1
  0
MTEXT
  5
252
330
1F
100
AcDbEntity
  8
\U+838C\U+8343\U+8384\U+815B_1
 62
    29
100
AcDbMText
 10
46.09003769464069
 20
-56.90143634645172
 30
0.0
 40
2.15899999946025
 41
0.0
 71
     7
 72
     1
  1
\fKozuka Gothic Pro R|b0|i0|c0|p34;\W1;50
 11
-4.371139000186241E-8
 21
0.999999999999999
 31
0.0
  0
MTEXT
  5
253
330
1F
100
AcDbEntity
  8
\U+838C\U+8343\U+8384\U+815B_1
 62
    29
100
AcDbMText
 10
46.09003769464069
 20
-66.96766084480322
 30
0.0
 40
2.15899999946025
 41
0.0
 71
     7
 72
     1
  1
\fKozuka Gothic Pro R|b0|i0|c0|p34;\W1;50
 11
-4.371139000186241E-8
 21
0.999999999999999
 31
0.0
  0
MTEXT
  5
254
330
1F
100
AcDbEntity
  8
\U+838C\U+8343\U+8384\U+815B_1
 62
    29
100
AcDbMText
 10
46.09003769464069
 20
-77.03388534315472
 30
0.0
 40
2.15899999946025
 41
0.0
 71
     7
 72
     1
  1
\fKozuka Gothic Pro R|b0|i0|c0|p34;\W1;50
 11
-4.371139000186241E-8
 21
0.999999999999999
 31
0.0
  0
MTEXT
  5
255
330
1F
100
AcDbEntity
  8
\U+838C\U+8343\U+8384\U+815B_1
 62
    29
100
AcDbMText
 10
46.09003769464069
 20
-87.10010984150622
 30
0.0
 40
2.15899999946025
 41
0.0
 71
     7
 72
     1
  1
\fKozuka Gothic Pro R|b0|i0|c0|p34;\W1;50
 11
-4.371139000186241E-8
 21
0.999999999999999
 31
0.0
  0
MTEXT
  5
256
330
1F
100
AcDbEntity
  8
\U+838C\U+8343\U+8384\U+815B_1
 62
    29
100
AcDbMText
 10
46.09003769464069
 20
-97.16633433985773
 30
0.0
 40
2.15899999946025
 41
0.0
 71
     7
 72
     1
  1
\fKozuka Gothic Pro R|b0|i0|c0|p34;\W1;50
 11
-4.371139000186241E-8
 21
0.999999999999999
 31
0.0
  0
MTEXT
  5
257
330
1F
100
AcDbEntity
  8
\U+838C\U+8343\U+8384\U+815B_1
 62
    29
100
AcDbMText
 10
46.09003769464069
 20
-107.2325588382092
 30
0.0
 40
2.15899999946025
 41
0.0
 71
     7
 72
     1
  1
\fKozuka Gothic Pro R|b0|i0|c0|p34;\W1;50
 11
-4.371139000186241E-8
 21
0.999999999999999
 31
0.0
  0
MTEXT
  5
258
330
1F
100
AcDbEntity
  8
\U+838C\U+8343\U+8384\U+815B_1
 62
    29
100
AcDbMText
 10
46.09003769464069
 20
-117.2987833365607
 30
0.0
 40
2.15899999946025
 41
0.0
 71
     7
 72
     1
  1
\fKozuka Gothic Pro R|b0|i0|c0|p34;\W1;50
 11
-4.371139000186241E-8
 21
0.999999999999999
 31
0.0
  0
MTEXT
  5
259
330
1F
100
AcDbEntity
  8
\U+838C\U+8343\U+8384\U+815B_1
 62
    29
100
AcDbMText
 10
46.09003769464069
 20
-127.3650078349122
 30
0.0
 40
2.15899999946025
 41
0.0
 71
     7
 72
     1
  1
\fKozuka Gothic Pro R|b0|i0|c0|p34;\W1;50
 11
-4.371139000186241E-8
 21
0.999999999999999
 31
0.0
  0
MTEXT
  5
25A
330
1F
100
AcDbEntity
  8
\U+838C\U+8343\U+8384\U+815B_1
 62
    29
100
AcDbMText
 10
46.09003769464069
 20
-163.6220539955528
 30
0.0
 40
2.15899999946025
 41
0.0
 71
     7
 72
     1
  1
\fKozuka Gothic Pro R|b0|i0|c0|p34;\W1;25
 11
-4.371139000186241E-8
 21
0.999999999999999
 31
0.0
  0
MTEXT
  5
25B
330
1F
100
AcDbEntity
  8
\U+838C\U+8343\U+8384\U+815B_1
 62
    29
100
AcDbMText
 10
46.09003769464069
 20
-168.4217610256029
 30
0.0
 40
2.15899999946025
 41
0.0
 71
     7
 72
     1
  1
\fKozuka Gothic Pro R|b0|i0|c0|p34;\W1;25
 11
-4.371139000186241E-8
 21
0.999999999999999
 31
0.0
  0
MTEXT
  5
25C
330
1F
100
AcDbEntity
  8
\U+838C\U+8343\U+8384\U+815B_1
 62
    29
100
AcDbMText
 10
46.09003769464069
 20
-178.7604925768377
 30
0.0
 40
2.15899999946025
 41
0.0
 71
     7
 72
     1
  1
\fKozuka Gothic Pro R|b0|i0|c0|p34;\W1;50±2
 11
-4.371139000186241E-8
 21
0.999999999999999
 31
0.0
  0
POLYLINE
  5
25D
330
1F
100
AcDbEntity
  8
\U+838C\U+8343\U+8384\U+815B_1
 62
    29
100
AcDb2dPolyline
 66
     1
 10
0.0
 20
0.0
 30
0.0
  0
VERTEX
  5
25E
330
25D
100
AcDbEntity
  8
\U+838C\U+8343\U+8384\U+815B_1
 62
    29
100
AcDbVertex
100
AcDb2dVertex
 10
57.0444078090896
 20
-168.7628254786426
 30
0.0
  0
VERTEX
  5
25F
330
25D
100
AcDbEntity
  8
\U+838C\U+8343\U+8384\U+815B_1
 62
    29
100
AcDbVertex
100
AcDb2dVertex
 10
46.86501192404764
 20
-168.7628254786426
 30
0.0
  0
SEQEND
  5
260
330
25D
100
AcDbEntity
  8
\U+838C\U+8343\U+8384\U+815B_1
  0
MTEXT
  5
261
330
1F
100
AcDbEntity
  8
\U+838C\U+8343\U+8384\U+815B_1
 62
    29
100
AcDbMText
 10
34.43252359165228
 20
-118.8699191326089
 30
0.0
 40
2.15899999946025
 41
0.0
 71
     7
 72
     1
  1
\fKozuka Gothic Pro R|b0|i0|c0|p34;\W1;1000±10
 11
-4.371139000186241E-8
 21
0.999999999999999
 31
0.0
  0
POLYLINE
  5
262
330
1F
100
AcDbEntity
  8
\U+838C\U+8343\U+8384\U+815B_1
 62
    29
100
AcDb2dPolyline
 66
     1
 10
0.0
 20
0.0
 30
0.0
  0
VERTEX
  5
263
330
262
100
AcDbEntity
  8
\U+838C\U+8343\U+8384\U+815B_1
 62
    29
100
AcDbVertex
100
AcDb2dVertex
 10
58.99036999393297
 20
-198.6603976282863
 30
0.0
  0
VERTEX
  5
264
330
262
100
AcDbEntity
  8
\U+838C\U+8343\U+8384\U+815B_1
 62
    29
100
AcDbVertex
100
AcDb2dVertex
 10
36.3521307960335
 20
-198.6603976282863
 30
0.0
  0
VERTEX
  5
265
330
262
100
AcDbEntity
  8
\U+838C\U+8343\U+8384\U+815B_1
 62
    29
100
AcDbVertex
100
AcDb2dVertex
 10
36.3521307960335
 20
-248.6604464439113
 30
0.0
  0
VERTEX
  5
266
330
262
100
AcDbEntity
  8
\U+838C\U+8343\U+8384\U+815B_1
 62
    29
100
AcDbVertex
100
AcDb2dVertex
 10
58.99036999393297
 20
-248.6604464439113
 30
0.0
  0
SEQEND
  5
267
330
262
100
AcDbEntity
  8
\U+838C\U+8343\U+8384\U+815B_1
  0
MTEXT
  5
268
330
1F
100
AcDbEntity
  8
\U+838C\U+8343\U+8384\U+815B_1
 62
    29
100
AcDbMText
 10
34.43235133687803
 20
-228.9710367266114
 30
0.0
 40
2.15899999946025
 41
0.0
 71
     7
 72
     1
  1
\fKozuka Gothic Pro R|b0|i0|c0|p34;\W1;Ф250±5
 11
-4.371139000186241E-8
 21
0.999999999999999
 31
0.0
  0
SPLINE
  5
269
330
1F
100
AcDbEntity
  8
\U+838C\U+8343\U+8384\U+815B_1
  6
AI-LINETYPE-23
 62
   253
100
AcDbSpline
210
0.0
220
0.0
230
1.0
 70
    11
 71
     3
 72
    17
 73
    13
 74
     0
 42
0.0000000001
 43
0.0000000001
 40
0.0
 40
0.0
 40
0.0
 40
0.0
 40
1.0
 40
1.0
 40
1.0
 40
2.0
 40
2.0
 40
2.0
 40
3.0
 40
3.0
 40
3.0
 40
4.0
 40
4.0
 40
4.0
 40
4.0
 10
96.95377194841781
 20
-223.6604220360988
 30
0.0
 10
96.95377194841781
 20
-234.7060871809068
 30
0.0
 10
87.99927976315644
 20
-243.6598903470712
 30
0.0
 10
76.95361461834841
 20
-243.6598903470712
 30
0.0
 10
65.90812172831464
 20
-243.6598903470712
 30
0.0
 10
56.95362954305326
 20
-234.7060871809068
 30
0.0
 10
56.95362954305326
 20
-223.6604220360988
 30
0.0
 10
56.95362954305326
 20
-212.6144123817422
 30
0.0
 10
65.90812172831464
 20
-203.6602647060294
 30
0.0
 10
76.95361461834841
 20
-203.6602647060294
 30
0.0
 10
87.99927976315644
 20
-203.6602647060294
 30
0.0
 10
96.95377194841781
 20
-212.6144123817422
 30
0.0
 10
96.95377194841781
 20
-223.6604220360988
 30
0.0
  0
MTEXT
  5
26B
330
1F
100
AcDbEntity
  8
\U+838C\U+8343\U+8384\U+815B_1
 62
    29
100
AcDbMText
 10
89.29274086309348
 20
-63.15893553108527
 30
0.0
 40
2.15899999946025
 41
0.0
 71
     7
 72
     1
  1
\fKozuka Gothic Pro R|b0|i0|c0|p34;\W1;高輝度反射シート（白）
  0
POLYLINE
  5
26C
330
1F
100
AcDbEntity
  8
\U+838C\U+8343\U+8384\U+815B_1
 62
    29
100
AcDb2dPolyline
 66
     1
 10
0.0
 20
0.0
 30
0.0
  0
VERTEX
  5
26D
330
26C
100
AcDbEntity
  8
\U+838C\U+8343\U+8384\U+815B_1
 62
    29
100
AcDbVertex
100
AcDb2dVertex
 10
82.83697643328381
 20
-66.40318194954504
 30
0.0
  0
VERTEX
  5
26E
330
26C
100
AcDbEntity
  8
\U+838C\U+8343\U+8384\U+815B_1
 62
    29
100
AcDbVertex
100
AcDb2dVertex
 10
88.78734535540734
 20
-64.05638290499286
 30
0.0
  0
VERTEX
  5
26F
330
26C
100
AcDbEntity
  8
\U+838C\U+8343\U+8384\U+815B_1
 62
    29
100
AcDbVertex
100
AcDb2dVertex
 10
116.5289767503816
 20
-64.05638290499286
 30
0.0
  0
SEQEND
  5
270
330
26C
100
AcDbEntity
  8
\U+838C\U+8343\U+8384\U+815B_1
  0
POLYLINE
  5
271
330
1F
100
AcDbEntity
  8
\U+838C\U+8343\U+8384\U+815B_1
 62
    29
100
AcDb2dPolyline
 66
     1
 10
0.0
 20
0.0
 30
0.0
  0
VERTEX
  5
272
330
271
100
AcDbEntity
  8
\U+838C\U+8343\U+8384\U+815B_1
 62
    29
100
AcDbVertex
100
AcDb2dVertex
 10
81.34852292888162
 20
-170.5146565328922
 30
0.0
  0
VERTEX
  5
273
330
271
100
AcDbEntity
  8
\U+838C\U+8343\U+8384\U+815B_1
 62
    29
100
AcDbVertex
100
AcDb2dVertex
 10
88.22700057473145
 20
-165.9402587475774
 30
0.0
  0
VERTEX
  5
274
330
271
100
AcDbEntity
  8
\U+838C\U+8343\U+8384\U+815B_1
 62
    29
100
AcDbVertex
100
AcDb2dVertex
 10
109.5822862139239
 20
-165.9402587475774
 30
0.0
  0
SEQEND
  5
275
330
271
100
AcDbEntity
  8
\U+838C\U+8343\U+8384\U+815B_1
  0
POLYLINE
  5
276
330
1F
100
AcDbEntity
  8
\U+838C\U+8343\U+8384\U+815B_1
 62
    29
100
AcDb2dPolyline
 66
     1
 10
0.0
 20
0.0
 30
0.0
  0
VERTEX
  5
277
330
276
100
AcDbEntity
  8
\U+838C\U+8343\U+8384\U+815B_1
 62
    29
100
AcDbVertex
100
AcDb2dVertex
 10
93.06546492899058
 20
-176.9948811406471
 30
0.0
  0
VERTEX
  5
278
330
276
100
AcDbEntity
  8
\U+838C\U+8343\U+8384\U+815B_1
 62
    29
100
AcDbVertex
100
AcDb2dVertex
 10
99.9439425748404
 20
-172.4204833553324
 30
0.0
  0
VERTEX
  5
279
330
276
100
AcDbEntity
  8
\U+838C\U+8343\U+8384\U+815B_1
 62
    29
100
AcDbVertex
100
AcDb2dVertex
 10
121.3000894879041
 20
-172.4204833553324
 30
0.0
  0
SEQEND
  5
27A
330
276
100
AcDbEntity
  8
\U+838C\U+8343\U+8384\U+815B_1
  0
MTEXT
  5
27B
330
1F
100
AcDbEntity
  8
\U+838C\U+8343\U+8384\U+815B_1
 62
    29
100
AcDbMText
 10
87.8042873586913
 20
-164.8543646506267
 30
0.0
 40
2.15899999946025
 41
0.0
 71
     7
 72
     1
  1
\fKozuka Gothic Pro R|b0|i0|c0|p34;\W1;セットピン（2本）
  0
MTEXT
  5
27C
330
1F
100
AcDbEntity
  8
\U+838C\U+8343\U+8384\U+815B_1
 62
    29
100
AcDbMText
 10
95.46531844401562
 20
-201.4581596718577
 30
0.0
 40
2.15899999946025
 41
0.0
 71
     7
 72
     1
  1
\fKozuka Gothic Pro R|b0|i0|c0|p34;\W1;セットピンホール
  0
MTEXT
  5
27D
330
1F
100
AcDbEntity
  8
\U+838C\U+8343\U+8384\U+815B_1
 62
    29
100
AcDbMText
 10
100.6932508428823
 20
-171.7059705516916
 30
0.0
 40
2.15899999946025
 41
0.0
 71
     7
 72
     1
  1
\fKozuka Gothic Pro R|b0|i0|c0|p34;\W1;アンカーホール
  0
POLYLINE
  5
27E
330
1F
100
AcDbEntity
  8
\U+838C\U+8343\U+8384\U+815B_1
 62
    29
100
AcDb2dPolyline
 66
     1
 10
0.0
 20
0.0
 30
0.0
  0
VERTEX
  5
27F
330
27E
100
AcDbEntity
  8
\U+838C\U+8343\U+8384\U+815B_1
 62
    29
100
AcDbVertex
100
AcDb2dVertex
 10
80.14876842614336
 20
-211.5605576728043
 30
0.0
  0
VERTEX
  5
280
330
27E
100
AcDbEntity
  8
\U+838C\U+8343\U+8384\U+815B_1
 62
    29
100
AcDbVertex
100
AcDb2dVertex
 10
94.64555797330043
 20
-202.4782524450402
 30
0.0
  0
VERTEX
  5
281
330
27E
100
AcDbEntity
  8
\U+838C\U+8343\U+8384\U+815B_1
 62
    29
100
AcDbVertex
100
AcDb2dVertex
 10
120.587988251103
 20
-202.4782524450402
 30
0.0
  0
SEQEND
  5
282
330
27E
100
AcDbEntity
  8
\U+838C\U+8343\U+8384\U+815B_1
  0
POLYLINE
  5
283
330
1F
100
AcDbEntity
  8
\U+838C\U+8343\U+8384\U+815B_1
 62
    29
100
AcDb2dPolyline
 66
     1
 10
0.0
 20
0.0
 30
0.0
  0
VERTEX
  5
284
330
283
100
AcDbEntity
  8
\U+838C\U+8343\U+8384\U+815B_1
 62
    29
100
AcDbVertex
100
AcDb2dVertex
 10
76.91813013485033
 20
-202.7972682869743
 30
0.0
  0
VERTEX
  5
285
330
283
100
AcDbEntity
  8
\U+838C\U+8343\U+8384\U+815B_1
 62
    29
100
AcDbVertex
100
AcDb2dVertex
 10
85.156214713954
 20
-195.0144530762464
 30
0.0
  0
VERTEX
  5
286
330
283
100
AcDbEntity
  8
\U+838C\U+8343\U+8384\U+815B_1
 62
    29
100
AcDbVertex
100
AcDb2dVertex
 10
115.6845838469469
 20
-195.0144530762464
 30
0.0
  0
SEQEND
  5
287
330
283
100
AcDbEntity
  8
\U+838C\U+8343\U+8384\U+815B_1
  0
MTEXT
  5
288
330
1F
100
AcDbEntity
  8
\U+838C\U+8343\U+8384\U+815B_1
 62
    29
100
AcDbMText
 10
85.91137964432077
 20
-194.3088975208672
 30
0.0
 40
2.15899999946025
 41
0.0
 71
     7
 72
     1
  1
\fKozuka Gothic Pro R|b0|i0|c0|p34;\W1;アンカーホール Ф12
  0
MTEXT
  5
289
330
1F
100
AcDbEntity
  8
\U+838C\U+8343\U+8384\U+815B_1
 62
    29
100
AcDbMText
 10
72.61089950441672
 20
-19.75452202197109
 30
0.0
 40
2.15899999946025
 41
0.0
 71
     7
 72
     1
  1
\fKozuka Gothic Pro R|b0|i0|c0|p34;\W1;80±2
  0
SPLINE
  5
28A
330
1F
100
AcDbEntity
  8
\U+838C\U+8343\U+8384\U+815B_1
 62
    29
100
AcDbSpline
210
0.0
220
0.0
230
1.0
 70
    11
 71
     3
 72
    17
 73
    13
 74
     0
 42
0.0000000001
 43
0.0000000001
 40
0.0
 40
0.0
 40
0.0
 40
0.0
 40
1.0
 40
1.0
 40
1.0
 40
2.0
 40
2.0
 40
2.0
 40
3.0
 40
3.0
 40
3.0
 40
4.0
 40
4.0
 40
4.0
 40
4.0
 10
84.95467662806689
 20
-35.53426512783518
 30
0.0
 10
84.95467662806689
 20
-39.9526000876681
 30
0.0
 10
81.37281085205264
 20
-43.53429360890809
 30
0.0
 10
76.95447589221972
 20
-43.53429360890809
 30
0.0
 10
72.53648544193533
 20
-43.53429360890809
 30
0.0
 10
68.95461966592107
 20
-39.9526000876681
 30
0.0
 10
68.95461966592107
 20
-35.53426512783518
 30
0.0
 10
68.95461966592107
 20
-31.11610242277653
 30
0.0
 10
72.53648544193533
 20
-27.53440890153654
 30
0.0
 10
76.95447589221972
 20
-27.53440890153654
 30
0.0
 10
81.37281085205264
 20
-27.53440890153654
 30
0.0
 10
84.95467662806689
 20
-31.11610242277653
 30
0.0
 10
84.95467662806689
 20
-35.53426512783518
 30
0.0
  0
SPLINE
  5
28B
330
1F
100
AcDbEntity
  8
\U+838C\U+8343\U+8384\U+815B_1
  6
AI-LINETYPE-24
 62
    29
100
AcDbSpline
210
0.0
220
0.0
230
1.0
 70
    11
 71
     3
 72
    17
 73
    13
 74
     0
 42
0.0000000001
 43
0.0000000001
 40
0.0
 40
0.0
 40
0.0
 40
0.0
 40
1.0
 40
1.0
 40
1.0
 40
2.0
 40
2.0
 40
2.0
 40
3.0
 40
3.0
 40
3.0
 40
4.0
 40
4.0
 40
4.0
 40
4.0
 10
69.55441078990307
 20
-35.53426512783518
 30
0.0
 10
69.55441078990307
 20
-39.6146362205651
 30
0.0
 10
72.87410479948981
 20
-42.93433023015184
 30
0.0
 10
76.95447589221972
 20
-42.93433023015184
 30
0.0
 10
81.03484698494962
 20
-42.93433023015184
 30
0.0
 10
84.35454099453636
 20
-39.6146362205651
 30
0.0
 10
84.35454099453636
 20
-35.53426512783518
 30
0.0
 10
84.35454099453636
 20
-31.45389403510528
 30
0.0
 10
81.03484698494962
 20
-28.1343722802928
 30
0.0
 10
76.95447589221972
 20
-28.1343722802928
 30
0.0
 10
72.87410479948981
 20
-28.1343722802928
 30
0.0
 10
69.55441078990307
 20
-31.45389403510528
 30
0.0
 10
69.55441078990307
 20
-35.53426512783518
 30
0.0
  0
SPLINE
  5
28D
330
1F
100
AcDbEntity
  8
\U+838C\U+8343\U+8384\U+815B_1
 62
    29
100
AcDbSpline
210
0.0
220
0.0
230
1.0
 70
    11
 71
     3
 72
    17
 73
    13
 74
     0
 42
0.0000000001
 43
0.0000000001
 40
0.0
 40
0.0
 40
0.0
 40
0.0
 40
1.0
 40
1.0
 40
1.0
 40
2.0
 40
2.0
 40
2.0
 40
3.0
 40
3.0
 40
3.0
 40
4.0
 40
4.0
 40
4.0
 40
4.0
 10
77.54841035387679
 20
-35.53426512783518
 30
0.0
 10
77.54841035387679
 20
-35.86568331351622
 30
0.0
 10
77.27969290602731
 20
-36.1344007613657
 30
0.0
 10
76.94827472034626
 20
-36.1344007613657
 30
0.0
 10
76.61685653466523
 20
-36.1344007613657
 30
0.0
 10
76.34848359636428
 20
-35.86568331351622
 30
0.0
 10
76.34848359636428
 20
-35.53426512783518
 30
0.0
 10
76.34848359636428
 20
-35.20301919692842
 30
0.0
 10
76.61685653466523
 20
-34.93430174907893
 30
0.0
 10
76.94827472034626
 20
-34.93430174907893
 30
0.0
 10
77.27969290602731
 20
-34.93430174907893
 30
0.0
 10
77.54841035387679
 20
-35.20301919692842
 30
0.0
 10
77.54841035387679
 20
-35.53426512783518
 30
0.0
  0
POLYLINE
  5
28E
330
1F
100
AcDbEntity
  8
\U+838C\U+8343\U+8384\U+815B_1
 62
    29
100
AcDb2dPolyline
 66
     1
 10
0.0
 20
0.0
 30
0.0
  0
VERTEX
  5
28F
330
28E
100
AcDbEntity
  8
\U+838C\U+8343\U+8384\U+815B_1
 62
    29
100
AcDbVertex
100
AcDb2dVertex
 10
68.95461966592107
 20
-29.30914984076299
 30
0.0
  0
VERTEX
  5
290
330
28E
100
AcDbEntity
  8
\U+838C\U+8343\U+8384\U+815B_1
 62
    29
100
AcDbVertex
100
AcDb2dVertex
 10
68.95461966592107
 20
-20.62458088677094
 30
0.0
  0
VERTEX
  5
291
330
28E
100
AcDbEntity
  8
\U+838C\U+8343\U+8384\U+815B_1
 62
    29
100
AcDbVertex
100
AcDb2dVertex
 10
84.95467662806689
 20
-20.62458088677094
 30
0.0
  0
VERTEX
  5
292
330
28E
100
AcDbEntity
  8
\U+838C\U+8343\U+8384\U+815B_1
 62
    29
100
AcDbVertex
100
AcDb2dVertex
 10
84.95467662806689
 20
-29.30914984076299
 30
0.0
  0
SEQEND
  5
293
330
28E
100
AcDbEntity
  8
\U+838C\U+8343\U+8384\U+815B_1
  0
INSERT
  5
295
330
1F
100
AcDbEntity
  8
\U+838C\U+8343\U+8384\U+815B_1
100
AcDbBlockReference
  2
BLOCK_17
 10
0.0
 20
0.0
 30
0.0
  0
SPLINE
  5
29C
330
1F
100
AcDbEntity
  8
\U+838C\U+8343\U+8384\U+815B_1
 62
    18
100
AcDbSpline
210
0.0
220
0.0
230
1.0
 70
    11
 71
     3
 72
    17
 73
    13
 74
     0
 42
0.0000000001
 43
0.0000000001
 40
0.0
 40
0.0
 40
0.0
 40
0.0
 40
1.0
 40
1.0
 40
1.0
 40
2.0
 40
2.0
 40
2.0
 40
3.0
 40
3.0
 40
3.0
 40
4.0
 40
4.0
 40
4.0
 40
4.0
 10
126.5387016827751
 20
-125.3639241223049
 30
0.0
 10
126.5387016827751
 20
-124.5550157023682
 30
0.0
 10
125.883100011932
 20
-123.8988972672024
 30
0.0
 10
125.0741915919953
 20
-123.8988972672024
 30
0.0
 10
124.2649386625102
 20
-123.8988972672024
 30
0.0
 10
123.6093369916671
 20
-124.5550157023682
 30
0.0
 10
123.6093369916671
 20
-125.3639241223049
 30
0.0
 10
123.6093369916671
 20
-126.1728325422415
 30
0.0
 10
124.2649386625102
 20
-126.8292954869559
 30
0.0
 10
125.0741915919953
 20
-126.8292954869559
 30
0.0
 10
125.883100011932
 20
-126.8292954869559
 30
0.0
 10
126.5387016827751
 20
-126.1728325422415
 30
0.0
 10
126.5387016827751
 20
-125.3639241223049
 30
0.0
  0
MTEXT
  5
29D
330
1F
100
AcDbEntity
  8
\U+838C\U+8343\U+8384\U+815B_1
 62
    29
100
AcDbMText
 10
97.64761417914713
 20
-135.0961466133614
 30
0.0
 40
2.15899999946025
 41
0.0
 71
     7
 72
     1
  1
\fKozuka Gothic Pro R|b0|i0|c0|p34;\W1; セットピン（2本）
  0
MTEXT
  5
29E
330
1F
100
AcDbEntity
  8
\U+838C\U+8343\U+8384\U+815B_1
 62
    29
100
AcDbMText
 10
133.3810058260298
 20
-129.1187336916786
 30
0.0
 40
2.15899999946025
 41
0.0
 71
     7
 72
     1
  1
\fKozuka Gothic Pro R|b0|i0|c0|p34;\W1;Φ12
 11
-4.371139000186241E-8
 21
0.999999999999999
 31
0.0
  0
INSERT
  5
2A0
330
1F
100
AcDbEntity
  8
\U+838C\U+8343\U+8384\U+815B_1
100
AcDbBlockReference
  2
BLOCK_18
 10
0.0
 20
0.0
 30
0.0
  0
MTEXT
  5
2C6
330
1F
100
AcDbEntity
  8
\U+838C\U+8343\U+8384\U+815B_1
 62
    29
100
AcDbMText
 10
119.3890950222361
 20
-119.7000148897799
 30
0.0
 40
2.15899999946025
 41
0.0
 71
     7
 72
     1
  1
\fKozuka Gothic Pro R|b0|i0|c0|p34;\W1;5
  0
MTEXT
  5
2C7
330
1F
100
AcDbEntity
  8
\U+838C\U+8343\U+8384\U+815B_1
 62
    29
100
AcDbMText
 10
107.9754936796034
 20
-114.6183267942621
 30
0.0
 40
2.15899999946025
 41
0.0
 71
     7
 72
     1
  1
\fKozuka Gothic Pro R|b0|i0|c0|p34;\W1;100
  0
MTEXT
  5
2C8
330
1F
100
AcDbEntity
  8
\U+838C\U+8343\U+8384\U+815B_1
 62
    29
100
AcDbMText
 10
93.45717228566349
 20
-126.3741983733544
 30
0.0
 40
2.15899999946025
 41
0.0
 71
     7
 72
     1
  1
\fKozuka Gothic Pro R|b0|i0|c0|p34;\W1;6
 11
-4.371139000186241E-8
 21
0.999999999999999
 31
0.0
  0
POLYLINE
  5
2C9
330
1F
100
AcDbEntity
  8
\U+838C\U+8343\U+8384\U+815B_1
 62
    29
100
AcDb2dPolyline
 66
     1
 10
0.0
 20
0.0
 30
0.0
  0
VERTEX
  5
2CA
330
2C9
100
AcDbEntity
  8
\U+838C\U+8343\U+8384\U+815B_1
 62
    29
100
AcDbVertex
100
AcDb2dVertex
 10
97.38165280768584
 20
-123.2768852773405
 30
0.0
  0
VERTEX
  5
2CB
330
2C9
100
AcDbEntity
  8
\U+838C\U+8343\U+8384\U+815B_1
 62
    29
100
AcDbVertex
100
AcDb2dVertex
 10
97.38165280768584
 20
-115.7703667245296
 30
0.0
  0
VERTEX
  5
2CC
330
2C9
100
AcDbEntity
  8
\U+838C\U+8343\U+8384\U+815B_1
 62
    29
100
AcDbVertex
100
AcDb2dVertex
 10
121.7965277473287
 20
-115.7703667245296
 30
0.0
  0
VERTEX
  5
2CD
330
2C9
100
AcDbEntity
  8
\U+838C\U+8343\U+8384\U+815B_1
 62
    29
100
AcDbVertex
100
AcDb2dVertex
 10
121.7965277473287
 20
-121.9849744703718
 30
0.0
  0
SEQEND
  5
2CE
330
2C9
100
AcDbEntity
  8
\U+838C\U+8343\U+8384\U+815B_1
  0
POLYLINE
  5
2CF
330
1F
100
AcDbEntity
  8
\U+838C\U+8343\U+8384\U+815B_1
 62
    29
100
AcDb2dPolyline
 66
     1
 10
0.0
 20
0.0
 30
0.0
  0
VERTEX
  5
2D0
330
2CF
100
AcDbEntity
  8
\U+838C\U+8343\U+8384\U+815B_1
 62
    29
100
AcDbVertex
100
AcDb2dVertex
 10
96.32176918164873
 20
-126.0965236772432
 30
0.0
  0
VERTEX
  5
2D1
330
2CF
100
AcDbEntity
  8
\U+838C\U+8343\U+8384\U+815B_1
 62
    29
100
AcDbVertex
100
AcDb2dVertex
 10
94.31982419517004
 20
-126.0965236772432
 30
0.0
  0
VERTEX
  5
2D2
330
2CF
100
AcDbEntity
  8
\U+838C\U+8343\U+8384\U+815B_1
 62
    29
100
AcDbVertex
100
AcDb2dVertex
 10
94.31982419517004
 20
-124.631669076915
 30
0.0
  0
VERTEX
  5
2D3
330
2CF
100
AcDbEntity
  8
\U+838C\U+8343\U+8384\U+815B_1
 62
    29
100
AcDbVertex
100
AcDb2dVertex
 10
96.32176918164873
 20
-124.631669076915
 30
0.0
  0
SEQEND
  5
2D4
330
2CF
100
AcDbEntity
  8
\U+838C\U+8343\U+8384\U+815B_1
  0
POLYLINE
  5
2D5
330
1F
100
AcDbEntity
  8
\U+838C\U+8343\U+8384\U+815B_1
 62
    18
100
AcDb2dPolyline
 66
     1
 10
0.0
 20
0.0
 30
0.0
  0
VERTEX
  5
2D6
330
2D5
100
AcDbEntity
  8
\U+838C\U+8343\U+8384\U+815B_1
 62
    18
100
AcDbVertex
100
AcDb2dVertex
 10
127.0554660055625
 20
-123.8988972672024
 30
0.0
  0
VERTEX
  5
2D7
330
2D5
100
AcDbEntity
  8
\U+838C\U+8343\U+8384\U+815B_1
 62
    18
100
AcDbVertex
100
AcDb2dVertex
 10
129.854606087328
 20
-123.8988972672024
 30
0.0
  0
VERTEX
  5
2D8
330
2D5
100
AcDbEntity
  8
\U+838C\U+8343\U+8384\U+815B_1
 62
    18
100
AcDbVertex
100
AcDb2dVertex
 10
129.854606087328
 20
-126.796567079846
 30
0.0
  0
VERTEX
  5
2D9
330
2D5
100
AcDbEntity
  8
\U+838C\U+8343\U+8384\U+815B_1
 62
    18
100
AcDbVertex
100
AcDb2dVertex
 10
127.0554660055625
 20
-126.796567079846
 30
0.0
  0
SEQEND
  5
2DA
330
2D5
100
AcDbEntity
  8
\U+838C\U+8343\U+8384\U+815B_1
  0
POLYLINE
  5
2DB
330
1F
100
AcDbEntity
  8
\U+838C\U+8343\U+8384\U+815B_1
 62
    29
100
AcDb2dPolyline
 66
     1
 10
0.0
 20
0.0
 30
0.0
  0
VERTEX
  5
2DC
330
2DB
100
AcDbEntity
  8
\U+838C\U+8343\U+8384\U+815B_1
 62
    29
100
AcDbVertex
100
AcDb2dVertex
 10
120.5886772702001
 20
-121.9849744703718
 30
0.0
  0
VERTEX
  5
2DD
330
2DB
100
AcDbEntity
  8
\U+838C\U+8343\U+8384\U+815B_1
 62
    29
100
AcDbVertex
100
AcDb2dVertex
 10
120.5886772702001
 20
-120.1201442842061
 30
0.0
  0
VERTEX
  5
2DE
330
2DB
100
AcDbEntity
  8
\U+838C\U+8343\U+8384\U+815B_1
 62
    29
100
AcDbVertex
100
AcDb2dVertex
 10
121.7965277473287
 20
-120.1201442842061
 30
0.0
  0
VERTEX
  5
2DF
330
2DB
100
AcDbEntity
  8
\U+838C\U+8343\U+8384\U+815B_1
 62
    29
100
AcDbVertex
100
AcDb2dVertex
 10
121.7965277473287
 20
-121.9849744703718
 30
0.0
  0
SEQEND
  5
2E0
330
2DB
100
AcDbEntity
  8
\U+838C\U+8343\U+8384\U+815B_1
  0
POLYLINE
  5
2E1
330
1F
100
AcDbEntity
  8
\U+838C\U+8343\U+8384\U+815B_1
 62
    18
100
AcDb2dPolyline
 66
     1
 10
0.0
 20
0.0
 30
0.0
  0
VERTEX
  5
2E2
330
2E1
100
AcDbEntity
  8
\U+838C\U+8343\U+8384\U+815B_1
 62
    18
100
AcDbVertex
100
AcDb2dVertex
 10
125.3422200207478
 20
-136.8166272986952
 30
0.0
  0
VERTEX
  5
2E3
330
2E1
100
AcDbEntity
  8
\U+838C\U+8343\U+8384\U+815B_1
 62
    18
100
AcDbVertex
100
AcDb2dVertex
 10
97.09088674873075
 20
-136.8166272986952
 30
0.0
  0
VERTEX
  5
2E4
330
2E1
100
AcDbEntity
  8
\U+838C\U+8343\U+8384\U+815B_1
 62
    18
100
AcDbVertex
100
AcDb2dVertex
 10
97.09088674873075
 20
-130.8045911673857
 30
0.0
  0
VERTEX
  5
2E5
330
2E1
100
AcDbEntity
  8
\U+838C\U+8343\U+8384\U+815B_1
 62
    18
100
AcDbVertex
100
AcDb2dVertex
 10
125.3422200207478
 20
-130.8045911673857
 30
0.0
  0
VERTEX
  5
2E6
330
2E1
100
AcDbEntity
  8
\U+838C\U+8343\U+8384\U+815B_1
 62
    18
100
AcDbVertex
100
AcDb2dVertex
 10
125.3422200207478
 20
-136.8166272986952
 30
0.0
  0
SEQEND
  5
2E7
330
2E1
100
AcDbEntity
  8
\U+838C\U+8343\U+8384\U+815B_1
  0
INSERT
  5
2E9
330
1F
100
AcDbEntity
  8
\U+838C\U+8343\U+8384\U+815B_1
100
AcDbBlockReference
  2
BLOCK_19
 10
0.0
 20
0.0
 30
0.0
  0
INSERT
  5
2F5
330
1F
100
AcDbEntity
  8
\U+838C\U+8343\U+8384\U+815B_1
100
AcDbBlockReference
  2
BLOCK_20
 10
0.0
 20
0.0
 30
0.0
  0
MTEXT
  5
300
330
1F
100
AcDbEntity
  8
\U+838C\U+8343\U+8384\U+815B_1
 62
    29
100
AcDbMText
 10
95.24552135205668
 20
-285.3248751456827
 30
0.0
 40
2.427951431197246
 41
0.0
 71
     7
 72
     1
  1
\fMS Gothic|b0|i0|c0|p34;\W1;タイプ
  0
INSERT
  5
302
330
1F
100
AcDbEntity
  8
\U+838C\U+8343\U+8384\U+815B_1
100
AcDbBlockReference
  2
BLOCK_21
 10
0.0
 20
0.0
 30
0.0
  0
INSERT
  5
326
330
1F
100
AcDbEntity
  8
\U+838C\U+8343\U+8384\U+815B_1
100
AcDbBlockReference
  2
BLOCK_23
 10
0.0
 20
0.0
 30
0.0
  0
ENDSEC
  0
SECTION
  2
OBJECTS
  0
DICTIONARY
  5
C
330
0
100
AcDbDictionary
  3
ACAD_GROUP
350
D
  3
ACAD_LAYOUT
350
1A
  3
ACAD_MLINESTYLE
350
17
  3
ACAD_PLOTSETTINGS
350
19
  3
ACAD_TABLESTYLE
350
351
  3
ACAD_VISUALSTYLE
350
2A
  3
ACDBHEADERROUNDTRIPXREC
350
331
  0
DICTIONARY
  5
D
102
{ACAD_REACTORS
330
C
102
}
330
C
100
AcDbDictionary
  0
DICTIONARY
  5
1A
102
{ACAD_REACTORS
330
C
102
}
330
C
100
AcDbDictionary
  0
DICTIONARY
  5
17
102
{ACAD_REACTORS
330
C
102
}
330
C
100
AcDbDictionary
  3
STANDARD
350
18
  0
DICTIONARY
  5
19
102
{ACAD_REACTORS
330
C
102
}
330
C
100
AcDbDictionary
  0
DICTIONARY
  5
351
102
{ACAD_REACTORS
330
C
102
}
330
C
100
AcDbDictionary
  0
DICTIONARY
  5
2A
102
{ACAD_REACTORS
330
C
102
}
330
C
100
AcDbDictionary
  3
2DWIREFRAME
350
2F
  3
3D_HIDDEN
350
31
  3
3DWIREFRAME
350
30
  3
BASIC
350
32
  3
BRIGHTEN
350
36
  3
COLORCHANGE
350
3A
  3
CONCEPTUAL
350
34
  3
DIM
350
35
  3
FACEPATTERN
350
39
  3
FLAT
350
2B
  3
FLATWITHEDGES
350
2C
  3
GOURAUD
350
2D
  3
GOURAUDWITHEDGES
350
2E
  3
LINEPATTERN
350
38
  3
REALISTIC
350
33
  3
THICKEN
350
37
  0
DICTIONARY
  5
331
102
{ACAD_REACTORS
330
C
102
}
330
C
100
AcDbDictionary
  3
CEPSNTYPE
350
33A
  3
DIMSTYLEDATA
350
350
  3
FINGERPRINTGUID
350
33B
  3
HYPERLINKBASE
350
334
  3
INSUNITS
350
339
  3
LAYOUTDICT
350
336
  3
LWETCUNION
350
338
  3
PLOTSETDICT
350
337
  3
PSVPSCALE
350
33D
  3
PUCSBASE
350
340
  3
PUCSORGBACK
350
346
  3
PUCSORGBOTTOM
350
342
  3
PUCSORGFRONT
350
345
  3
PUCSORGLEFT
350
343
  3
PUCSORGRIGHT
350
344
  3
PUCSORGTOP
350
341
  3
PUCSORTHOREF
350
33E
  3
PUCSORTHOVIEW
350
33F
  3
STYLESHEET
350
335
  3
TSTACKALIGN
350
332
  3
TSTACKSIZE
350
333
  3
UCSBASE
350
349
  3
UCSORGBACK
350
34F
  3
UCSORGBOTTOM
350
34B
  3
UCSORGFRONT
350
34E
  3
UCSORGLEFT
350
34C
  3
UCSORGRIGHT
350
34D
  3
UCSORGTOP
350
34A
  3
UCSORTHOREF
350
347
  3
UCSORTHOVIEW
350
348
  3
VERSIONGUID
350
33C
  0
MLINESTYLE
  5
18
102
{ACAD_REACTORS
330
17
102
}
330
17
100
AcDbMlineStyle
  2
Standard
 70
     0
  3

 62
   256
 51
90.0
 52
90.0
 71
     2
 49
0.5
 62
   256
  6
BYLAYER
 49
-0.5
 62
   256
  6
BYLAYER
  0
VISUALSTYLE
  5
2F
102
{ACAD_REACTORS
330
2A
102
}
330
2A
100
AcDbVisualStyle
  2
2dWireframe
 70
     4
 71
     0
 72
     2
 73
     0
 90
        0
 40
-0.6
 41
-30.0
 62
     5
 63
     7
 74
     1
 91
        4
 64
     7
 65
   257
 75
     1
175
     1
 42
1.0
 92
        0
 66
   257
 43
1.0
 76
     1
 77
     6
 78
     2
 67
     7
 79
     5
170
     0
171
     0
290
     0
174
     0
 93
        1
 44
0.0
173
     0
291
     0
 45
0.0
1001
ACAD
1000
AcDbSavedByObjectVersion
1070
     0
  0
VISUALSTYLE
  5
31
102
{ACAD_REACTORS
330
2A
102
}
330
2A
100
AcDbVisualStyle
  2
3D Hidden
 70
     6
 71
     1
 72
     2
 73
     2
 90
        0
 40
-0.6
 41
-30.0
 62
     5
 63
     7
 74
     2
 91
        2
 64
     7
 65
   257
 75
     2
175
     1
 42
40.0
 92
        0
 66
   257
 43
1.0
 76
     1
 77
     6
 78
     2
 67
     7
 79
     3
170
     0
171
     0
290
     0
174
     0
 93
        1
 44
0.0
173
     0
291
     0
 45
0.0
1001
ACAD
1000
AcDbSavedByObjectVersion
1070
     0
  0
VISUALSTYLE
  5
30
102
{ACAD_REACTORS
330
2A
102
}
330
2A
100
AcDbVisualStyle
  2
3dWireframe
 70
     5
 71
     0
 72
     2
 73
     0
 90
        0
 40
-0.6
 41
-30.0
 62
     5
 63
     7
 74
     1
 91
        4
 64
     7
 65
   257
 75
     1
175
     1
 42
1.0
 92
        0
 66
   257
 43
1.0
 76
     1
 77
     6
 78
     2
 67
     7
 79
     5
170
     0
171
     0
290
     0
174
     0
 93
        1
 44
0.0
173
     0
291
     0
 45
0.0
1001
ACAD
1000
AcDbSavedByObjectVersion
1070
     0
  0
VISUALSTYLE
  5
32
102
{ACAD_REACTORS
330
2A
102
}
330
2A
100
AcDbVisualStyle
  2
Basic
 70
     7
 71
     1
 72
     0
 73
     1
 90
        0
 40
-0.6
 41
-30.0
 62
     5
 63
     7
 74
     0
 91
        4
 64
     7
 65
   257
 75
     1
175
     1
 42
1.0
 92
        8
 66
     7
 43
1.0
 76
     1
 77
     6
 78
     2
 67
     7
 79
     5
170
     0
171
     0
290
     0
174
     0
 93
        1
 44
0.0
173
     0
291
     1
 45
0.0
1001
ACAD
1000
AcDbSavedByObjectVersion
1070
     0
  0
VISUALSTYLE
  5
36
102
{ACAD_REACTORS
330
2A
102
}
330
2A
100
AcDbVisualStyle
  2
Brighten
 70
    12
 71
     2
 72
     2
 73
     0
 90
        0
 40
-0.6
 41
-30.0
 62
     5
 63
     7
 74
     1
 91
        4
 64
     7
 65
   257
 75
     1
175
     1
 42
1.0
 92
        8
 66
     7
 43
1.0
 76
     1
 77
     6
 78
     2
 67
     7
 79
     5
170
     0
171
     0
290
     0
174
     0
 93
        1
 44
50.0
173
     0
291
     1
 45
0.0
1001
ACAD
1000
AcDbSavedByObjectVersion
1070
     0
  0
VISUALSTYLE
  5
3A
102
{ACAD_REACTORS
330
2A
102
}
330
2A
100
AcDbVisualStyle
  2
ColorChange
 70
    16
 71
     2
 72
     2
 73
     3
 90
        0
 40
-0.6
 41
-30.0
 62
     5
 63
     8
 74
     1
 91
        4
 64
     7
 65
   257
 75
     1
175
     1
 42
1.0
 92
        8
 66
     8
 43
1.0
 76
     1
 77
     6
 78
     2
 67
     7
 79
     5
170
     0
171
     0
290
     0
174
     0
 93
        1
 44
0.0
173
     0
291
     1
 45
0.0
1001
ACAD
1000
AcDbSavedByObjectVersion
1070
     0
  0
VISUALSTYLE
  5
34
102
{ACAD_REACTORS
330
2A
102
}
330
2A
100
AcDbVisualStyle
  2
Conceptual
 70
     9
 71
     3
 72
     2
 73
     0
 90
        0
 40
-0.6
 41
-30.0
 62
     5
 63
     7
 74
     2
 91
        2
 64
     7
 65
   257
 75
     1
175
     1
 42
40.0
 92
        8
 66
     7
 43
1.0
 76
     1
 77
     6
 78
     2
 67
     7
 79
     3
170
     0
171
     0
290
     0
174
     0
 93
        1
 44
0.0
173
     0
291
     0
 45
0.0
1001
ACAD
1000
AcDbSavedByObjectVersion
1070
     0
  0
VISUALSTYLE
  5
35
102
{ACAD_REACTORS
330
2A
102
}
330
2A
100
AcDbVisualStyle
  2
Dim
 70
    11
 71
     2
 72
     2
 73
     0
 90
        0
 40
-0.6
 41
-30.0
 62
     5
 63
     7
 74
     1
 91
        4
 64
     7
 65
   257
 75
     1
175
     1
 42
1.0
 92
        8
 66
     7
 43
1.0
 76
     1
 77
     6
 78
     2
 67
     7
 79
     5
170
     0
171
     0
290
     0
174
     0
 93
        1
 44
-50.0
173
     0
291
     1
 45
0.0
1001
ACAD
1000
AcDbSavedByObjectVersion
1070
     0
  0
VISUALSTYLE
  5
39
102
{ACAD_REACTORS
330
2A
102
}
330
2A
100
AcDbVisualStyle
  2
Facepattern
 70
    15
 71
     2
 72
     2
 73
     0
 90
        0
 40
-0.6
 41
-30.0
 62
     5
 63
     7
 74
     1
 91
        4
 64
     7
 65
   257
 75
     1
175
     1
 42
1.0
 92
        8
 66
     7
 43
1.0
 76
     1
 77
     6
 78
     2
 67
     7
 79
     5
170
     0
171
     0
290
     0
174
     0
 93
        1
 44
0.0
173
     0
291
     1
 45
0.0
1001
ACAD
1000
AcDbSavedByObjectVersion
1070
     0
  0
VISUALSTYLE
  5
2B
102
{ACAD_REACTORS
330
2A
102
}
330
2A
100
AcDbVisualStyle
  2
Flat
 70
     0
 71
     2
 72
     1
 73
     1
 90
        2
 40
-0.6
 41
30.0
 62
     5
 63
     7
 74
     0
 91
        4
 64
     7
 65
   257
 75
     1
175
     1
 42
1.0
 92
        8
 66
     7
 43
1.0
 76
     1
 77
     6
 78
     2
 67
     7
 79
     5
170
     0
171
     0
290
     0
174
     0
 93
       13
 44
0.0
173
     0
291
     1
 45
0.0
1001
ACAD
1000
AcDbSavedByObjectVersion
1070
     0
  0
VISUALSTYLE
  5
2C
102
{ACAD_REACTORS
330
2A
102
}
330
2A
100
AcDbVisualStyle
  2
FlatWithEdges
 70
     1
 71
     2
 72
     1
 73
     1
 90
        2
 40
-0.6
 41
30.0
 62
     5
 63
     7
 74
     1
 91
        4
 64
     7
 65
   257
 75
     1
175
     1
 42
1.0
 92
        0
 66
   257
 43
1.0
 76
     1
 77
     6
 78
     2
 67
     7
 79
     5
170
     0
171
     0
290
     0
174
     0
 93
       13
 44
0.0
173
     0
291
     1
 45
0.0
1001
ACAD
1000
AcDbSavedByObjectVersion
1070
     0
  0
VISUALSTYLE
  5
2D
102
{ACAD_REACTORS
330
2A
102
}
330
2A
100
AcDbVisualStyle
  2
Gouraud
 70
     2
 71
     2
 72
     2
 73
     1
 90
        2
 40
-0.6
 41
30.0
 62
     5
 63
     7
 74
     0
 91
        4
 64
     7
 65
   257
 75
     1
175
     1
 42
1.0
 92
        0
 66
     7
 43
1.0
 76
     1
 77
     6
 78
     2
 67
     7
 79
     5
170
     0
171
     0
290
     0
174
     0
 93
       13
 44
0.0
173
     0
291
     1
 45
0.0
1001
ACAD
1000
AcDbSavedByObjectVersion
1070
     0
  0
VISUALSTYLE
  5
2E
102
{ACAD_REACTORS
330
2A
102
}
330
2A
100
AcDbVisualStyle
  2
GouraudWithEdges
 70
     3
 71
     2
 72
     2
 73
     1
 90
        2
 40
-0.6
 41
30.0
 62
     5
 63
     7
 74
     1
 91
        4
 64
     7
 65
   257
 75
     1
175
     1
 42
1.0
 92
        0
 66
   257
 43
1.0
 76
     1
 77
     6
 78
     2
 67
     7
 79
     5
170
     0
171
     0
290
     0
174
     0
 93
       13
 44
0.0
173
     0
291
     1
 45
0.0
1001
ACAD
1000
AcDbSavedByObjectVersion
1070
     0
  0
VISUALSTYLE
  5
38
102
{ACAD_REACTORS
330
2A
102
}
330
2A
100
AcDbVisualStyle
  2
Linepattern
 70
    14
 71
     2
 72
     2
 73
     0
 90
        0
 40
-0.6
 41
-30.0
 62
     5
 63
     7
 74
     1
 91
        4
 64
     7
 65
   257
 75
     7
175
     7
 42
1.0
 92
        8
 66
     7
 43
1.0
 76
     1
 77
     6
 78
     2
 67
     7
 79
     5
170
     0
171
     0
290
     0
174
     0
 93
        1
 44
0.0
173
     0
291
     1
 45
0.0
1001
ACAD
1000
AcDbSavedByObjectVersion
1070
     0
  0
VISUALSTYLE
  5
33
102
{ACAD_REACTORS
330
2A
102
}
330
2A
100
AcDbVisualStyle
  2
Realistic
 70
     8
 71
     2
 72
     2
 73
     0
 90
        0
 40
-0.6
 41
-30.0
 62
     5
 63
     7
 74
     1
 91
        0
 64
     7
 65
   257
 75
     1
175
     1
 42
1.0
 92
        8
 66
     8
 43
1.0
 76
     1
 77
     6
 78
     2
 67
     7
 79
     5
170
     0
171
     0
290
     0
174
     0
 93
       13
 44
0.0
173
     0
291
     0
 45
0.0
1001
ACAD
1000
AcDbSavedByObjectVersion
1070
     0
  0
VISUALSTYLE
  5
37
102
{ACAD_REACTORS
330
2A
102
}
330
2A
100
AcDbVisualStyle
  2
Thicken
 70
    13
 71
     2
 72
     2
 73
     0
 90
        0
 40
-0.6
 41
-30.0
 62
     5
 63
     7
 74
     1
 91
        4
 64
     7
 65
   257
 75
     1
175
     1
 42
1.0
 92
       12
 66
     7
 43
1.0
 76
     1
 77
     6
 78
     2
 67
     7
 79
     5
170
     0
171
     0
290
     0
174
     0
 93
        1
 44
0.0
173
     0
291
     1
 45
0.0
1001
ACAD
1000
AcDbSavedByObjectVersion
1070
     0
  0
XRECORD
  5
33A
102
{ACAD_REACTORS
330
331
102
}
330
331
100
AcDbXrecord
 90
        0
  0
XRECORD
  5
350
102
{ACAD_REACTORS
330
331
102
}
330
331
100
AcDbXrecord
1000
DSTYLE
1002
{
1070
   340
340
11
1002
}
  0
XRECORD
  5
33B
102
{ACAD_REACTORS
330
331
102
}
330
331
100
AcDbXrecord
  1
{D2E12264-A06C-4D1A-8AA8-9ED989942625}
  0
XRECORD
  5
334
102
{ACAD_REACTORS
330
331
102
}
330
331
100
AcDbXrecord
  1

  0
XRECORD
  5
339
102
{ACAD_REACTORS
330
331
102
}
330
331
100
AcDbXrecord
 90
        1
  0
XRECORD
  5
336
102
{ACAD_REACTORS
330
331
102
}
330
331
100
AcDbXrecord
340
1A
  0
XRECORD
  5
338
102
{ACAD_REACTORS
330
331
102
}
330
331
100
AcDbXrecord
 90
    10269
  0
XRECORD
  5
337
102
{ACAD_REACTORS
330
331
102
}
330
331
100
AcDbXrecord
340
19
  0
XRECORD
  5
33D
102
{ACAD_REACTORS
330
331
102
}
330
331
100
AcDbXrecord
 40
0.0
  0
XRECORD
  5
340
102
{ACAD_REACTORS
330
331
102
}
330
331
100
AcDbXrecord
340
0
  0
XRECORD
  5
346
102
{ACAD_REACTORS
330
331
102
}
330
331
100
AcDbXrecord
 10
0.0
 20
0.0
 30
0.0
  0
XRECORD
  5
342
102
{ACAD_REACTORS
330
331
102
}
330
331
100
AcDbXrecord
 10
0.0
 20
0.0
 30
0.0
  0
XRECORD
  5
345
102
{ACAD_REACTORS
330
331
102
}
330
331
100
AcDbXrecord
 10
0.0
 20
0.0
 30
0.0
  0
XRECORD
  5
343
102
{ACAD_REACTORS
330
331
102
}
330
331
100
AcDbXrecord
 10
0.0
 20
0.0
 30
0.0
  0
XRECORD
  5
344
102
{ACAD_REACTORS
330
331
102
}
330
331
100
AcDbXrecord
 10
0.0
 20
0.0
 30
0.0
  0
XRECORD
  5
341
102
{ACAD_REACTORS
330
331
102
}
330
331
100
AcDbXrecord
 10
0.0
 20
0.0
 30
0.0
  0
XRECORD
  5
33E
102
{ACAD_REACTORS
330
331
102
}
330
331
100
AcDbXrecord
340
0
  0
XRECORD
  5
33F
102
{ACAD_REACTORS
330
331
102
}
330
331
100
AcDbXrecord
 70
     0
  0
XRECORD
  5
335
102
{ACAD_REACTORS
330
331
102
}
330
331
100
AcDbXrecord
  1

  0
XRECORD
  5
332
102
{ACAD_REACTORS
330
331
102
}
330
331
100
AcDbXrecord
 90
        1
  0
XRECORD
  5
333
102
{ACAD_REACTORS
330
331
102
}
330
331
100
AcDbXrecord
 90
       70
  0
XRECORD
  5
349
102
{ACAD_REACTORS
330
331
102
}
330
331
100
AcDbXrecord
340
0
  0
XRECORD
  5
34F
102
{ACAD_REACTORS
330
331
102
}
330
331
100
AcDbXrecord
 10
0.0
 20
0.0
 30
0.0
  0
XRECORD
  5
34B
102
{ACAD_REACTORS
330
331
102
}
330
331
100
AcDbXrecord
 10
0.0
 20
0.0
 30
0.0
  0
XRECORD
  5
34E
102
{ACAD_REACTORS
330
331
102
}
330
331
100
AcDbXrecord
 10
0.0
 20
0.0
 30
0.0
  0
XRECORD
  5
34C
102
{ACAD_REACTORS
330
331
102
}
330
331
100
AcDbXrecord
 10
0.0
 20
0.0
 30
0.0
  0
XRECORD
  5
34D
102
{ACAD_REACTORS
330
331
102
}
330
331
100
AcDbXrecord
 10
0.0
 20
0.0
 30
0.0
  0
XRECORD
  5
34A
102
{ACAD_REACTORS
330
331
102
}
330
331
100
AcDbXrecord
 10
0.0
 20
0.0
 30
0.0
  0
XRECORD
  5
347
102
{ACAD_REACTORS
330
331
102
}
330
331
100
AcDbXrecord
340
0
  0
XRECORD
  5
348
102
{ACAD_REACTORS
330
331
102
}
330
331
100
AcDbXrecord
 70
     0
  0
XRECORD
  5
33C
102
{ACAD_REACTORS
330
331
102
}
330
331
100
AcDbXrecord
  1
{FAEB1C32-E019-11D5-929B-00C0DF256EC4}
  0
ENDSEC
  0
EOF
