  0
SECTION
  2
HEADER
  9
$ACADVER
  1
AC1009
  9
$INSBASE
 10
0
 20
0
 30
0
  9
$EXTMIN
 10
0
 20
0
  9
$EXTMAX
 10
1782
 20
1260
  9
$LIMMIN
 10
0
 20
0
  9
$LIMMAX
 10
1782
 20
1260
  9
$LTSCALE
 40
6
  0
ENDSEC
  0
SECTION
  2
TABLES
  0
TABLE
  2
LTYPE
 70
     9
  0
LTYPE
  2
CONTINUOUS
 70
    64
  3
実線
 72
    65
 73
     0
 40
0.0
  0
LTYPE
  2
DASHED1
 70
    64
  3
--  --  --  --  --  --  --  --  
 72
    65
 73
     2
 40
2.5
 49
1.25
 49
-1.25
  0
LTYPE
  2
DASHED2
 70
    64
  3
----    ----    ----    ----    
 72
    65
 73
     2
 40
5.0
 49
2.5
 49
-2.5
  0
LTYPE
  2
DASHED3
 70
    64
  3
------  ------  ------  ------  
 72
    65
 73
     2
 40
5.0
 49
3.75
 49
-1.25
  0
LTYPE
  2
CENTER1
 70
    64
  3
----- - ----- - ----- - ----- - 
 72
    65
 73
     4
 40
10.0
 49
6.25
 49
-1.25
 49
1.25
 49
-1.25
  0
LTYPE
  2
CENTER2
 70
    64
  3
----------  --  ----------  --  
 72
    65
 73
     4
 40
20.0
 49
12.5
 49
-2.5
 49
2.5
 49
-2.5
  0
LTYPE
  2
PHANTOM1
 70
    64
  3
--- - - --- - - --- - - --- - - 
 72
    65
 73
     6
 40
10.0
 49
3.25
 49
-1.25
 49
1.25
 49
-1.25
 49
1.25
 49
-1.25
  0
LTYPE
  2
PHANTOM2
 70
    64
  3
--------  -  -  --------  -  -  
 72
    65
 73
     6
 40
20.0
 49
10.0
 49
-2.5
 49
1.25
 49
-2.5
 49
1.25
 49
-2.5
  0
LTYPE
  2
DOT
 70
    64
  3
-   -   -   -   -   -   -   -   
 72
    65
 73
     2
 40
2.5
 49
0.625
 49
-1.875
  0
LTYPE
  2
DUMMY
 70
    64
  3
ダミー
 72
    65
 73
     0
 40
0.0
  0
LTYPE
  2
RAND1
 70
    64
  3
ランダム線1
 72
    65
 73
     4
 40
10.0
 49
1.0
 49
-2.0
 49
3.0
 49
-4.0
  0
LTYPE
  2
RAND2
 70
    64
  3
ランダム線2
 72
    65
 73
     4
 40
14.0
 49
2.0
 49
-3.0
 49
4.0
 49
-5.0
  0
LTYPE
  2
RAND3
 70
    64
  3
ランダム線3
 72
    65
 73
     4
 40
18.0
 49
3.0
 49
-4.0
 49
5.0
 49
-6.0
  0
LTYPE
  2
RAND4
 70
    64
  3
ランダム線4
 72
    65
 73
     4
 40
22.0
 49
4.0
 49
-5.0
 49
6.0
 49
-7.0
  0
LTYPE
  2
RAND5
 70
    64
  3
ランダム線5
 72
    65
 73
     4
 40
26.0
 49
5.0
 49
-6.0
 49
7.0
 49
-8.0
  0
LTYPE
  2
LONG1
 70
    64
  3
----------  --  ----------  --  
 72
    65
 73
     4
 40
40.0
 49
32.5
 49
-2.5
 49
2.5
 49
-2.5
  0
LTYPE
  2
LONG2
 70
    64
  3
--------  -  -  --------  -  -  
 72
    65
 73
     6
 40
40.0
 49
30.0
 49
-2.5
 49
1.25
 49
-2.5
 49
1.25
 49
-2.5
  0
LTYPE
  2
LONG3
 70
    64
  3
+++++++++++++++..+++++++++++++++
 72
    65
 73
     2
 40
40.0
 49
37.5
 49
-2.5
  0
LTYPE
  2
LONG4
 70
    64
  3
+++++++++++++++..+++++++++++++++
 72
    65
 73
     2
 40
80.0
 49
75.0
 49
-5.0
  0
LTYPE
  2
LONG5
 70
    64
  3
----------  --  ----------  --  
 72
    65
 73
     4
 40
60.0
 49
37.5
 49
-7.5
 49
7.5
 49
-7.5
  0
LTYPE
  2
dashed
 70
   64
  3
-------   -------------   ------
 72
   65
 73
    2
 40
7.5
 49
6
 49
-1.5
  0
LTYPE
  2
dashed_spaced
 70
   64
  3
----        --------        ----
 72
   65
 73
    2
 40
12
 49
6
 49
-6
  0
LTYPE
  2
long_dashed_dotted
 70
   64
  3
------------- --- --------------
 72
   65
 73
    4
 40
15.25
 49
12
 49
-1.5
 49
0.25
 49
-1.5
  0
LTYPE
  2
long_dashed_double-dotted
 70
   64
  3
----------- --- --- ------------
 72
   65
 73
    6
 40
17
 49
12
 49
-1.5
 49
0.25
 49
-1.5
 49
0.25
 49
-1.5
  0
LTYPE
  2
long_dashed_triplicate-dotted
 70
   64
  3
--------- --- --- --- ----------
 72
   65
 73
    8
 40
18.75
 49
12
 49
-1.5
 49
0.25
 49
-1.5
 49
0.25
 49
-1.5
 49
0.25
 49
-1.5
  0
LTYPE
  2
dotted
 70
   64
  3
   -       -       -       -    
 72
   65
 73
    2
 40
1.75
 49
0.25
 49
-1.5
  0
LTYPE
  2
chain
 70
   64
  3
-------------- -- --------------
 72
   65
 73
    4
 40
18.5
 49
12
 49
-1.5
 49
3.5
 49
-1.5
  0
LTYPE
  2
chain_double_dash
 70
   64
  3
------------ -- -- -------------
 72
   65
 73
    6
 40
23.5
 49
12
 49
-1.5
 49
3.5
 49
-1.5
 49
3.5
 49
-1.5
  0
LTYPE
  2
dashed_dotted
 70
   64
  3
-----------     -     ----------
 72
   65
 73
    4
 40
9.25
 49
6
 49
-1.5
 49
0.25
 49
-1.5
  0
LTYPE
  2
double-dashed_dotted
 70
   64
  3
------   -----------   -   -----
 72
   65
 73
    6
 40
16.75
 49
6
 49
-1.5
 49
6
 49
-1.5
 49
0.25
 49
-1.5
  0
LTYPE
  2
dashed_double-dotted
 70
   64
  3
---------    -    -    ---------
 72
   65
 73
    6
 40
11
 49
6
 49
-1.5
 49
0.25
 49
-1.5
 49
0.25
 49
-1.5
  0
LTYPE
  2
double-dashed_double-dotted
 70
   64
  3
-----   ---------   -   -   ----
 72
   65
 73
    8
 40
18.5
 49
6
 49
-1.5
 49
6
 49
-1.5
 49
0.25
 49
-1.5
 49
0.25
 49
-1.5
  0
LTYPE
  2
dashed_triplicate-dotted
 70
   64
  3
-------    -    -    -    ------
 72
   65
 73
    8
 40
12.75
 49
6
 49
-1.5
 49
0.25
 49
-1.5
 49
0.25
 49
-1.5
 49
0.25
 49
-1.5
  0
LTYPE
  2
double-dashed_triplicate-dotted
 70
   64
  3
-----  ---------  -  -  -  -----
 72
   65
 73
   10
 40
20.25
 49
6
 49
-1.5
 49
6
 49
-1.5
 49
0.25
 49
-1.5
 49
0.25
 49
-1.5
 49
0.25
 49
-1.5
  0
LTYPE
  2
undefined
 70
   64
  3
--------------------------------
 72
   65
 73
    0
 40
0
  0
LTYPE
  2
AI9-LType1
 70
   64
  3
-----------   -----   ----------
 72
   65
 73
    4
 40
1.909268638160492
 49
1.272857477929856
 49
-0.159102790057659
 49
0.318205580115318
 49
-0.159102790057659
  0
LTYPE
  2
AI9-LType3
 70
   64
  3
----        --------        ----
 72
   65
 73
    4
 40
3.9999355157216385
 49
0.9999838789304096
 49
-0.9999838789304096
 49
0.9999838789304096
 49
-0.9999838789304096
  0
LTYPE
  2
AI9-LType4
 70
   64
  3
-----------   -----   ----------
 72
   65
 73
    4
 40
9.8010483688778347
 49
6.5340441332923032
 49
-0.8167510588963825
 49
1.6335021177927651
 49
-0.8167510588963825
  0
LTYPE
  2
AI9-LType5
 70
   64
  3
-------   -------------   ------
 72
   65
 73
    2
 40
24.502673406071132
 49
19.6021317270067
 49
-4.9005416790644318
  0
LTYPE
  2
AI9-LType6
 70
   64
  3
-----------   -----   ----------
 72
   65
 73
    4
 40
5.8806294586923364
 49
3.9204197512732599
 49
-0.4900435954332351
 49
0.9801225165526068
 49
-0.4900435954332351
  0
LTYPE
  2
_
 70
   64
  3
                                
 72
   65
 73
    0
 40
0
  0
LTYPE
  2
__23
 70
   64
  3
                                
 72
   65
 73
    0
 40
0
  0
LTYPE
  2
__24
 70
   64
  3
                                
 72
   65
 73
    0
 40
0
  0
LTYPE
  2
__25
 70
   64
  3
                                
 72
   65
 73
    0
 40
0
  0
LTYPE
  2
__26
 70
   64
  3
                                
 72
   65
 73
    0
 40
0
  0
LTYPE
  2
__27
 70
   64
  3
                                
 72
   65
 73
    0
 40
0
  0
LTYPE
  2
__28
 70
   64
  3
                                
 72
   65
 73
    0
 40
0
  0
LTYPE
  2
__29
 70
   64
  3
                                
 72
   65
 73
    0
 40
0
  0
LTYPE
  2
__30
 70
   64
  3
                                
 72
   65
 73
    0
 40
0
  0
LTYPE
  2
__31
 70
   64
  3
                                
 72
   65
 73
    0
 40
0
  0
LTYPE
  2
__32
 70
   64
  3
                                
 72
   65
 73
    0
 40
0
  0
ENDTAB
  0
TABLE
  2
STYLE
  5
3
100
AcDbSymbolTable
 70
     1
  0
STYLE
  5
10
100
AcDbSymbolTableRecord
100
AcDbTextStyleTableRecord
  2
STANDARD
 70
     0
 40
0.0
 41
1.0
 50
0.0
 71
     0
 42
0.2
  3
txt
  4
bigfont.shx
  0
STYLE
  5
26
100
AcDbSymbolTableRecord
100
AcDbTextStyleTableRecord
  2
TATEGAKI
 70
    68
 40
0.0
 41
1.0
 50
0.0
 71
     0
 42
1.0
  3
txt
  4
bigfont.shx
  0
ENDTAB
  0
TABLE
  2
LAYER
 70
    5
  0
LAYER
  2
_0-0_0
 70
   64
 62
    7
  6
CONTINUOUS
  0
LAYER
  2
_0-3_D-STR-TXT
 70
   64
 62
    7
  6
CONTINUOUS
  0
LAYER
  2
_0-5_D-BYP-STR1
 70
   64
 62
    7
  6
CONTINUOUS
  0
LAYER
  2
_0-b_ADD_LINE
 70
   64
 62
    7
  6
CONTINUOUS
  0
LAYER
  2
ADD_LINE
 70
   64
 62
    7
  6
CONTINUOUS
  0
ENDTAB
  0
ENDSEC
  0
SECTION
  2
BLOCKS
  0
ENDSEC
  0
SECTION
  2
ENTITIES
  0
LINE
  8
_0-0_0
  6
CONTINUOUS
 62
    7
 10
1437.4024127156536
 20
48.305735107421782
 11
1437.4024127156536
 21
-18.360924892578026
  0
LINE
  8
_0-0_0
  6
CONTINUOUS
 62
    7
 10
1654.3834576375284
 20
48.305735107421782
 11
1654.3834576375284
 21
14.972405107421878
  0
LINE
  8
_0-0_0
  6
CONTINUOUS
 62
    7
 10
1754.3835325073198
 20
48.305735107421782
 11
1754.3835325073198
 21
14.972405107421878
  0
LINE
  8
_0-0_0
  6
CONTINUOUS
 62
    7
 10
1929.7564927937781
 20
-51.694393581814239
 11
987.40229900037593
 21
-51.694393581814239
  0
LINE
  8
_0-0_0
  6
CONTINUOUS
 62
    7
 10
987.40229900037593
 20
-51.694393581814239
 11
987.40229900037593
 21
1311.6943935818144
  0
LINE
  8
_0-0_0
  6
CONTINUOUS
 62
    7
 10
987.40229900037593
 20
1311.6943935818144
 11
1929.7564927937781
 21
1311.6943935818144
  0
LINE
  8
_0-0_0
  6
CONTINUOUS
 62
    7
 10
1929.7564927937781
 20
1311.6943935818144
 11
1929.7564927937781
 21
-51.694393581814239
  0
LINE
  8
_0-0_0
  6
CONTINUOUS
 62
    7
 10
1337.4023378458619
 20
14.972405107421878
 11
1929.7564927937781
 21
14.972405107421878
  0
LINE
  8
_0-0_0
  6
CONTINUOUS
 62
    7
 10
1337.4023378458619
 20
48.305735107421782
 11
1337.4023378458619
 21
-51.694393581814239
  0
LINE
  8
_0-0_0
  6
CONTINUOUS
 62
    7
 10
987.40229900037593
 20
48.305735107421782
 11
1928.996849239091
 21
48.305735107421782
  0
LINE
  8
_0-0_0
  6
CONTINUOUS
 62
    7
 10
1337.4023378458619
 20
-18.360924892578026
 11
1929.7564927937781
 21
-18.360924892578026
  0
TEXT
  8
_0-3_D-STR-TXT
 62
    7
 10
1062.4023184231189
 20
-11.694329237196257
 40
20
 41
1
 50
0
  1
保安道路企画株式会社
  0
TEXT
  8
_0-3_D-STR-TXT
 62
    7
 10
1364.902375280758
 20
24.139070107421873
 40
15
 41
1
 50
0
  1
品　名
  0
TEXT
  8
_0-3_D-STR-TXT
 62
    7
 10
1364.902375280758
 20
-9.1942598925781169
 40
15
 41
1
 50
0
  1
材　質
  0
TEXT
  8
_0-3_D-STR-TXT
 62
    7
 10
1473.5794527547159
 20
-9.1942598925781169
 40
15
 41
1
 50
0
  1
ポスト：ポリウレタン　　ベース・セットピン：スチレニクス
  0
TEXT
  8
_0-3_D-STR-TXT
 62
    7
 10
1681.8834950724242
 20
24.139070107421873
 40
15
 41
1
 50
0
  1
品　番
  0
LINE
  8
ADD_LINE
  6
DOT
 62
    9
 10
891.90621328500697
 20
-184.18049743203318
 11
2019.9062132850067
 21
-184.18049743203318
  0
LINE
  8
ADD_LINE
  6
DOT
 62
    9
 10
2019.9062132850067
 20
-184.18049743203318
 11
2019.9062132850067
 21
1431.819502567967
  0
LINE
  8
ADD_LINE
  6
DOT
 62
    9
 10
2019.9062132850067
 20
1431.819502567967
 11
891.90621328500697
 21
1431.819502567967
  0
LINE
  8
ADD_LINE
  6
DOT
 62
    9
 10
891.90621328500697
 20
1431.819502567967
 11
891.90621328500697
 21
-184.18049743203318
  0
TEXT
  8
_0-3_D-STR-TXT
 62
    7
 10
1493.392935176591
 20
24.139070107421702
 40
15
 41
1
 50
0
  1
ラウンドポスト
  0
TEXT
  8
_0-3_D-STR-TXT
 62
    7
 10
1815.820012650549
 20
24.139070107421702
 40
15
 41
1
 50
0
  1
RP-UK650
  0
TEXT
  8
_0-0_0
 62
    7
 10
1365.5736165002359
 20
-43.013907240404734
 40
15
 41
1
 50
0
  1
腰みの付き防塵タイプ
  0
ARC
  8
_0-0_0
  6
CONTINUOUS
 62
    7
 10
1691.2875988852709
 20
237.32409777851575
 40
22.500000000000004
 50
335.37279488227125
 51
53.083602636363217
  0
LINE
  8
_0-0_0
  6
AI9-LType1
 62
    7
 10
1263.6206799399579
 20
512.68227194419001
 11
1263.6206799399579
 21
535.25183401450249
  0
LINE
  8
_0-0_0
  6
CONTINUOUS
 62
    7
 10
1562.4401402669107
 20
680.1251879314749
 11
1569.8651148556351
 21
680.1251879314749
  0
LINE
  8
_0-0_0
  6
CONTINUOUS
 62
    7
 10
1569.8651148556351
 20
680.1251879314749
 11
1569.8651148556351
 21
662.30522309724142
  0
LINE
  8
_0-0_0
  6
CONTINUOUS
 62
    7
 10
1569.8651148556351
 20
662.30522309724142
 11
1562.4401402669107
 21
662.30522309724142
  0
LINE
  8
_0-0_0
  6
CONTINUOUS
 62
    7
 10
1562.4401402669107
 20
662.30522309724142
 11
1562.4401402669107
 21
680.1251879314749
  0
CIRCLE
  8
_0-0_0
  6
CONTINUOUS
 62
    7
 10
1586.1354437165753
 20
671.31137872289992
 40
8.909982417116705
  0
LINE
  8
_0-0_0
  6
CONTINUOUS
 62
    7
 10
1424.3341328293636
 20
675.67020479207133
 11
1503.0355931849112
 21
675.67020479207133
  0
LINE
  8
_0-0_0
  6
CONTINUOUS
 62
    7
 10
1503.0355931849112
 20
675.66864554213385
 11
1562.4401402669107
 21
677.52696012007698
  0
ARC
  8
_0-0_0
  6
CONTINUOUS
 62
    7
 10
1424.2543366968512
 20
672.69538767065478
 40
2.9758871498492199
 50
88.463473431715343
 51
166.13379640606391
  0
LINE
  8
_0-0_0
  6
CONTINUOUS
 62
    7
 10
1424.3341328293636
 20
666.76020623664556
 11
1503.0355931849112
 21
666.76020623664556
  0
LINE
  8
_0-0_0
  6
CONTINUOUS
 62
    7
 10
1503.0355931849112
 20
666.76176548658304
 11
1562.4401402669107
 21
664.9034509086398
  0
ARC
  8
_0-0_0
  6
CONTINUOUS
 62
    7
 10
1424.2543366968505
 20
669.73502335806211
 40
2.9758871498490436
 50
193.86620359393439
 51
271.53652656828473
  0
LINE
  8
_0-0_0
  6
CONTINUOUS
 62
    7
 10
1421.3651728108471
 20
673.40857514141317
 11
1421.3651728108471
 21
669.02183588730361
  0
LINE
  8
_0-0_0
  6
AI9-LType4
 62
    7
 10
1606.3000183041981
 20
671.31137872289992
 11
1410.1105806403402
 21
671.31137872289992
  0
LINE
  8
_0-0_0
  6
AI9-LType4
 62
    7
 10
1586.4168547814461
 20
651.14680413527628
 11
1586.4168547814461
 21
691.47595331052275
  0
LINE
  8
_0-0_0
  6
CONTINUOUS
 62
    7
 10
1334.0159459067547
 20
502.25912068720675
 11
1364.9690953208171
 21
522.84391072626897
  0
LINE
  8
_0-0_0
  6
CONTINUOUS
 62
    7
 10
1364.9690953208171
 20
522.84391072626897
 11
1507.223022262745
 21
522.84391072626897
  0
LINE
  8
_0-0_0
  6
CONTINUOUS
 62
    7
 10
1299.7660984946456
 20
526.48554890986281
 11
1330.7192479087075
 21
547.06878865595695
  0
LINE
  8
_0-0_0
  6
CONTINUOUS
 62
    7
 10
1330.7192479087075
 20
547.06878865595695
 11
1472.9677488252451
 21
547.06878865595695
  0
LINE
  8
_0-0_0
  6
CONTINUOUS
 62
    7
 10
1370.5247640001053
 20
490.05200154658166
 11
1190.9532153531295
 21
490.05200154658166
  0
LINE
  8
_0-0_0
  6
CONTINUOUS
 62
    7
 10
1370.8625340415201
 20
489.68923299189419
 11
1369.4611683676922
 21
488.01491658564419
  0
LINE
  8
_0-0_0
  6
CONTINUOUS
 62
    7
 10
1383.2369595854436
 20
488.01491658564419
 11
1178.3672940580998
 21
488.01491658564419
  0
LINE
  8
_0-0_0
  6
CONTINUOUS
 62
    7
 10
1192.1362339926923
 20
488.01491658564419
 11
1190.7347691489422
 21
489.81635701533162
  0
LINE
  8
_0-0_0
  6
CONTINUOUS
 62
    7
 10
1321.3919102622237
 20
518.09381307001922
 11
1320.5532707051543
 21
517.0406058923802
  0
LINE
  8
_0-0_0
  6
CONTINUOUS
 62
    7
 10
1320.5532707051543
 20
517.0406058923802
 11
1320.0535485741307
 21
515.66281603589891
  0
LINE
  8
_0-0_0
  6
CONTINUOUS
 62
    7
 10
1320.0535485741307
 20
515.66281603589891
 11
1319.9079276732311
 21
514.00230694816923
  0
LINE
  8
_0-0_0
  6
CONTINUOUS
 62
    7
 10
1319.9079276732311
 20
514.00230694816923
 11
1320.120832619843
 21
512.10953235756392
  0
LINE
  8
_0-0_0
  6
CONTINUOUS
 62
    7
 10
1320.120832619843
 20
512.10953235756392
 11
1320.6857944048982
 21
510.04200326222832
  0
LINE
  8
_0-0_0
  6
CONTINUOUS
 62
    7
 10
1320.6857944048982
 20
510.04200326222832
 11
1321.585646950442
 21
507.86254048750379
  0
LINE
  8
_0-0_0
  6
CONTINUOUS
 62
    7
 10
1321.585646950442
 20
507.86254048750379
 11
1322.7930486922253
 21
505.63736590693918
  0
LINE
  8
_0-0_0
  6
CONTINUOUS
 62
    7
 10
1322.7930486922253
 20
505.63736590693918
 11
1324.2713133392995
 21
503.43409032417213
  0
LINE
  8
_0-0_0
  6
CONTINUOUS
 62
    7
 10
1324.2713133392995
 20
503.43409032417213
 11
1325.9755245684007
 21
501.31965915287378
  0
LINE
  8
_0-0_0
  6
CONTINUOUS
 62
    7
 10
1325.9755245684007
 20
501.31965915287378
 11
1327.8539007837051
 21
499.35831831423047
  0
LINE
  8
_0-0_0
  6
CONTINUOUS
 62
    7
 10
1327.8539007837051
 20
499.35831831423047
 11
1329.8493684744153
 21
497.60966215713779
  0
LINE
  8
_0-0_0
  6
CONTINUOUS
 62
    7
 10
1329.8493684744153
 20
497.60966215713779
 11
1331.9012963645043
 21
496.12682271406629
  0
LINE
  8
_0-0_0
  6
CONTINUOUS
 62
    7
 10
1331.9012963645043
 20
496.12682271406629
 11
1333.9473376633573
 21
494.95485531114082
  0
LINE
  8
_0-0_0
  6
CONTINUOUS
 62
    7
 10
1333.9473376633573
 20
494.95485531114082
 11
1335.9253244414549
 21
494.129369584855
  0
LINE
  8
_0-0_0
  6
CONTINUOUS
 62
    7
 10
1335.9253244414549
 20
494.129369584855
 11
1337.7751565714557
 21
493.67544750128638
  0
LINE
  8
_0-0_0
  6
CONTINUOUS
 62
    7
 10
1337.7751565714557
 20
493.67544750128638
 11
1339.4406278401482
 21
493.60688125324845
  0
LINE
  8
_0-0_0
  6
CONTINUOUS
 62
    7
 10
1339.4406278401482
 20
493.60688125324845
 11
1340.8711337458035
 21
493.92575419149125
  0
LINE
  8
_0-0_0
  6
CONTINUOUS
 62
    7
 10
1340.8711337458035
 20
493.92575419149125
 11
1342.0232090903487
 21
494.62237752314434
  0
LINE
  8
_0-0_0
  6
CONTINUOUS
 62
    7
 10
1342.0232090903487
 20
494.62237752314434
 11
1342.8618486474177
 21
495.67558470078336
  0
LINE
  8
_0-0_0
  6
CONTINUOUS
 62
    7
 10
1342.8618486474177
 20
495.67558470078336
 11
1343.3615707784415
 21
497.05337455726476
  0
LINE
  8
_0-0_0
  6
CONTINUOUS
 62
    7
 10
1343.3615707784415
 20
497.05337455726476
 11
1343.5071916793408
 21
498.71388364499433
  0
LINE
  8
_0-0_0
  6
CONTINUOUS
 62
    7
 10
1343.5071916793408
 20
498.71388364499433
 11
1343.294286732729
 21
500.60665823559958
  0
LINE
  8
_0-0_0
  6
CONTINUOUS
 62
    7
 10
1343.294286732729
 20
500.60665823559958
 11
1342.7293249476741
 21
502.67418733093541
  0
LINE
  8
_0-0_0
  6
CONTINUOUS
 62
    7
 10
1342.7293249476741
 20
502.67418733093541
 11
1341.8294724021302
 21
504.85365010565977
  0
LINE
  8
_0-0_0
  6
CONTINUOUS
 62
    7
 10
1341.8294724021302
 20
504.85365010565977
 11
1340.6220706603467
 21
507.07882468622449
  0
LINE
  8
_0-0_0
  6
CONTINUOUS
 62
    7
 10
1340.6220706603467
 20
507.07882468622449
 11
1339.1438060132728
 21
509.28210026899137
  0
LINE
  8
_0-0_0
  6
CONTINUOUS
 62
    7
 10
1339.1438060132728
 20
509.28210026899137
 11
1337.4395947841713
 21
511.39653144028966
  0
LINE
  8
_0-0_0
  6
CONTINUOUS
 62
    7
 10
1337.4395947841713
 20
511.39653144028966
 11
1335.5612185688665
 21
513.35787227893309
  0
LINE
  8
_0-0_0
  6
CONTINUOUS
 62
    7
 10
1335.5612185688665
 20
513.35787227893309
 11
1333.5657508781567
 21
515.10652843602566
  0
LINE
  8
_0-0_0
  6
CONTINUOUS
 62
    7
 10
1333.5657508781567
 20
515.10652843602566
 11
1331.5138229880677
 21
516.58936787909715
  0
LINE
  8
_0-0_0
  6
CONTINUOUS
 62
    7
 10
1331.5138229880677
 20
516.58936787909715
 11
1329.4677816892149
 21
517.76133528202274
  0
LINE
  8
_0-0_0
  6
CONTINUOUS
 62
    7
 10
1329.4677816892149
 20
517.76133528202274
 11
1327.4897949111169
 21
518.58682100830845
  0
LINE
  8
_0-0_0
  6
CONTINUOUS
 62
    7
 10
1327.4897949111169
 20
518.58682100830845
 11
1325.6399627811165
 21
519.04074309187706
  0
LINE
  8
_0-0_0
  6
CONTINUOUS
 62
    7
 10
1325.6399627811165
 20
519.04074309187706
 11
1323.9744915124238
 21
519.10930933991528
  0
LINE
  8
_0-0_0
  6
CONTINUOUS
 62
    7
 10
1323.9744915124238
 20
519.10930933991528
 11
1322.5439856067687
 21
518.7904364016722
  0
LINE
  8
_0-0_0
  6
CONTINUOUS
 62
    7
 10
1322.5439856067687
 20
518.7904364016722
 11
1321.3919102622237
 21
518.09381307001922
  0
LINE
  8
_0-0_0
  6
CONTINUOUS
 62
    7
 10
1240.5495579673016
 20
518.09381307001922
 11
1239.3974826227563
 21
518.7904364016722
  0
LINE
  8
_0-0_0
  6
CONTINUOUS
 62
    7
 10
1239.3974826227563
 20
518.7904364016722
 11
1237.9669767171013
 21
519.10930933991528
  0
LINE
  8
_0-0_0
  6
CONTINUOUS
 62
    7
 10
1237.9669767171013
 20
519.10930933991528
 11
1236.3015054484085
 21
519.04074309187706
  0
LINE
  8
_0-0_0
  6
CONTINUOUS
 62
    7
 10
1236.3015054484085
 20
519.04074309187706
 11
1234.4516733184082
 21
518.58682100830845
  0
LINE
  8
_0-0_0
  6
CONTINUOUS
 62
    7
 10
1234.4516733184082
 20
518.58682100830845
 11
1232.4736865403102
 21
517.76133528202286
  0
LINE
  8
_0-0_0
  6
CONTINUOUS
 62
    7
 10
1232.4736865403102
 20
517.76133528202286
 11
1230.4276452414574
 21
516.58936787909738
  0
LINE
  8
_0-0_0
  6
CONTINUOUS
 62
    7
 10
1230.4276452414574
 20
516.58936787909738
 11
1228.3757173513684
 21
515.10652843602566
  0
LINE
  8
_0-0_0
  6
CONTINUOUS
 62
    7
 10
1228.3757173513684
 20
515.10652843602566
 11
1226.3802496606581
 21
513.35787227893309
  0
LINE
  8
_0-0_0
  6
CONTINUOUS
 62
    7
 10
1226.3802496606581
 20
513.35787227893309
 11
1224.5018734453538
 21
511.39653144028966
  0
LINE
  8
_0-0_0
  6
CONTINUOUS
 62
    7
 10
1224.5018734453538
 20
511.39653144028966
 11
1222.7976622162523
 21
509.28210026899148
  0
LINE
  8
_0-0_0
  6
CONTINUOUS
 62
    7
 10
1222.7976622162523
 20
509.28210026899148
 11
1221.3193975691784
 21
507.07882468622449
  0
LINE
  8
_0-0_0
  6
CONTINUOUS
 62
    7
 10
1221.3193975691784
 20
507.07882468622449
 11
1220.1119958273948
 21
504.85365010565988
  0
LINE
  8
_0-0_0
  6
CONTINUOUS
 62
    7
 10
1220.1119958273948
 20
504.85365010565988
 11
1219.2121432818508
 21
502.67418733093541
  0
LINE
  8
_0-0_0
  6
CONTINUOUS
 62
    7
 10
1219.2121432818508
 20
502.67418733093541
 11
1218.6471814967958
 21
500.60665823559964
  0
LINE
  8
_0-0_0
  6
CONTINUOUS
 62
    7
 10
1218.6471814967958
 20
500.60665823559964
 11
1218.4342765501842
 21
498.71388364499433
  0
LINE
  8
_0-0_0
  6
CONTINUOUS
 62
    7
 10
1218.4342765501842
 20
498.71388364499433
 11
1218.5798974510833
 21
497.05337455726476
  0
LINE
  8
_0-0_0
  6
CONTINUOUS
 62
    7
 10
1218.5798974510833
 20
497.05337455726476
 11
1219.0796195821074
 21
495.67558470078336
  0
LINE
  8
_0-0_0
  6
CONTINUOUS
 62
    7
 10
1219.0796195821074
 20
495.67558470078336
 11
1219.9182591391764
 21
494.62237752314434
  0
LINE
  8
_0-0_0
  6
CONTINUOUS
 62
    7
 10
1219.9182591391764
 20
494.62237752314434
 11
1221.0703344837216
 21
493.92575419149142
  0
LINE
  8
_0-0_0
  6
CONTINUOUS
 62
    7
 10
1221.0703344837216
 20
493.92575419149142
 11
1222.5008403893767
 21
493.60688125324845
  0
LINE
  8
_0-0_0
  6
CONTINUOUS
 62
    7
 10
1222.5008403893767
 20
493.60688125324845
 11
1224.1663116580694
 21
493.67544750128638
  0
LINE
  8
_0-0_0
  6
CONTINUOUS
 62
    7
 10
1224.1663116580694
 20
493.67544750128638
 11
1226.0161437880697
 21
494.129369584855
  0
LINE
  8
_0-0_0
  6
CONTINUOUS
 62
    7
 10
1226.0161437880697
 20
494.129369584855
 11
1227.9941305661678
 21
494.95485531114082
  0
LINE
  8
_0-0_0
  6
CONTINUOUS
 62
    7
 10
1227.9941305661678
 20
494.95485531114082
 11
1230.0401718650207
 21
496.12682271406629
  0
LINE
  8
_0-0_0
  6
CONTINUOUS
 62
    7
 10
1230.0401718650207
 20
496.12682271406629
 11
1232.0920997551095
 21
497.60966215713768
  0
LINE
  8
_0-0_0
  6
CONTINUOUS
 62
    7
 10
1232.0920997551095
 20
497.60966215713768
 11
1234.0875674458198
 21
499.35831831423047
  0
LINE
  8
_0-0_0
  6
CONTINUOUS
 62
    7
 10
1234.0875674458198
 20
499.35831831423047
 11
1235.9659436611244
 21
501.31965915287378
  0
LINE
  8
_0-0_0
  6
CONTINUOUS
 62
    7
 10
1235.9659436611244
 20
501.31965915287378
 11
1237.6701548902254
 21
503.43409032417213
  0
LINE
  8
_0-0_0
  6
CONTINUOUS
 62
    7
 10
1237.6701548902254
 20
503.43409032417213
 11
1239.1484195372996
 21
505.63736590693918
  0
LINE
  8
_0-0_0
  6
CONTINUOUS
 62
    7
 10
1239.1484195372996
 20
505.63736590693918
 11
1240.3558212790833
 21
507.86254048750379
  0
LINE
  8
_0-0_0
  6
CONTINUOUS
 62
    7
 10
1240.3558212790833
 20
507.86254048750379
 11
1241.2556738246269
 21
510.04200326222832
  0
LINE
  8
_0-0_0
  6
CONTINUOUS
 62
    7
 10
1241.2556738246269
 20
510.04200326222832
 11
1241.8206356096821
 21
512.10953235756392
  0
LINE
  8
_0-0_0
  6
CONTINUOUS
 62
    7
 10
1241.8206356096821
 20
512.10953235756392
 11
1242.0335405562937
 21
514.00230694816912
  0
LINE
  8
_0-0_0
  6
CONTINUOUS
 62
    7
 10
1242.0335405562937
 20
514.00230694816912
 11
1241.8879196553949
 21
515.66281603589891
  0
LINE
  8
_0-0_0
  6
CONTINUOUS
 62
    7
 10
1241.8879196553949
 20
515.66281603589891
 11
1241.3881975243708
 21
517.0406058923802
  0
LINE
  8
_0-0_0
  6
CONTINUOUS
 62
    7
 10
1241.3881975243708
 20
517.0406058923802
 11
1240.5495579673016
 21
518.09381307001922
  0
LINE
  8
_0-0_0
  6
CONTINUOUS
 62
    7
 10
1369.5403195770473
 20
488.1094844567375
 11
1192.0626631187949
 21
488.1094844567375
  0
LINE
  8
_0-0_0
  6
CONTINUOUS
 62
    7
 10
1793.7292829321013
 20
488.01491658564419
 11
1588.8596174047573
 21
488.01491658564419
  0
LINE
  8
_0-0_0
  6
CONTINUOUS
 62
    7
 10
1592.2278097250453
 20
606.96856700954572
 11
1395.6139925535804
 21
606.96856700954572
  0
LINE
  8
_0-0_0
  6
CONTINUOUS
 62
    7
 10
1395.6139925535804
 20
606.96856700954572
 11
1395.6139925535804
 21
631.57481700954565
  0
LINE
  8
_0-0_0
  6
CONTINUOUS
 62
    7
 10
1395.6139925535804
 20
631.57481700954565
 11
1592.2278097250453
 21
631.57481700954565
  0
LINE
  8
_0-0_0
  6
CONTINUOUS
 62
    7
 10
1592.2278097250453
 20
631.57481700954565
 11
1592.2278097250453
 21
606.96856700954572
  0
LINE
  8
_0-5_D-BYP-STR1
  6
CONTINUOUS
 62
    7
 10
1569.8606697320174
 20
713.90365707134742
 11
1421.3651728108471
 21
713.90365707134742
  0
TEXT
  8
_0-5_D-BYP-STR1
 62
    7
 10
1484.3629212714318
 20
716.52865707134742
 40
15
 41
1
 50
0
  1
100
  0
LINE
  8
_0-5_D-BYP-STR1
  6
CONTINUOUS
 62
    7
 10
1390.7572786218489
 20
666.76020623664556
 11
1390.7572786218489
 21
675.6712748205041
  0
TEXT
  8
_0-5_D-BYP-STR1
 62
    7
 10
1388.1322786218489
 20
667.465740528575
 40
15
 41
1
 50
90
  1
6
  0
LINE
  8
_0-5_D-BYP-STR1
  6
CONTINUOUS
 62
    7
 10
1569.8651148556351
 20
697.15512803384684
 11
1562.4401402669107
 21
697.15512803384684
  0
TEXT
  8
_0-3_D-STR-TXT
 62
    7
 10
1345.5934983669763
 20
546.31878865595695
 40
15
 41
1
 50
0
  1
セットピン(2本)
  0
TEXT
  8
_0-3_D-STR-TXT
 62
    7
 10
1383.5960587917812
 20
522.09391072626897
 40
15
 41
1
 50
0
  1
アンカーホール
  0
TEXT
  8
_0-0_0
 62
    7
 10
1489.7035764326022
 20
612.21334002516573
 40
15
 41
1
 50
0
  1
　
  0
LINE
  8
_0-5_D-BYP-STR1
  6
CONTINUOUS
 62
    7
 10
1619.9139128564477
 20
662.40584142940111
 11
1619.9139128564477
 21
713.90365707134742
  0
LINE
  8
_0-5_D-BYP-STR1
  6
CONTINUOUS
 62
    7
 10
1597.0380113091751
 20
680.21691601639839
 11
1619.9139128564477
 21
680.21691601639839
  0
LINE
  8
_0-5_D-BYP-STR1
  6
CONTINUOUS
 62
    7
 10
1597.0380113091751
 20
662.40584142940111
 11
1619.9139128564477
 21
662.40584142940111
  0
LINE
  8
_0-5_D-BYP-STR1
  6
CONTINUOUS
 62
    7
 10
1569.8606697320174
 20
684.3930210084435
 11
1569.8606697320174
 21
713.90365707134742
  0
LINE
  8
_0-5_D-BYP-STR1
  6
CONTINUOUS
 62
    7
 10
1562.4401402669107
 20
684.3930210084435
 11
1562.4401402669107
 21
697.15512803384684
  0
LINE
  8
_0-5_D-BYP-STR1
  6
CONTINUOUS
 62
    7
 10
1421.3651728108471
 20
684.3930210084435
 11
1421.3651728108471
 21
713.90365707134742
  0
LINE
  8
_0-5_D-BYP-STR1
  6
CONTINUOUS
 62
    7
 10
1415.8279573079981
 20
675.6712748205041
 11
1390.7572786218489
 21
675.6712748205041
  0
LINE
  8
_0-5_D-BYP-STR1
  6
CONTINUOUS
 62
    7
 10
1415.8279573079981
 20
666.76020623664556
 11
1390.7572786218489
 21
666.76020623664556
  0
TEXT
  8
_0-5_D-BYP-STR1
 62
    7
 10
1562.4505108914309
 20
696.60358828576443
 40
15
 41
1
 50
0
  1
5
  0
TEXT
  8
_0-5_D-BYP-STR1
 62
    7
 10
1618.8440682040045
 20
679.31325315239201
 40
15
 41
1
 50
90
  1
φ-12
  0
TEXT
  8
_0-3_D-STR-TXT
 62
    7
 10
1437.6709011393125
 20
611.77169200954563
 40
15
 41
1
 50
0
  1
セットピン(2本)
  0
LINE
  8
_0-0_0
  6
CONTINUOUS
 62
    7
 10
1238.0487011801922
 20
537.51491658564419
 11
1323.5487011801922
 21
537.51491658564419
  0
LINE
  8
_0-0_0
  6
CONTINUOUS
 62
    7
 10
1238.0487011801922
 20
537.51491658564419
 11
1190.9532153531295
 21
490.05200154658166
  0
LINE
  8
_0-0_0
  6
CONTINUOUS
 62
    7
 10
1323.5487011801922
 20
537.51491658564419
 11
1370.5247640001053
 21
490.05200154658166
  0
LINE
  8
_0-0_0
  6
CONTINUOUS
 62
    7
 10
1370.5247640001053
 20
490.05200154658166
 11
1370.8625340415201
 21
489.68923299189419
  0
LINE
  8
_0-0_0
  6
CONTINUOUS
 62
    7
 10
1190.9532153531295
 20
490.05200154658166
 11
1190.7347691489422
 21
489.81635701533162
  0
LINE
  8
_0-0_0
  6
AI9-LType1
 62
    7
 10
1297.9767224204268
 20
512.68227194419001
 11
1297.9767224204268
 21
535.25183401450249
  0
CIRCLE
  8
_0-0_0
  6
CONTINUOUS
 62
    7
 10
1297.975947273942
 20
523.98545797934639
 40
5.41594848632813
  0
CIRCLE
  8
_0-0_0
  6
CONTINUOUS
 62
    7
 10
1263.6206799399579
 20
523.98545797934639
 40
5.4167236328124755
  0
CIRCLE
  8
_0-0_0
  6
CONTINUOUS
 62
    7
 10
1263.6202923667158
 20
523.98545797934639
 40
6.3294586181640575
  0
CIRCLE
  8
_0-0_0
  6
CONTINUOUS
 62
    7
 10
1297.975947273942
 20
523.98545797934639
 40
6.3290710449218892
  0
LINE
  8
_0-0_0
  6
AI9-LType1
 62
    7
 10
1315.1530427778921
 20
523.98545797934639
 11
1246.4375082993329
 21
523.98545797934639
  0
LINE
  8
_0-0_0
  6
AI9-LType3
 62
    7
 10
1244.7952755386127
 20
537.51491658564419
 11
1244.7952755386127
 21
490.87830769892537
  0
LINE
  8
_0-0_0
  6
AI9-LType3
 62
    7
 10
1316.7952755386127
 20
490.87830769892537
 11
1244.7952755386127
 21
490.87830769892537
  0
LINE
  8
_0-0_0
  6
AI9-LType3
 62
    7
 10
1247.9452755386128
 20
537.51491658564419
 11
1247.9452755386128
 21
490.87830769892537
  0
LINE
  8
_0-0_0
  6
AI9-LType3
 62
    7
 10
1316.7952755386127
 20
537.51491658564419
 11
1316.7952755386127
 21
490.87830769892537
  0
LINE
  8
_0-0_0
  6
AI9-LType3
 62
    7
 10
1313.6452755386129
 20
537.51491658564419
 11
1313.6452755386129
 21
490.87830769892537
  0
LINE
  8
_0-5_D-BYP-STR1
  6
CONTINUOUS
 62
    7
 10
1188.2248448325361
 20
537.51491658564419
 11
1138.6743809653485
 21
537.51491658564419
  0
TEXT
  8
_0-5_D-BYP-STR1
 62
    7
 10
1139.4243809653485
 20
493.73397728705856
 40
15
 41
1
 50
90
  1
55±2
  0
LINE
  8
_0-0_0
  6
CONTINUOUS
 62
    7
 10
1244.7952755386127
 20
555.51491658564419
 11
1316.7952755386127
 21
555.51491658564419
  0
LINE
  8
_0-0_0
  6
CONTINUOUS
 62
    7
 10
1316.7952755386127
 20
555.51491658564419
 11
1316.7952755386127
 21
578.01491658564419
  0
LINE
  8
_0-0_0
  6
CONTINUOUS
 62
    7
 10
1316.7952755386127
 20
578.01491658564419
 11
1244.7952755386127
 21
578.01491658564419
  0
LINE
  8
_0-0_0
  6
CONTINUOUS
 62
    7
 10
1244.7952755386127
 20
578.01491658564419
 11
1244.7952755386127
 21
555.51491658564419
  0
LINE
  8
_0-0_0
  6
CONTINUOUS
 62
    7
 10
1244.7952755386127
 20
561.72723403676548
 11
1316.7952755386127
 21
561.72723403676548
  0
LINE
  8
_0-0_0
  6
CONTINUOUS
 62
    7
 10
1244.7952755386127
 20
567.12723403676546
 11
1316.7952755386127
 21
567.12723403676546
  0
LINE
  8
_0-0_0
  6
CONTINUOUS
 62
    7
 10
1244.7952755386127
 20
572.52723403676544
 11
1316.7952755386127
 21
572.52723403676544
  0
LINE
  8
_0-0_0
  6
CONTINUOUS
 62
    7
 10
1244.7952755386127
 20
537.51491658564419
 11
1244.7952755386127
 21
1072.453059378613
  0
LINE
  8
_0-0_0
  6
CONTINUOUS
 62
    7
 10
1316.7952755386127
 20
537.51491658564419
 11
1316.7952755386127
 21
1072.453059378613
  0
LINE
  8
_0-5_D-BYP-STR1
  6
CONTINUOUS
 62
    7
 10
1138.6743809653485
 20
487.45303798847306
 11
1138.6743809653485
 21
578.01491658564419
  0
LINE
  8
_0-5_D-BYP-STR1
  6
CONTINUOUS
 62
    7
 10
1138.6743809653485
 20
578.01491658564419
 11
1188.2248448325361
 21
578.01491658564419
  0
LINE
  8
_0-5_D-BYP-STR1
  6
CONTINUOUS
 62
    7
 10
1188.2248448325361
 20
555.51491658564419
 11
1138.6743809653485
 21
555.51491658564419
  0
TEXT
  8
_0-5_D-BYP-STR1
 62
    7
 10
1139.4243809653485
 20
539.01491658564419
 40
15
 41
1
 50
90
  1
20
  0
TEXT
  8
_0-5_D-BYP-STR1
 62
    7
 10
1139.4243809653485
 20
559.26491658564419
 40
15
 41
1
 50
90
  1
25
  0
LINE
  8
_0-0_0
  6
AI9-LType1
 62
    7
 10
1674.1130032866151
 20
512.68227194419001
 11
1674.1130032866151
 21
535.25183401450249
  0
LINE
  8
_0-0_0
  6
CONTINUOUS
 62
    7
 10
1781.0170873467634
 20
490.05200154658166
 11
1601.4455386997874
 21
490.05200154658166
  0
LINE
  8
_0-0_0
  6
CONTINUOUS
 62
    7
 10
1781.3548573881783
 20
489.68923299189419
 11
1779.9534917143494
 21
488.01491658564419
  0
LINE
  8
_0-0_0
  6
CONTINUOUS
 62
    7
 10
1602.6285573393504
 20
488.01491658564419
 11
1601.2270924956001
 21
489.81635701533162
  0
LINE
  8
_0-0_0
  6
CONTINUOUS
 62
    7
 10
1731.8842336088815
 20
518.09381307001922
 11
1731.0455940518123
 21
517.0406058923802
  0
LINE
  8
_0-0_0
  6
CONTINUOUS
 62
    7
 10
1731.0455940518123
 20
517.0406058923802
 11
1730.5458719207879
 21
515.66281603589891
  0
LINE
  8
_0-0_0
  6
CONTINUOUS
 62
    7
 10
1730.5458719207879
 20
515.66281603589891
 11
1730.4002510198889
 21
514.00230694816923
  0
LINE
  8
_0-0_0
  6
CONTINUOUS
 62
    7
 10
1730.4002510198889
 20
514.00230694816923
 11
1730.6131559665005
 21
512.10953235756392
  0
LINE
  8
_0-0_0
  6
CONTINUOUS
 62
    7
 10
1730.6131559665005
 20
512.10953235756392
 11
1731.1781177515556
 21
510.04200326222832
  0
LINE
  8
_0-0_0
  6
CONTINUOUS
 62
    7
 10
1731.1781177515556
 20
510.04200326222832
 11
1732.0779702970995
 21
507.86254048750379
  0
LINE
  8
_0-0_0
  6
CONTINUOUS
 62
    7
 10
1732.0779702970995
 20
507.86254048750379
 11
1733.285372038883
 21
505.63736590693918
  0
LINE
  8
_0-0_0
  6
CONTINUOUS
 62
    7
 10
1733.285372038883
 20
505.63736590693918
 11
1734.763636685957
 21
503.43409032417213
  0
LINE
  8
_0-0_0
  6
CONTINUOUS
 62
    7
 10
1734.763636685957
 20
503.43409032417213
 11
1736.4678479150587
 21
501.31965915287378
  0
LINE
  8
_0-0_0
  6
CONTINUOUS
 62
    7
 10
1736.4678479150587
 20
501.31965915287378
 11
1738.3462241303637
 21
499.35831831423047
  0
LINE
  8
_0-0_0
  6
CONTINUOUS
 62
    7
 10
1738.3462241303637
 20
499.35831831423047
 11
1740.341691821073
 21
497.60966215713779
  0
LINE
  8
_0-0_0
  6
CONTINUOUS
 62
    7
 10
1740.341691821073
 20
497.60966215713779
 11
1742.393619711162
 21
496.12682271406629
  0
LINE
  8
_0-0_0
  6
CONTINUOUS
 62
    7
 10
1742.393619711162
 20
496.12682271406629
 11
1744.4396610100148
 21
494.95485531114082
  0
LINE
  8
_0-0_0
  6
CONTINUOUS
 62
    7
 10
1744.4396610100148
 20
494.95485531114082
 11
1746.4176477881135
 21
494.129369584855
  0
LINE
  8
_0-0_0
  6
CONTINUOUS
 62
    7
 10
1746.4176477881135
 20
494.129369584855
 11
1748.2674799181129
 21
493.67544750128638
  0
LINE
  8
_0-0_0
  6
CONTINUOUS
 62
    7
 10
1748.2674799181129
 20
493.67544750128638
 11
1749.9329511868066
 21
493.60688125324845
  0
LINE
  8
_0-0_0
  6
CONTINUOUS
 62
    7
 10
1749.9329511868066
 20
493.60688125324845
 11
1751.3634570924612
 21
493.92575419149125
  0
LINE
  8
_0-0_0
  6
CONTINUOUS
 62
    7
 10
1751.3634570924612
 20
493.92575419149125
 11
1752.5155324370066
 21
494.62237752314434
  0
LINE
  8
_0-0_0
  6
CONTINUOUS
 62
    7
 10
1752.5155324370066
 20
494.62237752314434
 11
1753.3541719940756
 21
495.67558470078336
  0
LINE
  8
_0-0_0
  6
CONTINUOUS
 62
    7
 10
1753.3541719940756
 20
495.67558470078336
 11
1753.8538941250997
 21
497.05337455726476
  0
LINE
  8
_0-0_0
  6
CONTINUOUS
 62
    7
 10
1753.8538941250997
 20
497.05337455726476
 11
1753.9995150259988
 21
498.71388364499433
  0
LINE
  8
_0-0_0
  6
CONTINUOUS
 62
    7
 10
1753.9995150259988
 20
498.71388364499433
 11
1753.7866100793867
 21
500.60665823559958
  0
LINE
  8
_0-0_0
  6
CONTINUOUS
 62
    7
 10
1753.7866100793867
 20
500.60665823559958
 11
1753.221648294332
 21
502.67418733093541
  0
LINE
  8
_0-0_0
  6
CONTINUOUS
 62
    7
 10
1753.221648294332
 20
502.67418733093541
 11
1752.3217957487884
 21
504.85365010565977
  0
LINE
  8
_0-0_0
  6
CONTINUOUS
 62
    7
 10
1752.3217957487884
 20
504.85365010565977
 11
1751.1143940070046
 21
507.07882468622449
  0
LINE
  8
_0-0_0
  6
CONTINUOUS
 62
    7
 10
1751.1143940070046
 20
507.07882468622449
 11
1749.6361293599307
 21
509.28210026899137
  0
LINE
  8
_0-0_0
  6
CONTINUOUS
 62
    7
 10
1749.6361293599307
 20
509.28210026899137
 11
1747.9319181308292
 21
511.39653144028966
  0
LINE
  8
_0-0_0
  6
CONTINUOUS
 62
    7
 10
1747.9319181308292
 20
511.39653144028966
 11
1746.0535419155249
 21
513.35787227893309
  0
LINE
  8
_0-0_0
  6
CONTINUOUS
 62
    7
 10
1746.0535419155249
 20
513.35787227893309
 11
1744.0580742248144
 21
515.10652843602566
  0
LINE
  8
_0-0_0
  6
CONTINUOUS
 62
    7
 10
1744.0580742248144
 20
515.10652843602566
 11
1742.0061463347254
 21
516.58936787909715
  0
LINE
  8
_0-0_0
  6
CONTINUOUS
 62
    7
 10
1742.0061463347254
 20
516.58936787909715
 11
1739.9601050358729
 21
517.76133528202274
  0
LINE
  8
_0-0_0
  6
CONTINUOUS
 62
    7
 10
1739.9601050358729
 20
517.76133528202274
 11
1737.9821182577753
 21
518.58682100830845
  0
LINE
  8
_0-0_0
  6
CONTINUOUS
 62
    7
 10
1737.9821182577753
 20
518.58682100830845
 11
1736.132286127774
 21
519.04074309187706
  0
LINE
  8
_0-0_0
  6
CONTINUOUS
 62
    7
 10
1736.132286127774
 20
519.04074309187706
 11
1734.4668148590818
 21
519.10930933991528
  0
LINE
  8
_0-0_0
  6
CONTINUOUS
 62
    7
 10
1734.4668148590818
 20
519.10930933991528
 11
1733.0363089534264
 21
518.7904364016722
  0
LINE
  8
_0-0_0
  6
CONTINUOUS
 62
    7
 10
1733.0363089534264
 20
518.7904364016722
 11
1731.8842336088815
 21
518.09381307001922
  0
LINE
  8
_0-0_0
  6
CONTINUOUS
 62
    7
 10
1651.0418813139595
 20
518.09381307001922
 11
1649.8898059694143
 21
518.7904364016722
  0
LINE
  8
_0-0_0
  6
CONTINUOUS
 62
    7
 10
1649.8898059694143
 20
518.7904364016722
 11
1648.4593000637592
 21
519.10930933991528
  0
LINE
  8
_0-0_0
  6
CONTINUOUS
 62
    7
 10
1648.4593000637592
 20
519.10930933991528
 11
1646.793828795066
 21
519.04074309187706
  0
LINE
  8
_0-0_0
  6
CONTINUOUS
 62
    7
 10
1646.793828795066
 20
519.04074309187706
 11
1644.9439966650662
 21
518.58682100830845
  0
LINE
  8
_0-0_0
  6
CONTINUOUS
 62
    7
 10
1644.9439966650662
 20
518.58682100830845
 11
1642.9660098869679
 21
517.76133528202286
  0
LINE
  8
_0-0_0
  6
CONTINUOUS
 62
    7
 10
1642.9660098869679
 20
517.76133528202286
 11
1640.9199685881147
 21
516.58936787909738
  0
LINE
  8
_0-0_0
  6
CONTINUOUS
 62
    7
 10
1640.9199685881147
 20
516.58936787909738
 11
1638.8680406980257
 21
515.10652843602566
  0
LINE
  8
_0-0_0
  6
CONTINUOUS
 62
    7
 10
1638.8680406980257
 20
515.10652843602566
 11
1636.8725730073165
 21
513.35787227893309
  0
LINE
  8
_0-0_0
  6
CONTINUOUS
 62
    7
 10
1636.8725730073165
 20
513.35787227893309
 11
1634.9941967920113
 21
511.39653144028966
  0
LINE
  8
_0-0_0
  6
CONTINUOUS
 62
    7
 10
1634.9941967920113
 20
511.39653144028966
 11
1633.28998556291
 21
509.28210026899148
  0
LINE
  8
_0-0_0
  6
CONTINUOUS
 62
    7
 10
1633.28998556291
 20
509.28210026899148
 11
1631.8117209158361
 21
507.07882468622449
  0
LINE
  8
_0-0_0
  6
CONTINUOUS
 62
    7
 10
1631.8117209158361
 20
507.07882468622449
 11
1630.6043191740523
 21
504.85365010565988
  0
LINE
  8
_0-0_0
  6
CONTINUOUS
 62
    7
 10
1630.6043191740523
 20
504.85365010565988
 11
1629.7044666285087
 21
502.67418733093541
  0
LINE
  8
_0-0_0
  6
CONTINUOUS
 62
    7
 10
1629.7044666285087
 20
502.67418733093541
 11
1629.1395048434538
 21
500.60665823559964
  0
LINE
  8
_0-0_0
  6
CONTINUOUS
 62
    7
 10
1629.1395048434538
 20
500.60665823559964
 11
1628.9265998968419
 21
498.71388364499433
  0
LINE
  8
_0-0_0
  6
CONTINUOUS
 62
    7
 10
1628.9265998968419
 20
498.71388364499433
 11
1629.072220797741
 21
497.05337455726476
  0
LINE
  8
_0-0_0
  6
CONTINUOUS
 62
    7
 10
1629.072220797741
 20
497.05337455726476
 11
1629.5719429287651
 21
495.67558470078336
  0
LINE
  8
_0-0_0
  6
CONTINUOUS
 62
    7
 10
1629.5719429287651
 20
495.67558470078336
 11
1630.4105824858343
 21
494.62237752314434
  0
LINE
  8
_0-0_0
  6
CONTINUOUS
 62
    7
 10
1630.4105824858343
 20
494.62237752314434
 11
1631.5626578303791
 21
493.92575419149142
  0
LINE
  8
_0-0_0
  6
CONTINUOUS
 62
    7
 10
1631.5626578303791
 20
493.92575419149142
 11
1632.9931637360348
 21
493.60688125324845
  0
LINE
  8
_0-0_0
  6
CONTINUOUS
 62
    7
 10
1632.9931637360348
 20
493.60688125324845
 11
1634.6586350047271
 21
493.67544750128638
  0
LINE
  8
_0-0_0
  6
CONTINUOUS
 62
    7
 10
1634.6586350047271
 20
493.67544750128638
 11
1636.5084671347277
 21
494.129369584855
  0
LINE
  8
_0-0_0
  6
CONTINUOUS
 62
    7
 10
1636.5084671347277
 20
494.129369584855
 11
1638.4864539128259
 21
494.95485531114082
  0
LINE
  8
_0-0_0
  6
CONTINUOUS
 62
    7
 10
1638.4864539128259
 20
494.95485531114082
 11
1640.532495211678
 21
496.12682271406629
  0
LINE
  8
_0-0_0
  6
CONTINUOUS
 62
    7
 10
1640.532495211678
 20
496.12682271406629
 11
1642.584423101767
 21
497.60966215713768
  0
LINE
  8
_0-0_0
  6
CONTINUOUS
 62
    7
 10
1642.584423101767
 20
497.60966215713768
 11
1644.5798907924777
 21
499.35831831423047
  0
LINE
  8
_0-0_0
  6
CONTINUOUS
 62
    7
 10
1644.5798907924777
 20
499.35831831423047
 11
1646.4582670077821
 21
501.31965915287378
  0
LINE
  8
_0-0_0
  6
CONTINUOUS
 62
    7
 10
1646.4582670077821
 20
501.31965915287378
 11
1648.1624782368835
 21
503.43409032417213
  0
LINE
  8
_0-0_0
  6
CONTINUOUS
 62
    7
 10
1648.1624782368835
 20
503.43409032417213
 11
1649.6407428839577
 21
505.63736590693918
  0
LINE
  8
_0-0_0
  6
CONTINUOUS
 62
    7
 10
1649.6407428839577
 20
505.63736590693918
 11
1650.848144625741
 21
507.86254048750379
  0
LINE
  8
_0-0_0
  6
CONTINUOUS
 62
    7
 10
1650.848144625741
 20
507.86254048750379
 11
1651.7479971712844
 21
510.04200326222832
  0
LINE
  8
_0-0_0
  6
CONTINUOUS
 62
    7
 10
1651.7479971712844
 20
510.04200326222832
 11
1652.3129589563398
 21
512.10953235756392
  0
LINE
  8
_0-0_0
  6
CONTINUOUS
 62
    7
 10
1652.3129589563398
 20
512.10953235756392
 11
1652.5258639029519
 21
514.00230694816912
  0
LINE
  8
_0-0_0
  6
CONTINUOUS
 62
    7
 10
1652.5258639029519
 20
514.00230694816912
 11
1652.3802430020528
 21
515.66281603589891
  0
LINE
  8
_0-0_0
  6
CONTINUOUS
 62
    7
 10
1652.3802430020528
 20
515.66281603589891
 11
1651.8805208710291
 21
517.0406058923802
  0
LINE
  8
_0-0_0
  6
CONTINUOUS
 62
    7
 10
1651.8805208710291
 20
517.0406058923802
 11
1651.0418813139595
 21
518.09381307001922
  0
LINE
  8
_0-0_0
  6
CONTINUOUS
 62
    7
 10
1780.032642923705
 20
488.1094844567375
 11
1602.5549864654531
 21
488.1094844567375
  0
LINE
  8
_0-0_0
  6
CONTINUOUS
 62
    7
 10
1648.5410245268504
 20
537.51491658564419
 11
1734.0410245268499
 21
537.51491658564419
  0
LINE
  8
_0-0_0
  6
CONTINUOUS
 62
    7
 10
1648.5410245268504
 20
537.51491658564419
 11
1601.4455386997874
 21
490.05200154658166
  0
LINE
  8
_0-0_0
  6
CONTINUOUS
 62
    7
 10
1734.0410245268499
 20
537.51491658564419
 11
1781.0170873467634
 21
490.05200154658166
  0
LINE
  8
_0-0_0
  6
CONTINUOUS
 62
    7
 10
1781.0170873467634
 20
490.05200154658166
 11
1781.3548573881783
 21
489.68923299189419
  0
LINE
  8
_0-0_0
  6
CONTINUOUS
 62
    7
 10
1601.4455386997874
 20
490.05200154658166
 11
1601.2270924956001
 21
489.81635701533162
  0
LINE
  8
_0-0_0
  6
AI9-LType1
 62
    7
 10
1708.4690457670847
 20
512.68227194419001
 11
1708.4690457670847
 21
535.25183401450249
  0
LINE
  8
_0-0_0
  6
AI9-LType1
 62
    7
 10
1725.6453661245496
 20
523.98545797934639
 11
1656.9298316459908
 21
523.98545797934639
  0
LINE
  8
_0-0_0
  6
AI9-LType3
 62
    7
 10
1655.2875988852702
 20
537.51491658564419
 11
1655.2875988852702
 21
490.87830769892537
  0
LINE
  8
_0-0_0
  6
AI9-LType3
 62
    7
 10
1727.2875988852707
 20
490.87830769892537
 11
1655.2875988852702
 21
490.87830769892537
  0
LINE
  8
_0-0_0
  6
AI9-LType3
 62
    7
 10
1658.4375988852707
 20
537.51491658564419
 11
1658.4375988852707
 21
490.87830769892537
  0
LINE
  8
_0-0_0
  6
AI9-LType3
 62
    7
 10
1727.2875988852707
 20
537.51491658564419
 11
1727.2875988852707
 21
490.87830769892537
  0
LINE
  8
_0-0_0
  6
AI9-LType3
 62
    7
 10
1724.1375988852703
 20
537.51491658564419
 11
1724.1375988852703
 21
490.87830769892537
  0
LINE
  8
_0-0_0
  6
CONTINUOUS
 62
    7
 10
1655.2875988852702
 20
555.51491658564419
 11
1727.2875988852707
 21
555.51491658564419
  0
LINE
  8
_0-0_0
  6
CONTINUOUS
 62
    7
 10
1727.2875988852707
 20
555.51491658564419
 11
1727.2875988852707
 21
578.01491658564419
  0
LINE
  8
_0-0_0
  6
CONTINUOUS
 62
    7
 10
1727.2875988852707
 20
578.01491658564419
 11
1655.2875988852702
 21
578.01491658564419
  0
LINE
  8
_0-0_0
  6
CONTINUOUS
 62
    7
 10
1655.2875988852702
 20
578.01491658564419
 11
1655.2875988852702
 21
555.51491658564419
  0
LINE
  8
_0-0_0
  6
CONTINUOUS
 62
    7
 10
1655.2875988852702
 20
561.72723403676548
 11
1727.2875988852707
 21
561.72723403676548
  0
LINE
  8
_0-0_0
  6
CONTINUOUS
 62
    7
 10
1655.2875988852702
 20
567.12723403676546
 11
1727.2875988852707
 21
567.12723403676546
  0
LINE
  8
_0-0_0
  6
CONTINUOUS
 62
    7
 10
1655.2875988852702
 20
572.52723403676544
 11
1727.2875988852707
 21
572.52723403676544
  0
LINE
  8
_0-0_0
  6
CONTINUOUS
 62
    7
 10
1655.2875988852702
 20
537.51491658564419
 11
1655.2875988852702
 21
1072.453059378613
  0
LINE
  8
_0-0_0
  6
CONTINUOUS
 62
    7
 10
1727.2875988852707
 20
537.51491658564419
 11
1727.2875988852707
 21
1072.453059378613
  0
CIRCLE
  8
_0-0_0
  6
CONTINUOUS
 62
    7
 10
1674.1130032866151
 20
523.98545797934639
 40
4.5
  0
CIRCLE
  8
_0-0_0
  6
CONTINUOUS
 62
    7
 10
1708.4690457670847
 20
523.98545797934639
 40
4.5
  0
LINE
  8
_0-0_0
  6
CONTINUOUS
 62
    7
 10
1278.923466338181
 20
470.46098964466978
 11
1278.7702755385585
 21
488.01491658564413
  0
LINE
  8
_0-0_0
  6
CONTINUOUS
 62
    7
 10
1291.5952755379872
 20
450.21491716012667
 11
1269.9952755379873
 21
450.21491716012667
  0
LINE
  8
_0-0_0
  6
CONTINUOUS
 62
    7
 10
1291.5952755379872
 20
447.51491716012663
 11
1269.9952755379873
 21
447.51491716012663
  0
LINE
  8
_0-0_0
  6
CONTINUOUS
 62
    7
 10
1291.5952755379872
 20
452.91491716012666
 11
1269.9952755379873
 21
452.91491716012666
  0
LINE
  8
_0-0_0
  6
CONTINUOUS
 62
    7
 10
1291.5952755379872
 20
455.61491716012659
 11
1269.9952755379873
 21
455.61491716012659
  0
LINE
  8
_0-0_0
  6
CONTINUOUS
 62
    7
 10
1291.5952755379872
 20
458.31491716012658
 11
1269.9952755379873
 21
458.31491716012658
  0
LINE
  8
_0-0_0
  6
CONTINUOUS
 62
    7
 10
1291.5952755379872
 20
461.01491716012663
 11
1269.9952755379873
 21
461.01491716012663
  0
LINE
  8
_0-0_0
  6
CONTINUOUS
 62
    7
 10
1291.5952755379872
 20
463.71491716012667
 11
1269.9952755379873
 21
463.71491716012667
  0
LINE
  8
_0-0_0
  6
CONTINUOUS
 62
    7
 10
1291.5952755379872
 20
466.41491716012666
 11
1269.9952755379873
 21
466.41491716012666
  0
LINE
  8
_0-0_0
  6
CONTINUOUS
 62
    7
 10
1291.5952755379872
 20
469.11491716012659
 11
1269.9952755379873
 21
469.11491716012659
  0
LINE
  8
_0-0_0
  6
CONTINUOUS
 62
    7
 10
1291.5952755379872
 20
445.26491716012652
 11
1291.5952755379872
 21
470.01491716012663
  0
LINE
  8
_0-0_0
  6
CONTINUOUS
 62
    7
 10
1269.9952755379873
 20
445.26491716012652
 11
1269.9952755379873
 21
470.01491716012663
  0
LINE
  8
_0-0_0
  6
CONTINUOUS
 62
    7
 10
1291.5952755379872
 20
445.26491716012652
 11
1269.9952755379873
 21
445.26491716012652
  0
LINE
  8
_0-0_0
  6
CONTINUOUS
 62
    7
 10
1282.6670847389364
 20
470.46098964466978
 11
1282.8202755385585
 21
488.01491658564413
  0
LINE
  8
_0-0_0
  6
CONTINUOUS
 62
    7
 10
1290.6545847392301
 20
470.46098964466978
 11
1290.8077755388526
 21
488.01491658564413
  0
LINE
  8
_0-0_0
  6
CONTINUOUS
 62
    7
 10
1270.7827755382789
 20
488.0149165856443
 11
1270.9359663379012
 21
470.46098964466978
  0
LINE
  8
_0-0_0
  6
CONTINUOUS
 62
    7
 10
1296.5018405649166
 20
470.46098964466972
 11
1296.6550313645394
 21
488.01491658564413
  0
LINE
  8
_0-0_0
  6
CONTINUOUS
 62
    7
 10
1264.9355197126322
 20
488.0149165856443
 11
1265.0887105122547
 21
470.46098964466978
  0
LINE
  8
_0-0_0
  6
CONTINUOUS
 62
    7
 10
1298.6420847395643
 20
470.46098964466972
 11
1298.7952755391866
 21
488.01491658564413
  0
LINE
  8
_0-0_0
  6
CONTINUOUS
 62
    7
 10
1262.7952755380388
 20
488.0149165856443
 11
1262.9484663376613
 21
470.46098964466978
  0
LINE
  8
_0-0_0
  6
CONTINUOUS
 62
    7
 10
1298.1921018741855
 20
470.01491658564407
 11
1263.3984492030404
 21
470.01491658564413
  0
ARC
  8
_0-0_0
  6
CONTINUOUS
 62
    7
 10
1282.2171018735571
 20
470.46491658564406
 40
0.4499999999999999
 50
270
 51
359.50000000000188
  0
ARC
  8
_0-0_0
  6
CONTINUOUS
 62
    7
 10
1279.3734492035601
 20
470.46491658564406
 40
0.4499999999999999
 50
180.4999999999981
 51
270
  0
ARC
  8
_0-0_0
  6
CONTINUOUS
 62
    7
 10
1290.2046018738515
 20
470.46491658564406
 40
0.4499999999999999
 50
270
 51
359.49999999999858
  0
ARC
  8
_0-0_0
  6
CONTINUOUS
 62
    7
 10
1271.3859492032802
 20
470.46491658564406
 40
0.4499999999999999
 50
180.4999999999981
 51
270
  0
ARC
  8
_0-0_0
  6
CONTINUOUS
 62
    7
 10
1296.0518576995378
 20
470.46491658564406
 40
0.4499999999999999
 50
270
 51
359.50000000000188
  0
ARC
  8
_0-0_0
  6
CONTINUOUS
 62
    7
 10
1265.5386933776335
 20
470.46491658564406
 40
0.4499999999999999
 50
180.4999999999981
 51
270
  0
ARC
  8
_0-0_0
  6
CONTINUOUS
 62
    7
 10
1298.1921018741855
 20
470.46491658564406
 40
0.4499999999999999
 50
270
 51
359.50000000000188
  0
ARC
  8
_0-0_0
  6
CONTINUOUS
 62
    7
 10
1263.3984492030404
 20
470.46491658564406
 40
0.4499999999999999
 50
180.4999999999981
 51
270
  0
LINE
  8
_0-0_0
  6
CONTINUOUS
 62
    7
 10
1184.0244381599105
 20
431.33235644729461
 11
1383.4541256100533
 21
431.33235644729461
  0
LINE
  8
_0-0_0
  6
CONTINUOUS
 62
    7
 10
1196.8577633520149
 20
430.72464160369657
 11
1186.5390133545943
 21
425.56526660498662
  0
LINE
  8
_0-0_0
  6
CONTINUOUS
 62
    7
 10
1202.8108883505265
 20
430.72464160369657
 11
1184.5546383550907
 21
421.59651660597859
  0
LINE
  8
_0-0_0
  6
CONTINUOUS
 62
    7
 10
1208.7640133490381
 20
430.72464160369657
 11
1181.1812008559336
 21
417.37971973203287
  0
LINE
  8
_0-0_0
  6
CONTINUOUS
 62
    7
 10
1214.71713834755
 20
430.72464160369657
 11
1187.1343258544457
 21
417.37971973203287
  0
LINE
  8
_0-0_0
  6
CONTINUOUS
 62
    7
 10
1220.6702633460616
 20
430.72464160369657
 11
1193.0874508529573
 21
417.37971973203287
  0
LINE
  8
_0-0_0
  6
CONTINUOUS
 62
    7
 10
1226.6233883445734
 20
430.72464160369657
 11
1199.0405758514694
 21
417.37971973203287
  0
LINE
  8
_0-0_0
  6
CONTINUOUS
 62
    7
 10
1232.576513343085
 20
430.72464160369657
 11
1204.993700849981
 21
417.37971973203287
  0
LINE
  8
_0-0_0
  6
CONTINUOUS
 62
    7
 10
1238.5296383415971
 20
430.72464160369657
 11
1210.9468258484926
 21
417.37971973203287
  0
LINE
  8
_0-0_0
  6
CONTINUOUS
 62
    7
 10
1244.4827633401087
 20
430.72464160369657
 11
1216.8999508470042
 21
417.37971973203287
  0
LINE
  8
_0-0_0
  6
CONTINUOUS
 62
    7
 10
1250.4358883386203
 20
430.72464160369657
 11
1222.8530758455158
 21
417.37971973203287
  0
LINE
  8
_0-0_0
  6
CONTINUOUS
 62
    7
 10
1256.3890133371319
 20
430.72464160369657
 11
1228.8062008440279
 21
417.37971973203287
  0
LINE
  8
_0-0_0
  6
CONTINUOUS
 62
    7
 10
1262.3421383356435
 20
430.72464160369657
 11
1234.7593258425395
 21
417.37971973203287
  0
LINE
  8
_0-0_0
  6
CONTINUOUS
 62
    7
 10
1268.2952633341556
 20
430.72464160369657
 11
1240.7124508410511
 21
417.37971973203287
  0
LINE
  8
_0-0_0
  6
CONTINUOUS
 62
    7
 10
1274.2483883326672
 20
430.72464160369657
 11
1246.6655758395627
 21
417.37971973203287
  0
LINE
  8
_0-0_0
  6
CONTINUOUS
 62
    7
 10
1280.2015133311788
 20
430.72464160369657
 11
1252.6187008380743
 21
417.37971973203287
  0
LINE
  8
_0-0_0
  6
CONTINUOUS
 62
    7
 10
1286.1546383296904
 20
430.72464160369657
 11
1258.5718258365864
 21
417.37971973203287
  0
LINE
  8
_0-0_0
  6
CONTINUOUS
 62
    7
 10
1292.1077633282025
 20
430.72464160369657
 11
1264.524950835098
 21
417.37971973203287
  0
LINE
  8
_0-0_0
  6
CONTINUOUS
 62
    7
 10
1298.0608883267141
 20
430.72464160369657
 11
1270.4780758336099
 21
417.37971973203287
  0
LINE
  8
_0-0_0
  6
CONTINUOUS
 62
    7
 10
1304.0140133252257
 20
430.72464160369657
 11
1276.4312008321217
 21
417.37971973203287
  0
LINE
  8
_0-0_0
  6
CONTINUOUS
 62
    7
 10
1309.9671383237378
 20
430.72464160369657
 11
1282.3843258306333
 21
417.37971973203287
  0
LINE
  8
_0-0_0
  6
CONTINUOUS
 62
    7
 10
1315.9202633222494
 20
430.72464160369657
 11
1288.3374508291449
 21
417.37971973203287
  0
LINE
  8
_0-0_0
  6
CONTINUOUS
 62
    7
 10
1321.873388320761
 20
430.72464160369657
 11
1294.2905758276565
 21
417.37971973203287
  0
LINE
  8
_0-0_0
  6
CONTINUOUS
 62
    7
 10
1327.8265133192726
 20
430.72464160369657
 11
1300.2437008261684
 21
417.37971973203287
  0
LINE
  8
_0-0_0
  6
CONTINUOUS
 62
    7
 10
1333.7796383177842
 20
430.72464160369657
 11
1306.19682582468
 21
417.37971973203287
  0
LINE
  8
_0-0_0
  6
CONTINUOUS
 62
    7
 10
1339.7327633162961
 20
430.72464160369657
 11
1312.1499508231921
 21
417.37971973203287
  0
LINE
  8
_0-0_0
  6
CONTINUOUS
 62
    7
 10
1345.6858883148077
 20
430.72464160369657
 11
1318.1030758217034
 21
417.37971973203287
  0
LINE
  8
_0-0_0
  6
CONTINUOUS
 62
    7
 10
1351.6390133133198
 20
430.72464160369657
 11
1324.0562008202153
 21
417.37971973203287
  0
LINE
  8
_0-0_0
  6
CONTINUOUS
 62
    7
 10
1357.5921383118311
 20
430.72464160369657
 11
1330.0093258187269
 21
417.37971973203287
  0
LINE
  8
_0-0_0
  6
CONTINUOUS
 62
    7
 10
1363.545263310343
 20
430.72464160369657
 11
1335.9624508172385
 21
417.37971973203287
  0
LINE
  8
_0-0_0
  6
CONTINUOUS
 62
    7
 10
1369.4983883088546
 20
430.72464160369657
 11
1341.9155758157506
 21
417.37971973203287
  0
LINE
  8
_0-0_0
  6
CONTINUOUS
 62
    7
 10
1375.4515133073662
 20
430.72464160369657
 11
1347.8687008142624
 21
417.37971973203287
  0
LINE
  8
_0-0_0
  6
CONTINUOUS
 62
    7
 10
1301.944372212462
 20
385.92427540395897
 11
1259.6461788636616
 21
385.92427540395897
  0
LINE
  8
_0-0_0
  6
CONTINUOUS
 62
    7
 10
1259.6461788636616
 20
385.92427540395897
 11
1259.6461788636616
 21
430.92462939661505
  0
LINE
  8
_0-0_0
  6
CONTINUOUS
 62
    7
 10
1259.6461788636616
 20
430.92462939661505
 11
1301.944372212462
 21
430.92462939661505
  0
LINE
  8
_0-0_0
  6
CONTINUOUS
 62
    7
 10
1301.944372212462
 20
430.92462939661505
 11
1301.944372212462
 21
385.92427540395897
  0
LINE
  8
_0-0_0
  6
CONTINUOUS
 62
    7
 10
1263.0909298393628
 20
430.77425097868399
 11
1263.5746212454919
 21
413.71637744779235
  0
LINE
  8
_0-0_0
  6
CONTINUOUS
 62
    7
 10
1263.5746212454919
 20
413.71637744779235
 11
1298.3383907680509
 21
413.6078569400072
  0
LINE
  8
_0-0_0
  6
CONTINUOUS
 62
    7
 10
1298.3383907680509
 20
413.6078569400072
 11
1299.0856319788015
 21
430.85021533413374
  0
LINE
  8
_0-0_0
  6
CONTINUOUS
 62
    7
 10
1269.571154447118
 20
413.68227100248851
 11
1271.8159786653068
 21
411.62503223347153
  0
LINE
  8
_0-0_0
  6
CONTINUOUS
 62
    7
 10
1271.8159786653068
 20
411.62503223347153
 11
1272.1989010284919
 21
386.94901905604695
  0
LINE
  8
_0-0_0
  6
CONTINUOUS
 62
    7
 10
1272.1989010284919
 20
386.94901905604695
 11
1289.3203365710867
 21
386.89320850918563
  0
LINE
  8
_0-0_0
  6
CONTINUOUS
 62
    7
 10
1289.3203365710867
 20
386.89320850918563
 11
1290.2396603013258
 21
411.47155322960356
  0
LINE
  8
_0-0_0
  6
CONTINUOUS
 62
    7
 10
1290.2396603013258
 20
411.47155322960356
 11
1292.5759518046477
 21
413.7256792056026
  0
LINE
  8
_0-0_0
  6
CONTINUOUS
 62
    7
 10
1271.8159786653068
 20
411.62503223347153
 11
1290.3559322739529
 21
411.62503223347153
  0
LINE
  8
_0-0_0
  6
CONTINUOUS
 62
    7
 10
1259.5066524965089
 20
406.8516801838835
 11
1301.8761593218537
 21
406.8516801838835
  0
LINE
  8
_0-0_0
  6
CONTINUOUS
 62
    7
 10
1260.804247711028
 20
405.15255909055838
 11
1300.8312618611778
 21
405.15255909055838
  0
LINE
  8
_0-0_0
  6
CONTINUOUS
 62
    7
 10
1279.2728878431299
 20
405.17426319211552
 11
1279.2201778822055
 21
388.00631886046995
  0
LINE
  8
_0-0_0
  6
CONTINUOUS
 62
    7
 10
1282.3688229009497
 20
405.0719438562034
 11
1282.3176632329937
 21
388.05592823545754
  0
LINE
  8
_0-0_0
  6
CONTINUOUS
 62
    7
 10
1265.0287960498158
 20
403.49684620034708
 11
1296.354015768547
 21
403.49684620034708
  0
LINE
  8
_0-0_0
  6
CONTINUOUS
 62
    7
 10
1301.7986446734358
 20
387.86989307925421
 11
1259.3826290590398
 21
387.86989307925421
  0
LINE
  8
_0-0_0
  6
CONTINUOUS
 62
    7
 10
1299.6504252392801
 20
238.6740977785158
 11
1287.9987011801923
 21
238.6740977785158
  0
CIRCLE
  8
_0-0_0
  6
CONTINUOUS
 62
    7
 10
1280.7987011801922
 20
237.32409777851575
 40
27
  0
ARC
  8
_0-0_0
  6
CONTINUOUS
 62
    7
 10
1641.1049255420062
 20
287.50936432174933
 40
14.448763307229044
 50
242.0081425188167
 51
27.988896786485018
  0
LINE
  8
_0-0_0
  6
CONTINUOUS
 62
    7
 10
1357.4312329184734
 20
101.24728359985463
 11
1201.8562329184733
 21
101.24728359985463
  0
LINE
  8
_0-0_0
  6
CONTINUOUS
 62
    7
 10
1201.8562329184733
 20
101.24728359985463
 11
1201.8562329184733
 21
125.85353359985459
  0
LINE
  8
_0-0_0
  6
CONTINUOUS
 62
    7
 10
1201.8562329184733
 20
125.85353359985459
 11
1357.4312329184734
 21
125.85353359985459
  0
LINE
  8
_0-0_0
  6
CONTINUOUS
 62
    7
 10
1357.4312329184734
 20
125.85353359985459
 11
1357.4312329184734
 21
101.24728359985463
  0
LINE
  8
_0-0_0
  6
CONTINUOUS
 62
    7
 10
1773.2314343344885
 20
102.05808682251092
 11
1617.6564343344889
 21
102.05808682251092
  0
LINE
  8
_0-0_0
  6
CONTINUOUS
 62
    7
 10
1617.6564343344889
 20
102.05808682251092
 11
1617.6564343344889
 21
126.66433682251096
  0
LINE
  8
_0-0_0
  6
CONTINUOUS
 62
    7
 10
1617.6564343344889
 20
126.66433682251096
 11
1773.2314343344885
 21
126.66433682251096
  0
LINE
  8
_0-0_0
  6
CONTINUOUS
 62
    7
 10
1773.2314343344885
 20
126.66433682251096
 11
1773.2314343344885
 21
102.05808682251092
  0
ARC
  8
_0-0_0
  6
CONTINUOUS
 62
    7
 10
1280.7987011801922
 20
237.32409777851575
 40
90.000000000000014
 50
90
 51
270
  0
ARC
  8
_0-0_0
  6
CONTINUOUS
 62
    7
 10
1280.7987011801922
 20
237.32409777851575
 40
90.000000000000014
 50
270
 51
90
  0
LINE
  8
_0-0_0
  6
AI9-LType4
 62
    7
 10
1280.7987011801922
 20
134.89856677265644
 11
1280.7987011801922
 21
339.74962878437509
  0
ARC
  8
_0-0_0
  6
CONTINUOUS
 62
    7
 10
1691.2875988852709
 20
237.32409777851575
 40
90.000000000000014
 50
90
 51
270
  0
ARC
  8
_0-0_0
  6
CONTINUOUS
 62
    7
 10
1691.2875988852709
 20
237.32409777851575
 40
84.98629709447593
 50
181.93654864529142
 51
208.28114632232044
  0
ARC
  8
_0-0_0
  6
CONTINUOUS
 62
    7
 10
1691.2875988852709
 20
237.32409777851575
 40
84.98629709447593
 50
211.92216617203641
 51
222.39275566762689
  0
ARC
  8
_0-0_0
  6
CONTINUOUS
 62
    7
 10
1691.2875988852709
 20
237.32409777851575
 40
84.98629709447593
 50
227.600776537835
 51
238.17531969135581
  0
ARC
  8
_0-0_0
  6
CONTINUOUS
 62
    7
 10
1691.2875988852709
 20
237.32409777851575
 40
84.98629709447593
 50
241.81626782669429
 51
268.00855600810598
  0
ARC
  8
_0-0_0
  6
CONTINUOUS
 62
    7
 10
1691.2875988852709
 20
237.32409777851575
 40
84.986297094476015
 50
91.991443991893959
 51
118.1837321733057
  0
ARC
  8
_0-0_0
  6
CONTINUOUS
 62
    7
 10
1691.2875988852709
 20
237.32409777851575
 40
84.986297094476015
 50
121.82468030864402
 51
132.40733905575101
  0
ARC
  8
_0-0_0
  6
CONTINUOUS
 62
    7
 10
1691.2875988852709
 20
237.32409777851575
 40
84.986297094476015
 50
137.58970024955309
 51
148.02773549956129
  0
ARC
  8
_0-0_0
  6
CONTINUOUS
 62
    7
 10
1691.2875988852709
 20
237.32409777851575
 40
84.986297094476015
 50
151.71885367767959
 51
178.29664236043908
  0
ARC
  8
_0-0_0
  6
CONTINUOUS
 62
    7
 10
1691.2875988852709
 20
237.32409777851575
 40
73.55523418973155
 50
182.23764635273207
 51
208.01401694092567
  0
ARC
  8
_0-0_0
  6
CONTINUOUS
 62
    7
 10
1691.2875988852709
 20
237.32409777851575
 40
73.55523418973155
 50
212.22111945216281
 51
213.70505400217249
  0
ARC
  8
_0-0_0
  6
CONTINUOUS
 62
    7
 10
1691.2875988852709
 20
237.32409777851575
 40
73.55523418973155
 50
236.28847820329293
 51
237.89114673977832
  0
ARC
  8
_0-0_0
  6
CONTINUOUS
 62
    7
 10
1691.2875988852709
 20
237.32409777851575
 40
73.55523418973155
 50
242.09816414061009
 51
267.69891463514688
  0
ARC
  8
_0-0_0
  6
CONTINUOUS
 62
    7
 10
1691.2875988852709
 20
237.32409777851575
 40
73.55523418973155
 50
92.301085364853094
 51
117.90183585938989
  0
ARC
  8
_0-0_0
  6
CONTINUOUS
 62
    7
 10
1691.2875988852709
 20
237.32409777851575
 40
73.55523418973155
 50
122.10885326022169
 51
123.70709296849581
  0
ARC
  8
_0-0_0
  6
CONTINUOUS
 62
    7
 10
1691.2875988852709
 20
237.32409777851575
 40
73.55523418973155
 50
146.28994633680171
 51
147.7402971407796
  0
ARC
  8
_0-0_0
  6
CONTINUOUS
 62
    7
 10
1691.2875988852709
 20
237.32409777851575
 40
73.55523418973155
 50
151.98598305907419
 51
178.03183000704399
  0
ARC
  8
_0-0_0
  6
CONTINUOUS
 62
    7
 10
1691.2875988852709
 20
237.32409777851575
 40
68.159219280145933
 50
182.4148969900408
 51
207.85676818792319
  0
ARC
  8
_0-0_0
  6
CONTINUOUS
 62
    7
 10
1691.2875988852709
 20
237.32409777851575
 40
68.159219280145933
 50
212.39710730491794
 51
213.30224090137844
  0
ARC
  8
_0-0_0
  6
CONTINUOUS
 62
    7
 10
1691.2875988852709
 20
237.32409777851575
 40
68.159219280145933
 50
236.69129130408379
 51
237.72386231905659
  0
ARC
  8
_0-0_0
  6
CONTINUOUS
 62
    7
 10
1691.2875988852709
 20
237.32409777851575
 40
68.159219280145933
 50
242.26410799270423
 51
267.51663282047161
  0
ARC
  8
_0-0_0
  6
CONTINUOUS
 62
    7
 10
1691.2875988852709
 20
237.32409777851575
 40
68.159219280145933
 50
92.483367179528429
 51
117.7358920072958
  0
ARC
  8
_0-0_0
  6
CONTINUOUS
 62
    7
 10
1691.2875988852709
 20
237.32409777851575
 40
68.159219280145933
 50
122.27613768094329
 51
123.3029083301537
  0
ARC
  8
_0-0_0
  6
CONTINUOUS
 62
    7
 10
1691.2875988852709
 20
237.32409777851575
 40
68.159219280145933
 50
146.69413097514749
 51
147.57108991121731
  0
ARC
  8
_0-0_0
  6
CONTINUOUS
 62
    7
 10
1691.2875988852709
 20
237.32409777851575
 40
68.159219280145933
 50
152.14323181207681
 51
177.87594553828211
  0
ARC
  8
_0-0_0
  6
CONTINUOUS
 62
    7
 10
1691.2875988852709
 20
237.32409777851575
 40
56.119978725270343
 50
182.93337015422961
 51
207.39682850266783
  0
ARC
  8
_0-0_0
  6
CONTINUOUS
 62
    7
 10
1691.2875988852709
 20
237.32409777851575
 40
56.119978725270343
 50
212.91188475680249
 51
237.23455552731491
  0
ARC
  8
_0-0_0
  6
CONTINUOUS
 62
    7
 10
1691.2875988852709
 20
237.32409777851575
 40
56.119978725270343
 50
242.74949177144009
 51
266.9834348015508
  0
ARC
  8
_0-0_0
  6
CONTINUOUS
 62
    7
 10
1691.2875988852709
 20
237.32409777851575
 40
56.119978725270343
 50
93.016565198449172
 51
117.25050822855988
  0
ARC
  8
_0-0_0
  6
CONTINUOUS
 62
    7
 10
1691.2875988852709
 20
237.32409777851575
 40
56.119978725270343
 50
122.7654444726851
 51
147.07615617167241
  0
ARC
  8
_0-0_0
  6
CONTINUOUS
 62
    7
 10
1691.2875988852709
 20
237.32409777851575
 40
56.119978725270343
 50
152.60317149733217
 51
177.41999793494151
  0
ARC
  8
_0-0_0
  6
CONTINUOUS
 62
    7
 10
1691.2875988852709
 20
237.32409777851575
 40
50.725750369634468
 50
123.06012261326629
 51
146.73533729496526
  0
ARC
  8
_0-0_0
  6
CONTINUOUS
 62
    7
 10
1691.2875988852709
 20
237.32409777851575
 40
50.725750369634468
 50
183.24562572216499
 51
207.11984671176924
  0
ARC
  8
_0-0_0
  6
CONTINUOUS
 62
    7
 10
1691.2875988852709
 20
237.32409777851575
 40
50.725750369634468
 50
243.04180582379252
 51
266.6623043316585
  0
CIRCLE
  8
_0-0_0
  6
CONTINUOUS
 62
    7
 10
1641.1049255420062
 20
287.50936432174933
 40
4.5206765181099229
  0
ARC
  8
_0-0_0
  6
CONTINUOUS
 62
    7
 10
1641.1049255420062
 20
287.50936432174933
 40
14.448763307229044
 50
150.4199360815208
 51
220.39107835956531
  0
ARC
  8
_0-0_0
  6
CONTINUOUS
 62
    7
 10
1641.1049255420062
 20
287.50936432174933
 40
14.448763307229044
 50
49.60596094573544
 51
119.577103223777
  0
CIRCLE
  8
_0-0_0
  6
CONTINUOUS
 62
    7
 10
1641.0976881877002
 20
187.13985241462618
 40
4.5206765181099229
  0
ARC
  8
_0-0_0
  6
CONTINUOUS
 62
    7
 10
1641.0976881877002
 20
187.13985241462618
 40
14.448763307229044
 50
240.49639924771054
 51
310.40709698450689
  0
ARC
  8
_0-0_0
  6
CONTINUOUS
 62
    7
 10
1641.0976881877002
 20
187.13985241462618
 40
14.448763307229044
 50
332.02353151387217
 51
117.9700006915853
  0
ARC
  8
_0-0_0
  6
CONTINUOUS
 62
    7
 10
1641.0976881877002
 20
187.13985241462618
 40
14.448763307229044
 50
139.58643522095576
 51
209.49713295775601
  0
LINE
  8
_0-0_0
  6
CONTINUOUS
 62
    7
 10
1606.3388555437591
 20
239.85030017116998
 11
1617.775757810668
 21
239.85030017116998
  0
LINE
  8
_0-0_0
  6
CONTINUOUS
 62
    7
 10
1623.1752103325966
 20
239.85030017116998
 11
1635.2245066266714
 21
239.85030017116998
  0
LINE
  8
_0-0_0
  6
CONTINUOUS
 62
    7
 10
1606.3498406006647
 20
234.45218005398252
 11
1617.7884521875721
 21
234.45218005398252
  0
LINE
  8
_0-0_0
  6
CONTINUOUS
 62
    7
 10
1623.1889112219787
 20
234.45218005398252
 11
1635.2411529613014
 21
234.45218005398252
  0
LINE
  8
_0-0_0
  6
CONTINUOUS
 62
    7
 10
1616.4458348798084
 20
277.59047400460935
 11
1626.3506318504751
 21
271.87207585290128
  0
LINE
  8
_0-0_0
  6
CONTINUOUS
 62
    7
 10
1631.0267756465694
 20
269.17236861812432
 11
1641.4619888651171
 21
263.14774194901196
  0
LINE
  8
_0-0_0
  6
CONTINUOUS
 62
    7
 10
1619.193339102982
 20
282.32507999306796
 11
1629.0865386783407
 21
276.58477257964751
  0
LINE
  8
_0-0_0
  6
CONTINUOUS
 62
    7
 10
1633.7573018909052
 20
273.87466686600237
 11
1644.1808396058805
 21
267.82664262838694
  0
LINE
  8
_0-0_0
  6
CONTINUOUS
 62
    7
 10
1646.4724683160755
 20
309.53403314683305
 11
1652.1908242983011
 21
299.6283086603014
  0
LINE
  8
_0-0_0
  6
CONTINUOUS
 62
    7
 10
1654.8905572666481
 20
294.95164791116764
 11
1660.9154013235375
 21
284.51500397235634
  0
LINE
  8
_0-0_0
  6
CONTINUOUS
 62
    7
 10
1651.1485265867175
 20
312.23421437729093
 11
1656.8668289351938
 21
302.3285827987828
  0
LINE
  8
_0-0_0
  6
CONTINUOUS
 62
    7
 10
1659.5665303219994
 20
297.65197675733714
 11
1665.5912819593063
 21
287.21549291400197
  0
LINE
  8
_0-0_0
  6
CONTINUOUS
 62
    7
 10
1688.3343032393218
 20
322.25906548121253
 11
1688.3343032393218
 21
310.82001958057145
  0
LINE
  8
_0-0_0
  6
CONTINUOUS
 62
    7
 10
1688.3343032393218
 20
305.41930478830943
 11
1688.3343032393218
 21
293.36631451690357
  0
LINE
  8
_0-0_0
  6
CONTINUOUS
 62
    7
 10
1616.4458348798084
 20
197.05772155242224
 11
1626.3506318504751
 21
202.77611970413042
  0
LINE
  8
_0-0_0
  6
CONTINUOUS
 62
    7
 10
1631.0267756465694
 20
205.47582693890726
 11
1641.4619888651171
 21
211.50045360801971
  0
LINE
  8
_0-0_0
  6
CONTINUOUS
 62
    7
 10
1619.1540186735829
 20
192.38617059362394
 11
1629.0601143512715
 21
198.10531853594901
  0
LINE
  8
_0-0_0
  6
CONTINUOUS
 62
    7
 10
1633.7370228752313
 20
200.80546727582964
 11
1644.174473983089
 21
206.83138595952155
  0
LINE
  8
_0-0_0
  6
CONTINUOUS
 62
    7
 10
1646.4724683160755
 20
165.11416241019856
 11
1652.1908242983011
 21
175.01988689673016
  0
LINE
  8
_0-0_0
  6
CONTINUOUS
 62
    7
 10
1654.8905572666481
 20
179.69654764586386
 11
1660.9154013235375
 21
190.13319158467522
  0
LINE
  8
_0-0_0
  6
CONTINUOUS
 62
    7
 10
1651.1485265867175
 20
162.41398117974074
 11
1656.8668289351931
 21
172.31961275824884
  0
LINE
  8
_0-0_0
  6
CONTINUOUS
 62
    7
 10
1659.5665303219994
 20
176.9962187996943
 11
1665.5912819593063
 21
187.43270264302967
  0
LINE
  8
_0-0_0
  6
CONTINUOUS
 62
    7
 10
1688.3343032393218
 20
152.38913007581914
 11
1688.3343032393218
 21
163.82817597646013
  0
LINE
  8
_0-0_0
  6
CONTINUOUS
 62
    7
 10
1688.3343032393218
 20
169.22889076872224
 11
1688.3343032393218
 21
181.28188104012813
  0
ARC
  8
_0-0_0
  6
CONTINUOUS
 62
    7
 10
1691.2875988852709
 20
237.32409777851575
 40
90.000000000000014
 50
270
 51
90
  0
ARC
  8
_0-0_0
  6
CONTINUOUS
 62
    7
 10
1691.2875988852709
 20
237.32409777851575
 40
84.98629709447593
 50
331.71885367767948
 51
358.0634513547086
  0
ARC
  8
_0-0_0
  6
CONTINUOUS
 62
    7
 10
1691.2875988852709
 20
237.32409777851575
 40
84.98629709447593
 50
317.607244332373
 51
328.0778338279635
  0
ARC
  8
_0-0_0
  6
CONTINUOUS
 62
    7
 10
1691.2875988852709
 20
237.32409777851575
 40
84.98629709447593
 50
301.82468030864402
 51
312.3992234621586
  0
ARC
  8
_0-0_0
  6
CONTINUOUS
 62
    7
 10
1691.2875988852709
 20
237.32409777851575
 40
84.98629709447593
 50
271.99144399189402
 51
298.18373217330571
  0
ARC
  8
_0-0_0
  6
CONTINUOUS
 62
    7
 10
1691.2875988852709
 20
237.32409777851575
 40
84.986297094476015
 50
61.816267826694308
 51
88.008556008106055
  0
ARC
  8
_0-0_0
  6
CONTINUOUS
 62
    7
 10
1691.2875988852709
 20
237.32409777851575
 40
84.986297094476015
 50
47.592660944249019
 51
58.175319691355796
  0
ARC
  8
_0-0_0
  6
CONTINUOUS
 62
    7
 10
1691.2875988852709
 20
237.32409777851575
 40
84.986297094476015
 50
31.972264500438662
 51
42.410299750453134
  0
ARC
  8
_0-0_0
  6
CONTINUOUS
 62
    7
 10
1691.2875988852709
 20
237.32409777851575
 40
84.986297094476015
 50
1.7033576395608199
 51
28.28114632232036
  0
ARC
  8
_0-0_0
  6
CONTINUOUS
 62
    7
 10
1691.2875988852709
 20
237.32409777851575
 40
73.55523418973155
 50
331.98598305907427
 51
357.76235364726779
  0
ARC
  8
_0-0_0
  6
CONTINUOUS
 62
    7
 10
1691.2875988852709
 20
237.32409777851575
 40
73.55523418973155
 50
326.29494599782947
 51
327.77888054783512
  0
ARC
  8
_0-0_0
  6
CONTINUOUS
 62
    7
 10
1691.2875988852709
 20
237.32409777851575
 40
73.55523418973155
 50
302.10885326022168
 51
303.7115217967069
  0
ARC
  8
_0-0_0
  6
CONTINUOUS
 62
    7
 10
1691.2875988852709
 20
237.32409777851575
 40
73.55523418973155
 50
272.30108536485312
 51
297.90183585938991
  0
ARC
  8
_0-0_0
  6
CONTINUOUS
 62
    7
 10
1691.2875988852709
 20
237.32409777851575
 40
73.55523418973155
 50
62.098164140610081
 51
87.698914635146906
  0
ARC
  8
_0-0_0
  6
CONTINUOUS
 62
    7
 10
1691.2875988852709
 20
237.32409777851575
 40
73.55523418973155
 50
56.292907031504178
 51
57.891146739778257
  0
ARC
  8
_0-0_0
  6
CONTINUOUS
 62
    7
 10
1691.2875988852709
 20
237.32409777851575
 40
73.55523418973155
 50
32.25970285922039
 51
33.71005366319816
  0
ARC
  8
_0-0_0
  6
CONTINUOUS
 62
    7
 10
1691.2875988852709
 20
237.32409777851575
 40
73.55523418973155
 50
1.9681699929559622
 51
28.014016940925732
  0
ARC
  8
_0-0_0
  6
CONTINUOUS
 62
    7
 10
1691.2875988852709
 20
237.32409777851575
 40
68.159219280145933
 50
332.14323181207681
 51
357.5851030099592
  0
ARC
  8
_0-0_0
  6
CONTINUOUS
 62
    7
 10
1691.2875988852709
 20
237.32409777851575
 40
68.159219280145933
 50
326.69775909862148
 51
327.60289269508411
  0
ARC
  8
_0-0_0
  6
CONTINUOUS
 62
    7
 10
1691.2875988852709
 20
237.32409777851575
 40
68.159219280145933
 50
302.27613768094329
 51
303.30870869591632
  0
ARC
  8
_0-0_0
  6
CONTINUOUS
 62
    7
 10
1691.2875988852709
 20
237.32409777851575
 40
68.159219280145933
 50
272.4833671795285
 51
297.73589200729589
  0
ARC
  8
_0-0_0
  6
CONTINUOUS
 62
    7
 10
1691.2875988852709
 20
237.32409777851575
 40
68.159219280145933
 50
62.264107992704169
 51
87.516632820471557
  0
ARC
  8
_0-0_0
  6
CONTINUOUS
 62
    7
 10
1691.2875988852709
 20
237.32409777851575
 40
68.159219280145933
 50
56.697091669846252
 51
57.723862319056622
  0
ARC
  8
_0-0_0
  6
CONTINUOUS
 62
    7
 10
1691.2875988852709
 20
237.32409777851575
 40
68.159219280145933
 50
32.428910088782558
 51
33.305869024852463
  0
ARC
  8
_0-0_0
  6
CONTINUOUS
 62
    7
 10
1691.2875988852709
 20
237.32409777851575
 40
68.159219280145933
 50
2.1240544617178578
 51
27.856768187923212
  0
ARC
  8
_0-0_0
  6
CONTINUOUS
 62
    7
 10
1691.2875988852709
 20
237.32409777851575
 40
56.119978725270343
 50
332.60317149733362
 51
357.06662984577042
  0
ARC
  8
_0-0_0
  6
CONTINUOUS
 62
    7
 10
1691.2875988852709
 20
237.32409777851575
 40
56.119978725270343
 50
302.76544447268338
 51
327.08811524319748
  0
ARC
  8
_0-0_0
  6
CONTINUOUS
 62
    7
 10
1691.2875988852709
 20
237.32409777851575
 40
56.119978725270343
 50
273.0165651984492
 51
297.25050822855991
  0
ARC
  8
_0-0_0
  6
CONTINUOUS
 62
    7
 10
1691.2875988852709
 20
237.32409777851575
 40
56.119978725270343
 50
62.749491771440091
 51
86.983434801550814
  0
ARC
  8
_0-0_0
  6
CONTINUOUS
 62
    7
 10
1691.2875988852709
 20
237.32409777851575
 40
56.119978725270343
 50
32.923843828329694
 51
57.234555527316573
  0
ARC
  8
_0-0_0
  6
CONTINUOUS
 62
    7
 10
1691.2875988852709
 20
237.32409777851575
 40
56.119978725270343
 50
2.5800020650584399
 51
27.396828502666342
  0
CIRCLE
  8
_0-0_0
  6
CONTINUOUS
 62
    7
 10
1741.4702722285338
 20
287.50936432174933
 40
4.5206765181099229
  0
ARC
  8
_0-0_0
  6
CONTINUOUS
 62
    7
 10
1741.4702722285338
 20
287.50936432174933
 40
14.448763307229044
 50
319.60892164043457
 51
29.58006391847913
  0
ARC
  8
_0-0_0
  6
CONTINUOUS
 62
    7
 10
1741.4702722285338
 20
287.50936432174933
 40
14.448763307229044
 50
152.01110321351501
 51
297.9918574811831
  0
ARC
  8
_0-0_0
  6
CONTINUOUS
 62
    7
 10
1741.4702722285338
 20
287.50936432174933
 40
14.448763307229044
 50
60.422896776222963
 51
130.3940390542576
  0
CIRCLE
  8
_0-0_0
  6
CONTINUOUS
 62
    7
 10
1741.4775095828402
 20
187.13985241462618
 40
4.5206765181099229
  0
ARC
  8
_0-0_0
  6
CONTINUOUS
 62
    7
 10
1741.4775095828402
 20
187.13985241462618
 40
14.448763307229044
 50
229.59290301549288
 51
299.50360075228951
  0
ARC
  8
_0-0_0
  6
CONTINUOUS
 62
    7
 10
1741.4775095828402
 20
187.13985241462618
 40
14.448763307229044
 50
62.02999930841456
 51
207.97646848612794
  0
ARC
  8
_0-0_0
  6
CONTINUOUS
 62
    7
 10
1741.4775095828402
 20
187.13985241462618
 40
14.448763307229044
 50
330.50286704224402
 51
40.413564779044201
  0
LINE
  8
_0-0_0
  6
CONTINUOUS
 62
    7
 10
1776.2363422267808
 20
239.85030017116998
 11
1764.7994399598729
 21
239.85030017116998
  0
LINE
  8
_0-0_0
  6
CONTINUOUS
 62
    7
 10
1759.399987437944
 20
239.85030017116998
 11
1747.350691143869
 21
239.85030017116998
  0
LINE
  8
_0-0_0
  6
CONTINUOUS
 62
    7
 10
1776.225357169875
 20
234.45218005398252
 11
1764.7867455829678
 21
234.45218005398252
  0
LINE
  8
_0-0_0
  6
CONTINUOUS
 62
    7
 10
1759.3862865485612
 20
234.45218005398252
 11
1747.3340448092385
 21
234.45218005398252
  0
LINE
  8
_0-0_0
  6
CONTINUOUS
 62
    7
 10
1766.1293628907317
 20
277.59047400460935
 11
1756.2245659200653
 21
271.87207585290128
  0
LINE
  8
_0-0_0
  6
CONTINUOUS
 62
    7
 10
1751.5484221239712
 20
269.17236861812432
 11
1741.113208905424
 21
263.14774194901196
  0
LINE
  8
_0-0_0
  6
CONTINUOUS
 62
    7
 10
1763.3818586675584
 20
282.32507999306796
 11
1753.4886590921997
 21
276.58477257964751
  0
LINE
  8
_0-0_0
  6
CONTINUOUS
 62
    7
 10
1736.1027294544656
 20
309.53403314683305
 11
1730.3843734722386
 21
299.6283086603014
  0
LINE
  8
_0-0_0
  6
CONTINUOUS
 62
    7
 10
1727.6846405038923
 20
294.95164791116764
 11
1721.6597964470029
 21
284.51500397235634
  0
LINE
  8
_0-0_0
  6
CONTINUOUS
 62
    7
 10
1731.4266711838229
 20
312.23421437729093
 11
1725.7083688353473
 21
302.3285827987828
  0
LINE
  8
_0-0_0
  6
CONTINUOUS
 62
    7
 10
1723.008667448541
 20
297.65197675733714
 11
1716.9839158112334
 21
287.21549291400197
  0
LINE
  8
_0-0_0
  6
CONTINUOUS
 62
    7
 10
1694.2408945312186
 20
322.25906548121253
 11
1694.2408945312186
 21
310.82001958057145
  0
LINE
  8
_0-0_0
  6
CONTINUOUS
 62
    7
 10
1694.2408945312186
 20
305.41930478830943
 11
1694.2408945312186
 21
293.36631451690357
  0
LINE
  8
_0-0_0
  6
CONTINUOUS
 62
    7
 10
1766.1293628907317
 20
197.05772155242224
 11
1756.2245659200653
 21
202.77611970413042
  0
LINE
  8
_0-0_0
  6
CONTINUOUS
 62
    7
 10
1751.5484221239712
 20
205.47582693890726
 11
1741.113208905424
 21
211.50045360801971
  0
LINE
  8
_0-0_0
  6
CONTINUOUS
 62
    7
 10
1763.4211790969573
 20
192.38617059362394
 11
1753.5150834192689
 21
198.10531853594901
  0
LINE
  8
_0-0_0
  6
CONTINUOUS
 62
    7
 10
1748.8381748953091
 20
200.80546727582964
 11
1738.4007237874514
 21
206.83138595952155
  0
LINE
  8
_0-0_0
  6
CONTINUOUS
 62
    7
 10
1736.1027294544656
 20
165.11416241019856
 11
1730.3843734722386
 21
175.01988689673016
  0
LINE
  8
_0-0_0
  6
CONTINUOUS
 62
    7
 10
1727.6846405038923
 20
179.69654764586386
 11
1721.6597964470029
 21
190.13319158467522
  0
LINE
  8
_0-0_0
  6
CONTINUOUS
 62
    7
 10
1731.4266711838229
 20
162.41398117974074
 11
1725.7083688353473
 21
172.31961275824884
  0
LINE
  8
_0-0_0
  6
CONTINUOUS
 62
    7
 10
1723.008667448541
 20
176.9962187996943
 11
1716.9839158112341
 21
187.43270264302967
  0
LINE
  8
_0-0_0
  6
CONTINUOUS
 62
    7
 10
1694.2408945312186
 20
152.38913007581914
 11
1694.2408945312186
 21
163.82817597646013
  0
LINE
  8
_0-0_0
  6
CONTINUOUS
 62
    7
 10
1694.2408945312186
 20
169.22889076872224
 11
1694.2408945312186
 21
181.28188104012813
  0
ARC
  8
_0-0_0
  6
CONTINUOUS
 62
    7
 10
1691.2875988852709
 20
237.32409777851575
 40
50.725750369634468
 50
63.041805823792465
 51
86.662304331658547
  0
ARC
  8
_0-0_0
  6
CONTINUOUS
 62
    7
 10
1691.2875988852709
 20
237.32409777851575
 40
50.725750369634468
 50
2.8545784161251042
 51
27.11984671176922
  0
LINE
  8
_0-0_0
  6
AI9-LType4
 62
    7
 10
1691.2875988852709
 20
134.89856677265644
 11
1691.2875988852709
 21
339.74962878437509
  0
LINE
  8
_0-0_0
  6
CONTINUOUS
 62
    7
 10
1334.9450085532385
 20
289.14729113789087
 11
1365.8981579673009
 21
309.73208117695333
  0
LINE
  8
_0-0_0
  6
CONTINUOUS
 62
    7
 10
1365.8981579673009
 20
309.73208117695333
 11
1513.7843769952788
 21
309.73208117695333
  0
LINE
  8
_0-0_0
  6
CONTINUOUS
 62
    7
 10
1300.4703686606606
 20
293.58267932148465
 11
1363.3983105551922
 21
341.6185069582034
  0
LINE
  8
_0-0_0
  6
CONTINUOUS
 62
    7
 10
1363.3983105551922
 20
341.6185069582034
 11
1511.2791035577784
 21
341.6185069582034
  0
LINE
  8
_0-0_0
  6
CONTINUOUS
 62
    7
 10
1220.6798901450356
 20
297.09719348164089
 11
1239.8601147544109
 21
277.91851916523456
  0
LINE
  8
_0-0_0
  6
CONTINUOUS
 62
    7
 10
1340.229182137223
 20
297.09719348164089
 11
1321.0505078208168
 21
277.91851916523456
  0
CIRCLE
  8
_0-0_0
  6
CONTINUOUS
 62
    7
 10
1230.2700024497231
 20
287.50863146992208
 40
4.5206542968749863
  0
CIRCLE
  8
_0-0_0
  6
CONTINUOUS
 62
    7
 10
1330.6390698325358
 20
287.50863146992208
 40
4.5206542968749863
  0
CIRCLE
  8
_0-0_0
  6
CONTINUOUS
 62
    7
 10
1330.6390698325358
 20
187.13956408710956
 40
4.5206542968749863
  0
CIRCLE
  8
_0-0_0
  6
CONTINUOUS
 62
    7
 10
1230.2700024497231
 20
187.13956408710956
 40
4.5206542968749863
  0
CIRCLE
  8
_0-0_0
  6
CONTINUOUS
 62
    7
 10
1230.2707775962076
 20
287.50863146992208
 40
10.848950195312465
  0
CIRCLE
  8
_0-0_0
  6
CONTINUOUS
 62
    7
 10
1330.6390698325358
 20
287.50863146992208
 40
10.848175048828125
  0
CIRCLE
  8
_0-0_0
  6
CONTINUOUS
 62
    7
 10
1330.6390698325358
 20
187.13956408710956
 40
10.848175048828159
  0
CIRCLE
  8
_0-0_0
  6
CONTINUOUS
 62
    7
 10
1230.2707775962076
 20
187.13956408710956
 40
10.848950195312497
  0
LINE
  8
_0-0_0
  6
CONTINUOUS
 62
    7
 10
1239.8601147544109
 20
196.72812609882826
 11
1220.6798901450356
 21
177.5494517824221
  0
LINE
  8
_0-0_0
  6
CONTINUOUS
 62
    7
 10
1321.0505078208168
 20
196.72812609882826
 11
1340.229182137223
 21
177.5494517824221
  0
LINE
  8
_0-0_0
  6
CONTINUOUS
 62
    7
 10
1220.6798901450356
 20
196.72812609882826
 11
1239.8601147544109
 21
177.5494517824221
  0
LINE
  8
_0-0_0
  6
CONTINUOUS
 62
    7
 10
1340.229182137223
 20
196.72812609882826
 11
1321.0505078208168
 21
177.5494517824221
  0
LINE
  8
_0-0_0
  6
CONTINUOUS
 62
    7
 10
1321.0505078208168
 20
297.09719348164089
 11
1340.229182137223
 21
277.91851916523456
  0
LINE
  8
_0-0_0
  6
CONTINUOUS
 62
    7
 10
1239.8601147544109
 20
297.09719348164089
 11
1220.6798901450356
 21
277.91851916523456
  0
LINE
  8
_0-0_0
  6
CONTINUOUS
 62
    7
 10
1295.353626717301
 20
175.63018908710958
 11
1296.3902437946563
 21
175.39236954428006
  0
LINE
  8
_0-0_0
  6
CONTINUOUS
 62
    7
 10
1296.3902437946563
 20
175.39236954428006
 11
1297.471343937736
 21
175.38036616494466
  0
LINE
  8
_0-0_0
  6
CONTINUOUS
 62
    7
 10
1297.471343937736
 20
175.38036616494466
 11
1298.5640784657562
 21
175.59454366571018
  0
LINE
  8
_0-0_0
  6
CONTINUOUS
 62
    7
 10
1298.5640784657562
 20
175.59454366571018
 11
1299.6352451930338
 21
176.02839437159523
  0
LINE
  8
_0-0_0
  6
CONTINUOUS
 62
    7
 10
1299.6352451930338
 20
176.02839437159523
 11
1300.6522972605962
 21
176.66873594844017
  0
LINE
  8
_0-0_0
  6
CONTINUOUS
 62
    7
 10
1300.6522972605962
 20
176.66873594844017
 11
1301.5843320560243
 21
177.49611194146138
  0
LINE
  8
_0-0_0
  6
CONTINUOUS
 62
    7
 10
1301.5843320560243
 20
177.49611194146138
 11
1302.4030301736909
 21
178.48538294978309
  0
LINE
  8
_0-0_0
  6
CONTINUOUS
 62
    7
 10
1302.4030301736909
 20
178.48538294978309
 11
1303.0835158855723
 21
179.60649047441296
  0
LINE
  8
_0-0_0
  6
CONTINUOUS
 62
    7
 10
1303.0835158855723
 20
179.60649047441296
 11
1303.6051129776552
 21
180.82537023052274
  0
LINE
  8
_0-0_0
  6
CONTINUOUS
 62
    7
 10
1303.6051129776552
 20
180.82537023052274
 11
1303.9519729862377
 21
182.104987173506
  0
LINE
  8
_0-0_0
  6
CONTINUOUS
 62
    7
 10
1303.9519729862377
 20
182.104987173506
 11
1304.113556745478
 21
183.40646079006757
  0
LINE
  8
_0-0_0
  6
CONTINUOUS
 62
    7
 10
1304.113556745478
 20
183.40646079006757
 11
1304.0849546146183
 21
184.69024646294571
  0
LINE
  8
_0-0_0
  6
CONTINUOUS
 62
    7
 10
1304.0849546146183
 20
184.69024646294571
 11
1303.8670356549299
 21
185.91733701409694
  0
LINE
  8
_0-0_0
  6
CONTINUOUS
 62
    7
 10
1303.8670356549299
 20
185.91733701409694
 11
1303.4664212237312
 21
187.0504479180623
  0
LINE
  8
_0-0_0
  6
CONTINUOUS
 62
    7
 10
1303.4664212237312
 20
187.0504479180623
 11
1302.8952837877937
 21
188.05515017340639
  0
LINE
  8
_0-0_0
  6
CONTINUOUS
 62
    7
 10
1302.8952837877937
 20
188.05515017340639
 11
1302.1709770690986
 21
188.90091641050469
  0
LINE
  8
_0-0_0
  6
CONTINUOUS
 62
    7
 10
1302.1709770690986
 20
188.90091641050469
 11
1301.3155087607768
 21
189.56204845022131
  0
LINE
  8
_0-0_0
  6
CONTINUOUS
 62
    7
 10
1301.3155087607768
 20
189.56204845022131
 11
1300.3548718344887
 21
190.01845813007824
  0
LINE
  8
_0-0_0
  6
CONTINUOUS
 62
    7
 10
1300.3548718344887
 20
190.01845813007824
 11
1299.3182547571339
 21
190.25627767290777
  0
LINE
  8
_0-0_0
  6
CONTINUOUS
 62
    7
 10
1299.3182547571339
 20
190.25627767290777
 11
1298.2371546140541
 21
190.26828105224317
  0
LINE
  8
_0-0_0
  6
CONTINUOUS
 62
    7
 10
1298.2371546140541
 20
190.26828105224317
 11
1297.1444200860333
 21
190.05410355147765
  0
LINE
  8
_0-0_0
  6
CONTINUOUS
 62
    7
 10
1297.1444200860333
 20
190.05410355147765
 11
1296.0732533587561
 21
189.62025284559269
  0
LINE
  8
_0-0_0
  6
CONTINUOUS
 62
    7
 10
1296.0732533587561
 20
189.62025284559269
 11
1295.0562012911937
 21
188.97991126874766
  0
LINE
  8
_0-0_0
  6
CONTINUOUS
 62
    7
 10
1295.0562012911937
 20
188.97991126874766
 11
1294.1241664957656
 21
188.15253527572654
  0
LINE
  8
_0-0_0
  6
CONTINUOUS
 62
    7
 10
1294.392989791013
 20
176.0865987669666
 11
1295.353626717301
 21
175.63018908710958
  0
LINE
  8
_0-0_0
  6
CONTINUOUS
 62
    7
 10
1266.5065503012859
 20
175.63018908710958
 11
1267.4671872275744
 21
176.0865987669666
  0
LINE
  8
_0-0_0
  6
CONTINUOUS
 62
    7
 10
1267.7360105228215
 20
188.15253527572654
 11
1266.8039757273937
 21
188.97991126874766
  0
LINE
  8
_0-0_0
  6
CONTINUOUS
 62
    7
 10
1266.8039757273937
 20
188.97991126874766
 11
1265.7869236598312
 21
189.62025284559269
  0
LINE
  8
_0-0_0
  6
CONTINUOUS
 62
    7
 10
1265.7869236598312
 20
189.62025284559269
 11
1264.7157569325536
 21
190.05410355147757
  0
LINE
  8
_0-0_0
  6
CONTINUOUS
 62
    7
 10
1264.7157569325536
 20
190.05410355147757
 11
1263.6230224045335
 21
190.26828105224317
  0
LINE
  8
_0-0_0
  6
CONTINUOUS
 62
    7
 10
1263.6230224045335
 20
190.26828105224317
 11
1262.5419222614535
 21
190.25627767290777
  0
LINE
  8
_0-0_0
  6
CONTINUOUS
 62
    7
 10
1262.5419222614535
 20
190.25627767290777
 11
1261.5053051840987
 21
190.01845813007824
  0
LINE
  8
_0-0_0
  6
CONTINUOUS
 62
    7
 10
1261.5053051840987
 20
190.01845813007824
 11
1260.5446682578101
 21
189.56204845022131
  0
LINE
  8
_0-0_0
  6
CONTINUOUS
 62
    7
 10
1260.5446682578101
 20
189.56204845022131
 11
1259.6891999494885
 21
188.90091641050469
  0
LINE
  8
_0-0_0
  6
CONTINUOUS
 62
    7
 10
1259.6891999494885
 20
188.90091641050469
 11
1258.9648932307935
 21
188.05515017340639
  0
LINE
  8
_0-0_0
  6
CONTINUOUS
 62
    7
 10
1258.9648932307935
 20
188.05515017340639
 11
1258.3937557948561
 21
187.0504479180623
  0
LINE
  8
_0-0_0
  6
CONTINUOUS
 62
    7
 10
1258.3937557948561
 20
187.0504479180623
 11
1257.9931413636573
 21
185.91733701409694
  0
LINE
  8
_0-0_0
  6
CONTINUOUS
 62
    7
 10
1257.9931413636573
 20
185.91733701409694
 11
1257.7752224039691
 21
184.69024646294579
  0
LINE
  8
_0-0_0
  6
CONTINUOUS
 62
    7
 10
1257.7752224039691
 20
184.69024646294579
 11
1257.7466202731089
 21
183.40646079006757
  0
LINE
  8
_0-0_0
  6
CONTINUOUS
 62
    7
 10
1257.7466202731089
 20
183.40646079006757
 11
1257.9082040323497
 21
182.104987173506
  0
LINE
  8
_0-0_0
  6
CONTINUOUS
 62
    7
 10
1257.9082040323497
 20
182.104987173506
 11
1258.255064040932
 21
180.82537023052274
  0
LINE
  8
_0-0_0
  6
CONTINUOUS
 62
    7
 10
1258.255064040932
 20
180.82537023052274
 11
1258.7766611330148
 21
179.60649047441305
  0
LINE
  8
_0-0_0
  6
CONTINUOUS
 62
    7
 10
1258.7766611330148
 20
179.60649047441305
 11
1259.4571468448962
 21
178.48538294978317
  0
LINE
  8
_0-0_0
  6
CONTINUOUS
 62
    7
 10
1259.4571468448962
 20
178.48538294978317
 11
1260.2758449625628
 21
177.49611194146138
  0
LINE
  8
_0-0_0
  6
CONTINUOUS
 62
    7
 10
1260.2758449625628
 20
177.49611194146138
 11
1261.2078797579909
 21
176.66873594844017
  0
LINE
  8
_0-0_0
  6
CONTINUOUS
 62
    7
 10
1261.2078797579909
 20
176.66873594844017
 11
1262.2249318255533
 21
176.02839437159523
  0
LINE
  8
_0-0_0
  6
CONTINUOUS
 62
    7
 10
1262.2249318255533
 20
176.02839437159523
 11
1263.2960985528307
 21
175.59454366571026
  0
LINE
  8
_0-0_0
  6
CONTINUOUS
 62
    7
 10
1263.2960985528307
 20
175.59454366571026
 11
1264.3888330808511
 21
175.38036616494475
  0
LINE
  8
_0-0_0
  6
CONTINUOUS
 62
    7
 10
1264.3888330808511
 20
175.38036616494475
 11
1265.4699332239311
 21
175.39236954428006
  0
LINE
  8
_0-0_0
  6
CONTINUOUS
 62
    7
 10
1265.4699332239311
 20
175.39236954428006
 11
1266.5065503012859
 21
175.63018908710958
  0
LINE
  8
_0-0_0
  6
CONTINUOUS
 62
    7
 10
1266.5065503012859
 20
299.01800646992217
 11
1265.4699865631717
 21
299.25585665127659
  0
LINE
  8
_0-0_0
  6
CONTINUOUS
 62
    7
 10
1265.4699865631717
 20
299.25585665127659
 11
1264.3889381386471
 21
299.26791329063485
  0
LINE
  8
_0-0_0
  6
CONTINUOUS
 62
    7
 10
1264.3889381386471
 20
299.26791329063485
 11
1263.2962521370534
 21
299.05381005311057
  0
LINE
  8
_0-0_0
  6
CONTINUOUS
 62
    7
 10
1263.2962521370534
 20
299.05381005311057
 11
1262.2251292696244
 21
298.62005235723484
  0
LINE
  8
_0-0_0
  6
CONTINUOUS
 62
    7
 10
1262.2251292696244
 20
298.62005235723484
 11
1261.2081150626718
 21
297.97981971110477
  0
LINE
  8
_0-0_0
  6
CONTINUOUS
 62
    7
 10
1261.2081150626718
 20
297.97981971110477
 11
1260.27611097824
 21
297.15256525969954
  0
LINE
  8
_0-0_0
  6
CONTINUOUS
 62
    7
 10
1260.27611097824
 20
297.15256525969954
 11
1259.4574354888177
 21
296.16342471091423
  0
LINE
  8
_0-0_0
  6
CONTINUOUS
 62
    7
 10
1259.4574354888177
 20
296.16342471091423
 11
1258.7769636348817
 21
295.04245259979439
  0
LINE
  8
_0-0_0
  6
CONTINUOUS
 62
    7
 10
1258.7769636348817
 20
295.04245259979439
 11
1258.2553712093775
 21
293.82370909669726
  0
LINE
  8
_0-0_0
  6
CONTINUOUS
 62
    7
 10
1258.2553712093775
 20
293.82370909669726
 11
1257.9085065342165
 21
292.54422510625028
  0
LINE
  8
_0-0_0
  6
CONTINUOUS
 62
    7
 10
1257.9085065342165
 20
292.54422510625028
 11
1257.7469089170306
 21
291.24287710205306
  0
LINE
  8
_0-0_0
  6
CONTINUOUS
 62
    7
 10
1257.7469089170306
 20
291.24287710205306
 11
1257.7754884196465
 21
289.95920588469949
  0
LINE
  8
_0-0_0
  6
CONTINUOUS
 62
    7
 10
1257.7754884196465
 20
289.95920588469949
 11
1257.9933766683382
 21
288.73221515455975
  0
LINE
  8
_0-0_0
  6
CONTINUOUS
 62
    7
 10
1257.9933766683382
 20
288.73221515455975
 11
1258.3939532389268
 21
287.59918640408182
  0
LINE
  8
_0-0_0
  6
CONTINUOUS
 62
    7
 10
1258.3939532389268
 20
287.59918640408182
 11
1258.9650468150162
 21
286.59454613850869
  0
LINE
  8
_0-0_0
  6
CONTINUOUS
 62
    7
 10
1258.9650468150162
 20
286.59454613850869
 11
1259.6893050072845
 21
285.74881984393744
  0
LINE
  8
_0-0_0
  6
CONTINUOUS
 62
    7
 10
1259.6893050072845
 20
285.74881984393744
 11
1260.5447215970512
 21
285.08770448587052
  0
LINE
  8
_0-0_0
  6
CONTINUOUS
 62
    7
 10
1260.5447215970512
 20
285.08770448587052
 11
1261.5053051840987
 21
284.63128771992211
  0
LINE
  8
_0-0_0
  6
CONTINUOUS
 62
    7
 10
1261.5053051840987
 20
284.63128771992211
 11
1262.5418689222129
 21
284.39343753856758
  0
LINE
  8
_0-0_0
  6
CONTINUOUS
 62
    7
 10
1262.5418689222129
 20
284.39343753856758
 11
1263.6229173467373
 21
284.38138089920943
  0
LINE
  8
_0-0_0
  6
CONTINUOUS
 62
    7
 10
1263.6229173467373
 20
284.38138089920943
 11
1264.7156033483309
 21
284.5954841367336
  0
LINE
  8
_0-0_0
  6
CONTINUOUS
 62
    7
 10
1264.7156033483309
 20
284.5954841367336
 11
1265.7867262157602
 21
285.02924183260939
  0
LINE
  8
_0-0_0
  6
CONTINUOUS
 62
    7
 10
1265.7867262157602
 20
285.02924183260939
 11
1266.8037404227127
 21
285.6694744787394
  0
LINE
  8
_0-0_0
  6
CONTINUOUS
 62
    7
 10
1266.8037404227127
 20
285.6694744787394
 11
1267.7357445071443
 21
286.49672893014463
  0
LINE
  8
_0-0_0
  6
CONTINUOUS
 62
    7
 10
1267.4671338883334
 20
298.56158970397371
 11
1266.5065503012859
 21
299.01800646992217
  0
LINE
  8
_0-0_0
  6
CONTINUOUS
 62
    7
 10
1295.353626717301
 20
299.01800646992217
 11
1294.3930431302538
 21
298.56158970397371
  0
LINE
  8
_0-0_0
  6
CONTINUOUS
 62
    7
 10
1294.1244325114428
 20
286.49672893014463
 11
1295.0564365958744
 21
285.6694744787394
  0
LINE
  8
_0-0_0
  6
CONTINUOUS
 62
    7
 10
1295.0564365958744
 20
285.6694744787394
 11
1296.073450802827
 21
285.02924183260939
  0
LINE
  8
_0-0_0
  6
CONTINUOUS
 62
    7
 10
1296.073450802827
 20
285.02924183260939
 11
1297.1445736702562
 21
284.5954841367336
  0
LINE
  8
_0-0_0
  6
CONTINUOUS
 62
    7
 10
1297.1445736702562
 20
284.5954841367336
 11
1298.2372596718499
 21
284.38138089920943
  0
LINE
  8
_0-0_0
  6
CONTINUOUS
 62
    7
 10
1298.2372596718499
 20
284.38138089920943
 11
1299.3183080963745
 21
284.39343753856758
  0
LINE
  8
_0-0_0
  6
CONTINUOUS
 62
    7
 10
1299.3183080963745
 20
284.39343753856758
 11
1300.3548718344887
 21
284.63128771992211
  0
LINE
  8
_0-0_0
  6
CONTINUOUS
 62
    7
 10
1300.3548718344887
 20
284.63128771992211
 11
1301.3154554215359
 21
285.08770448587052
  0
LINE
  8
_0-0_0
  6
CONTINUOUS
 62
    7
 10
1301.3154554215359
 20
285.08770448587052
 11
1302.1708720113029
 21
285.74881984393744
  0
LINE
  8
_0-0_0
  6
CONTINUOUS
 62
    7
 10
1302.1708720113029
 20
285.74881984393744
 11
1302.8951302035712
 21
286.59454613850863
  0
LINE
  8
_0-0_0
  6
CONTINUOUS
 62
    7
 10
1302.8951302035712
 20
286.59454613850863
 11
1303.4662237796606
 21
287.59918640408182
  0
LINE
  8
_0-0_0
  6
CONTINUOUS
 62
    7
 10
1303.4662237796606
 20
287.59918640408182
 11
1303.8668003502489
 21
288.73221515455975
  0
LINE
  8
_0-0_0
  6
CONTINUOUS
 62
    7
 10
1303.8668003502489
 20
288.73221515455975
 11
1304.0846885989408
 21
289.95920588469949
  0
LINE
  8
_0-0_0
  6
CONTINUOUS
 62
    7
 10
1304.0846885989408
 20
289.95920588469949
 11
1304.1132681015563
 21
291.24287710205306
  0
LINE
  8
_0-0_0
  6
CONTINUOUS
 62
    7
 10
1304.1132681015563
 20
291.24287710205306
 11
1303.9516704843709
 21
292.54422510625028
  0
LINE
  8
_0-0_0
  6
CONTINUOUS
 62
    7
 10
1303.9516704843709
 20
292.54422510625028
 11
1303.6048058092097
 21
293.82370909669726
  0
LINE
  8
_0-0_0
  6
CONTINUOUS
 62
    7
 10
1303.6048058092097
 20
293.82370909669726
 11
1303.0832133837055
 21
295.04245259979439
  0
LINE
  8
_0-0_0
  6
CONTINUOUS
 62
    7
 10
1303.0832133837055
 20
295.04245259979439
 11
1302.4027415297694
 21
296.16342471091423
  0
LINE
  8
_0-0_0
  6
CONTINUOUS
 62
    7
 10
1302.4027415297694
 20
296.16342471091423
 11
1301.5840660403471
 21
297.15256525969949
  0
LINE
  8
_0-0_0
  6
CONTINUOUS
 62
    7
 10
1301.5840660403471
 20
297.15256525969949
 11
1300.6520619559155
 21
297.97981971110471
  0
LINE
  8
_0-0_0
  6
CONTINUOUS
 62
    7
 10
1300.6520619559155
 20
297.97981971110471
 11
1299.6350477489627
 21
298.62005235723484
  0
LINE
  8
_0-0_0
  6
CONTINUOUS
 62
    7
 10
1299.6350477489627
 20
298.62005235723484
 11
1298.5639248815337
 21
299.05381005311057
  0
LINE
  8
_0-0_0
  6
CONTINUOUS
 62
    7
 10
1298.5639248815337
 20
299.05381005311057
 11
1297.4712388799403
 21
299.26791329063485
  0
LINE
  8
_0-0_0
  6
CONTINUOUS
 62
    7
 10
1297.4712388799403
 20
299.26791329063485
 11
1296.3901904554154
 21
299.25585665127659
  0
LINE
  8
_0-0_0
  6
CONTINUOUS
 62
    7
 10
1296.3901904554154
 20
299.25585665127659
 11
1295.353626717301
 21
299.01800646992217
  0
LINE
  8
_0-5_D-BYP-STR1
  6
CONTINUOUS
 62
    7
 10
1174.8276501548016
 20
147.32409777851583
 11
1140.0328747641763
 21
147.32409777851583
  0
LINE
  8
_0-5_D-BYP-STR1
  6
CONTINUOUS
 62
    7
 10
1174.8276501548016
 20
327.32483358199011
 11
1140.0328747641763
 21
327.32483358199011
  0
LINE
  8
_0-5_D-BYP-STR1
  6
CONTINUOUS
 62
    7
 10
1140.0328747641763
 20
147.32409777851583
 11
1140.0328747641763
 21
327.32483358199011
  0
LINE
  8
_0-5_D-BYP-STR1
  6
CONTINUOUS
 62
    7
 10
1387.5986635163283
 20
188.50571686081193
 11
1422.3934389069532
 21
188.50571686081193
  0
LINE
  8
_0-5_D-BYP-STR1
  6
CONTINUOUS
 62
    7
 10
1387.5986635163283
 20
287.50936432174933
 11
1422.3934389069532
 21
287.50936432174916
  0
LINE
  8
_0-5_D-BYP-STR1
  6
CONTINUOUS
 62
    7
 10
1422.3934389069532
 20
188.50571686081193
 11
1422.3934389069532
 21
287.50936432174916
  0
TEXT
  8
_0-3_D-STR-TXT
 62
    7
 10
1377.3387070564854
 20
340.8685069582034
 40
15
 41
1
 50
0
  1
セットピンホール
  0
TEXT
  8
_0-3_D-STR-TXT
 62
    7
 10
1387.3412674812898
 20
308.98208117695333
 40
15
 41
1
 50
0
  1
アンカーホール
  0
TEXT
  8
_0-5_D-BYP-STR1
 62
    7
 10
1419.7684389069527
 20
215.50754059128067
 40
15
 41
1
 50
90
  1
110±2
  0
TEXT
  8
_0-3_D-STR-TXT
 62
    7
 10
1242.1437329184732
 20
106.05040859985456
 40
15
 41
1
 50
0
  1
ベース平面
  0
TEXT
  8
_0-3_D-STR-TXT
 62
    7
 10
1657.9439343344889
 20
106.86121182251085
 40
15
 41
1
 50
0
  1
ベース底面
  0
CIRCLE
  8
_0-0_0
  6
CONTINUOUS
 62
    7
 10
1280.7987011801922
 20
237.32409777851575
 40
42.75
  0
CIRCLE
  8
_0-0_0
  6
CONTINUOUS
 62
    7
 10
1280.7987011801922
 20
237.32409777851575
 40
38.25
  0
CIRCLE
  8
_0-0_0
  6
CONTINUOUS
 62
    7
 10
1280.7987011801922
 20
237.32409777851575
 40
32.849999999999994
  0
LINE
  8
_0-0_0
  6
CONTINUOUS
 62
    7
 10
1266.0634024408123
 20
202.02631497192493
 11
1295.5339999195721
 21
202.02631497192493
  0
LINE
  8
_0-0_0
  6
CONTINUOUS
 62
    7
 10
1256.9411010651315
 20
207.42631497192497
 11
1267.1882242139004
 21
207.42631497192497
  0
LINE
  8
_0-0_0
  6
CONTINUOUS
 62
    7
 10
1294.409178146484
 20
207.42631497192497
 11
1304.6563012952529
 21
207.42631497192497
  0
LINE
  8
_0-0_0
  6
CONTINUOUS
 62
    7
 10
1251.4231818220392
 20
212.826314971925
 11
1258.9130634796106
 21
212.826314971925
  0
LINE
  8
_0-0_0
  6
CONTINUOUS
 62
    7
 10
1302.6843388807742
 20
212.826314971925
 11
1310.1742205383457
 21
212.826314971925
  0
LINE
  8
_0-0_0
  6
CONTINUOUS
 62
    7
 10
1247.6575305329138
 20
218.22631497192495
 11
1254.0704915156416
 21
218.22631497192495
  0
LINE
  8
_0-0_0
  6
CONTINUOUS
 62
    7
 10
1307.5269108447433
 20
218.22631497192495
 11
1313.9398718274706
 21
218.22631497192495
  0
LINE
  8
_0-0_0
  6
CONTINUOUS
 62
    7
 10
1245.0854928927356
 20
223.62631497192498
 11
1250.9408170256984
 21
223.62631497192498
  0
LINE
  8
_0-0_0
  6
CONTINUOUS
 62
    7
 10
1310.656585334686
 20
223.62631497192498
 11
1316.5119094676488
 21
223.62631497192498
  0
LINE
  8
_0-0_0
  6
CONTINUOUS
 62
    7
 10
1243.4595889720224
 20
229.02631497192493
 11
1249.0139674154611
 21
229.02631497192493
  0
LINE
  8
_0-0_0
  6
CONTINUOUS
 62
    7
 10
1312.5834349449237
 20
229.02631497192493
 11
1318.1378133883622
 21
229.02631497192493
  0
LINE
  8
_0-0_0
  6
CONTINUOUS
 62
    7
 10
1242.6586257370868
 20
234.42631497192497
 11
1248.0767612192756
 21
234.42631497192497
  0
LINE
  8
_0-0_0
  6
CONTINUOUS
 62
    7
 10
1313.5206411411089
 20
234.42631497192497
 11
1318.9387766232981
 21
234.42631497192497
  0
LINE
  8
_0-0_0
  6
CONTINUOUS
 62
    7
 10
1242.6306332553263
 20
239.826314971925
 11
1248.044138000128
 21
239.826314971925
  0
LINE
  8
_0-0_0
  6
CONTINUOUS
 62
    7
 10
1313.5532643602569
 20
239.826314971925
 11
1318.9667691050586
 21
239.826314971925
  0
LINE
  8
_0-0_0
  6
CONTINUOUS
 62
    7
 10
1243.3738770199097
 20
245.22631497192495
 11
1248.9133210910672
 21
245.22631497192495
  0
LINE
  8
_0-0_0
  6
CONTINUOUS
 62
    7
 10
1312.6840812693176
 20
245.22631497192495
 11
1318.2235253404747
 21
245.22631497192495
  0
LINE
  8
_0-0_0
  6
CONTINUOUS
 62
    7
 10
1244.9362763076419
 20
250.62631497192498
 11
1250.7624977293674
 21
250.62631497192498
  0
LINE
  8
_0-0_0
  6
CONTINUOUS
 62
    7
 10
1310.8349046310173
 20
250.62631497192498
 11
1316.6611260527429
 21
250.62631497192498
  0
LINE
  8
_0-0_0
  6
CONTINUOUS
 62
    7
 10
1247.4327069337921
 20
256.02631497192493
 11
1253.7922283995713
 21
256.02631497192493
  0
LINE
  8
_0-0_0
  6
CONTINUOUS
 62
    7
 10
1307.8051739608131
 20
256.02631497192493
 11
1314.1646954265923
 21
256.02631497192493
  0
LINE
  8
_0-0_0
  6
CONTINUOUS
 62
    7
 10
1251.0977647242175
 20
261.42631497192497
 11
1258.4781808824496
 21
261.42631497192497
  0
LINE
  8
_0-0_0
  6
CONTINUOUS
 62
    7
 10
1303.1192214779353
 20
261.42631497192497
 11
1310.4996376361673
 21
261.42631497192497
  0
LINE
  8
_0-0_0
  6
CONTINUOUS
 62
    7
 10
1256.4536466377835
 20
266.826314971925
 11
1266.3508058084446
 21
266.826314971925
  0
LINE
  8
_0-0_0
  6
CONTINUOUS
 62
    7
 10
1295.24659655194
 20
266.826314971925
 11
1305.1437557226009
 21
266.826314971925
  0
LINE
  8
_0-0_0
  6
CONTINUOUS
 62
    7
 10
1265.1494924147557
 20
272.22631497192492
 11
1296.4479099456289
 21
272.22631497192492
  0
LINE
  8
_0-0_0
  6
CONTINUOUS
 62
    7
 10
1294.1241664957656
 20
188.15253527572654
 11
1293.3054683780988
 21
187.16326426740474
  0
LINE
  8
_0-0_0
  6
CONTINUOUS
 62
    7
 10
1293.3054683780988
 20
187.16326426740474
 11
1292.6249826662174
 21
186.04215674277486
  0
LINE
  8
_0-0_0
  6
CONTINUOUS
 62
    7
 10
1292.6249826662174
 20
186.04215674277486
 11
1292.1033855741346
 21
184.82327698666518
  0
LINE
  8
_0-0_0
  6
CONTINUOUS
 62
    7
 10
1292.1033855741346
 20
184.82327698666518
 11
1291.756525565552
 21
183.54366004368183
  0
LINE
  8
_0-0_0
  6
CONTINUOUS
 62
    7
 10
1291.756525565552
 20
183.54366004368183
 11
1291.5949418063115
 21
182.24218642712034
  0
LINE
  8
_0-0_0
  6
CONTINUOUS
 62
    7
 10
1291.5949418063115
 20
182.24218642712034
 11
1291.6235439371721
 21
180.95840075424212
  0
LINE
  8
_0-0_0
  6
CONTINUOUS
 62
    7
 10
1291.6235439371721
 20
180.95840075424212
 11
1291.8414628968599
 21
179.73131020309097
  0
LINE
  8
_0-0_0
  6
CONTINUOUS
 62
    7
 10
1291.8414628968599
 20
179.73131020309097
 11
1292.2420773280587
 21
178.59819929912561
  0
LINE
  8
_0-0_0
  6
CONTINUOUS
 62
    7
 10
1292.2420773280587
 20
178.59819929912561
 11
1292.8132147639958
 21
177.59349704378144
  0
LINE
  8
_0-0_0
  6
CONTINUOUS
 62
    7
 10
1292.8132147639958
 20
177.59349704378144
 11
1293.5375214826909
 21
176.74773080668314
  0
LINE
  8
_0-0_0
  6
CONTINUOUS
 62
    7
 10
1293.5375214826909
 20
176.74773080668314
 11
1294.392989791013
 21
176.0865987669666
  0
LINE
  8
_0-0_0
  6
CONTINUOUS
 62
    7
 10
1267.4671872275744
 20
176.0865987669666
 11
1268.322655535896
 21
176.74773080668314
  0
LINE
  8
_0-0_0
  6
CONTINUOUS
 62
    7
 10
1268.322655535896
 20
176.74773080668314
 11
1269.0469622545911
 21
177.59349704378144
  0
LINE
  8
_0-0_0
  6
CONTINUOUS
 62
    7
 10
1269.0469622545911
 20
177.59349704378144
 11
1269.6180996905284
 21
178.59819929912561
  0
LINE
  8
_0-0_0
  6
CONTINUOUS
 62
    7
 10
1269.6180996905284
 20
178.59819929912561
 11
1270.018714121727
 21
179.73131020309097
  0
LINE
  8
_0-0_0
  6
CONTINUOUS
 62
    7
 10
1270.018714121727
 20
179.73131020309097
 11
1270.2366330814152
 21
180.95840075424204
  0
LINE
  8
_0-0_0
  6
CONTINUOUS
 62
    7
 10
1270.2366330814152
 20
180.95840075424204
 11
1270.2652352122755
 21
182.24218642712026
  0
LINE
  8
_0-0_0
  6
CONTINUOUS
 62
    7
 10
1270.2652352122755
 20
182.24218642712026
 11
1270.1036514530347
 21
183.54366004368183
  0
LINE
  8
_0-0_0
  6
CONTINUOUS
 62
    7
 10
1270.1036514530347
 20
183.54366004368183
 11
1269.7567914444526
 21
184.82327698666509
  0
LINE
  8
_0-0_0
  6
CONTINUOUS
 62
    7
 10
1269.7567914444526
 20
184.82327698666509
 11
1269.2351943523697
 21
186.04215674277486
  0
LINE
  8
_0-0_0
  6
CONTINUOUS
 62
    7
 10
1269.2351943523697
 20
186.04215674277486
 11
1268.5547086404881
 21
187.16326426740474
  0
LINE
  8
_0-0_0
  6
CONTINUOUS
 62
    7
 10
1268.5547086404881
 20
187.16326426740474
 11
1267.7360105228215
 21
188.15253527572654
  0
LINE
  8
_0-0_0
  6
CONTINUOUS
 62
    7
 10
1267.7357445071443
 20
286.49672893014463
 11
1268.5544199965666
 21
287.48586947892994
  0
LINE
  8
_0-0_0
  6
CONTINUOUS
 62
    7
 10
1268.5544199965666
 20
287.48586947892994
 11
1269.2348918505029
 21
288.60684159004978
  0
LINE
  8
_0-0_0
  6
CONTINUOUS
 62
    7
 10
1269.2348918505029
 20
288.60684159004978
 11
1269.7564842760071
 21
289.82558509314697
  0
LINE
  8
_0-0_0
  6
CONTINUOUS
 62
    7
 10
1269.7564842760071
 20
289.82558509314697
 11
1270.1033489511681
 21
291.10506908359389
  0
LINE
  8
_0-0_0
  6
CONTINUOUS
 62
    7
 10
1270.1033489511681
 20
291.10506908359389
 11
1270.2649465683539
 21
292.40641708779106
  0
LINE
  8
_0-0_0
  6
CONTINUOUS
 62
    7
 10
1270.2649465683539
 20
292.40641708779106
 11
1270.236367065738
 21
293.69008830514468
  0
LINE
  8
_0-0_0
  6
CONTINUOUS
 62
    7
 10
1270.236367065738
 20
293.69008830514468
 11
1270.0184788170461
 21
294.91707903528447
  0
LINE
  8
_0-0_0
  6
CONTINUOUS
 62
    7
 10
1270.0184788170461
 20
294.91707903528447
 11
1269.6179022464576
 21
296.05010778576241
  0
LINE
  8
_0-0_0
  6
CONTINUOUS
 62
    7
 10
1269.6179022464576
 20
296.05010778576241
 11
1269.0468086703681
 21
297.05474805133548
  0
LINE
  8
_0-0_0
  6
CONTINUOUS
 62
    7
 10
1269.0468086703681
 20
297.05474805133548
 11
1268.3225504781001
 21
297.90047434590679
  0
LINE
  8
_0-0_0
  6
CONTINUOUS
 62
    7
 10
1268.3225504781001
 20
297.90047434590679
 11
1267.4671338883334
 21
298.56158970397371
  0
LINE
  8
_0-0_0
  6
CONTINUOUS
 62
    7
 10
1294.3930431302538
 20
298.56158970397371
 11
1293.5376265404868
 21
297.90047434590679
  0
LINE
  8
_0-0_0
  6
CONTINUOUS
 62
    7
 10
1293.5376265404868
 20
297.90047434590679
 11
1292.8133683482188
 21
297.05474805133548
  0
LINE
  8
_0-0_0
  6
CONTINUOUS
 62
    7
 10
1292.8133683482188
 20
297.05474805133548
 11
1292.2422747721298
 21
296.05010778576241
  0
LINE
  8
_0-0_0
  6
CONTINUOUS
 62
    7
 10
1292.2422747721298
 20
296.05010778576241
 11
1291.841698201541
 21
294.91707903528447
  0
LINE
  8
_0-0_0
  6
CONTINUOUS
 62
    7
 10
1291.841698201541
 20
294.91707903528447
 11
1291.6238099528489
 21
293.69008830514468
  0
LINE
  8
_0-0_0
  6
CONTINUOUS
 62
    7
 10
1291.6238099528489
 20
293.69008830514468
 11
1291.5952304502334
 21
292.40641708779111
  0
LINE
  8
_0-0_0
  6
CONTINUOUS
 62
    7
 10
1291.5952304502334
 20
292.40641708779111
 11
1291.7568280674193
 21
291.10506908359389
  0
LINE
  8
_0-0_0
  6
CONTINUOUS
 62
    7
 10
1291.7568280674193
 20
291.10506908359389
 11
1292.1036927425803
 21
289.82558509314697
  0
LINE
  8
_0-0_0
  6
CONTINUOUS
 62
    7
 10
1292.1036927425803
 20
289.82558509314697
 11
1292.6252851680842
 21
288.60684159004984
  0
LINE
  8
_0-0_0
  6
CONTINUOUS
 62
    7
 10
1292.6252851680842
 20
288.60684159004984
 11
1293.3057570220203
 21
287.48586947892994
  0
LINE
  8
_0-0_0
  6
CONTINUOUS
 62
    7
 10
1293.3057570220203
 20
287.48586947892994
 11
1294.1244325114428
 21
286.49672893014463
  0
LINE
  8
_0-0_0
  6
CONTINUOUS
 62
    7
 10
1261.9469771211043
 20
238.6740977785158
 11
1273.5987011801922
 21
238.6740977785158
  0
LINE
  8
_0-0_0
  6
CONTINUOUS
 62
    7
 10
1273.5987011801922
 20
254.79893683356858
 11
1273.5987011801922
 21
238.6740977785158
  0
LINE
  8
_0-0_0
  6
CONTINUOUS
 62
    7
 10
1258.7532934951437
 20
241.82409777851575
 11
1269.5487011801922
 21
241.82409777851575
  0
LINE
  8
_0-0_0
  6
CONTINUOUS
 62
    7
 10
1269.5487011801922
 20
241.82409777851575
 11
1269.5487011801922
 21
256.80966936366565
  0
LINE
  8
_0-0_0
  6
CONTINUOUS
 62
    7
 10
1261.9469771211043
 20
235.97409777851578
 11
1273.5987011801922
 21
235.97409777851578
  0
LINE
  8
_0-0_0
  6
CONTINUOUS
 62
    7
 10
1273.5987011801922
 20
219.84925872346292
 11
1273.5987011801922
 21
235.97409777851578
  0
LINE
  8
_0-0_0
  6
CONTINUOUS
 62
    7
 10
1258.7532934951437
 20
232.82409777851583
 11
1269.5487011801922
 21
232.82409777851583
  0
LINE
  8
_0-0_0
  6
CONTINUOUS
 62
    7
 10
1269.5487011801922
 20
217.83852619336588
 11
1269.5487011801922
 21
232.82409777851583
  0
LINE
  8
_0-0_0
  6
CONTINUOUS
 62
    7
 10
1287.9987011801923
 20
254.79893683356858
 11
1287.9987011801923
 21
238.6740977785158
  0
LINE
  8
_0-0_0
  6
CONTINUOUS
 62
    7
 10
1292.0487011801922
 20
241.82409777851575
 11
1292.0487011801922
 21
256.80966936366565
  0
LINE
  8
_0-0_0
  6
CONTINUOUS
 62
    7
 10
1292.0487011801922
 20
241.82409777851575
 11
1302.844108865241
 21
241.82409777851575
  0
LINE
  8
_0-0_0
  6
CONTINUOUS
 62
    7
 10
1299.6504252392801
 20
235.97409777851578
 11
1287.9987011801923
 21
235.97409777851578
  0
LINE
  8
_0-0_0
  6
CONTINUOUS
 62
    7
 10
1287.9987011801923
 20
219.84925872346292
 11
1287.9987011801923
 21
235.97409777851578
  0
LINE
  8
_0-0_0
  6
CONTINUOUS
 62
    7
 10
1292.0487011801922
 20
232.82409777851583
 11
1302.844108865241
 21
232.82409777851583
  0
LINE
  8
_0-0_0
  6
CONTINUOUS
 62
    7
 10
1292.0487011801922
 20
232.82409777851583
 11
1292.0487011801922
 21
217.83852619336588
  0
ARC
  8
_0-0_0
  6
CONTINUOUS
 62
    7
 10
1280.7987011801922
 20
237.32409777851575
 40
18.899999999999999
 50
175.90395624184768
 51
184.09604375815232
  0
ARC
  8
_0-0_0
  6
CONTINUOUS
 62
    7
 10
1280.7987011801922
 20
237.32409777851575
 40
18.899999999999999
 50
247.60731219459836
 51
292.39268780540164
  0
ARC
  8
_0-0_0
  6
CONTINUOUS
 62
    7
 10
1280.7987011801922
 20
237.32409777851575
 40
18.899999999999999
 50
355.90395624184765
 51
4.096043758152363
  0
ARC
  8
_0-0_0
  6
CONTINUOUS
 62
    7
 10
1280.7987011801922
 20
237.32409777851575
 40
18.899999999999999
 50
67.607312194598336
 51
112.39268780540168
  0
ARC
  8
_0-0_0
  6
CONTINUOUS
 62
    7
 10
1280.7987011801922
 20
237.32409777851575
 40
22.500000000000004
 50
168.46304096718458
 51
191.53695903281542
  0
ARC
  8
_0-0_0
  6
CONTINUOUS
 62
    7
 10
1280.7987011801922
 20
237.32409777851575
 40
22.500000000000004
 50
240
 51
300
  0
ARC
  8
_0-0_0
  6
CONTINUOUS
 62
    7
 10
1280.7987011801922
 20
237.32409777851575
 40
22.500000000000004
 50
348.46304096718455
 51
11.536959032815451
  0
ARC
  8
_0-0_0
  6
CONTINUOUS
 62
    7
 10
1280.7987011801922
 20
237.32409777851575
 40
22.500000000000004
 50
59.999999999999986
 51
120.00000000000001
  0
LINE
  8
_0-0_0
  6
CONTINUOUS
 62
    7
 10
1269.4471093287807
 20
212.826314971925
 11
1292.1502930316042
 21
212.826314971925
  0
LINE
  8
_0-0_0
  6
CONTINUOUS
 62
    7
 10
1261.7127196263823
 20
218.22631497192495
 11
1269.5487011801922
 21
218.22631497192495
  0
LINE
  8
_0-0_0
  6
CONTINUOUS
 62
    7
 10
1292.0487011801922
 20
218.22631497192495
 11
1299.8846827340026
 21
218.22631497192495
  0
LINE
  8
_0-0_0
  6
CONTINUOUS
 62
    7
 10
1257.5313260342189
 20
223.62631497192498
 11
1269.5487011801922
 21
223.62631497192498
  0
LINE
  8
_0-0_0
  6
CONTINUOUS
 62
    7
 10
1292.0487011801922
 20
223.62631497192498
 11
1304.0660763261656
 21
223.62631497192498
  0
LINE
  8
_0-0_0
  6
CONTINUOUS
 62
    7
 10
1255.1053790809672
 20
229.02631497192493
 11
1269.5487011801922
 21
229.02631497192493
  0
LINE
  8
_0-0_0
  6
CONTINUOUS
 62
    7
 10
1292.0487011801922
 20
229.02631497192493
 11
1306.4920232794173
 21
229.02631497192493
  0
LINE
  8
_0-0_0
  6
CONTINUOUS
 62
    7
 10
1253.9546542646099
 20
234.42631497192497
 11
1258.486084686245
 21
234.42631497192497
  0
LINE
  8
_0-0_0
  6
CONTINUOUS
 62
    7
 10
1303.1113176741396
 20
234.42631497192497
 11
1307.6427480957746
 21
234.42631497192497
  0
LINE
  8
_0-0_0
  6
CONTINUOUS
 62
    7
 10
1253.9148973362992
 20
239.826314971925
 11
1258.4382694062506
 21
239.826314971925
  0
LINE
  8
_0-0_0
  6
CONTINUOUS
 62
    7
 10
1303.1591329541338
 20
239.826314971925
 11
1307.6825050240855
 21
239.826314971925
  0
LINE
  8
_0-0_0
  6
CONTINUOUS
 62
    7
 10
1254.980975420006
 20
245.22631497192495
 11
1269.5487011801922
 21
245.22631497192495
  0
LINE
  8
_0-0_0
  6
CONTINUOUS
 62
    7
 10
1292.0487011801922
 20
245.22631497192495
 11
1306.6164269403785
 21
245.22631497192495
  0
LINE
  8
_0-0_0
  6
CONTINUOUS
 62
    7
 10
1257.302935226742
 20
250.62631497192498
 11
1269.5487011801922
 21
250.62631497192498
  0
LINE
  8
_0-0_0
  6
CONTINUOUS
 62
    7
 10
1292.0487011801922
 20
250.62631497192498
 11
1304.2944671336425
 21
250.62631497192498
  0
LINE
  8
_0-0_0
  6
CONTINUOUS
 62
    7
 10
1261.3249477656466
 20
256.02631497192493
 11
1269.5487011801922
 21
256.02631497192493
  0
LINE
  8
_0-0_0
  6
CONTINUOUS
 62
    7
 10
1292.0487011801922
 20
256.02631497192493
 11
1300.2724545947381
 21
256.02631497192493
  0
LINE
  8
_0-0_0
  6
CONTINUOUS
 62
    7
 10
1268.6297601267629
 20
261.42631497192497
 11
1292.967642233622
 21
261.42631497192497
  0
LINE
  8
_0-0_0
  6
CONTINUOUS
 62
    7
 10
1273.5987011801922
 20
223.62631497192498
 11
1287.9987011801923
 21
223.62631497192498
  0
LINE
  8
_0-0_0
  6
CONTINUOUS
 62
    7
 10
1273.5987011801922
 20
229.02631497192493
 11
1287.9987011801923
 21
229.02631497192493
  0
LINE
  8
_0-0_0
  6
CONTINUOUS
 62
    7
 10
1273.5987011801922
 20
234.42631497192497
 11
1287.9987011801923
 21
234.42631497192497
  0
LINE
  8
_0-0_0
  6
CONTINUOUS
 62
    7
 10
1273.5987011801922
 20
239.826314971925
 11
1287.9987011801923
 21
239.826314971925
  0
LINE
  8
_0-0_0
  6
CONTINUOUS
 62
    7
 10
1273.5987011801922
 20
245.22631497192495
 11
1287.9987011801923
 21
245.22631497192495
  0
LINE
  8
_0-0_0
  6
CONTINUOUS
 62
    7
 10
1273.5987011801922
 20
250.62631497192498
 11
1287.9987011801923
 21
250.62631497192498
  0
LINE
  8
_0-0_0
  6
CONTINUOUS
 62
    7
 10
1278.0716016127835
 20
256.02631497192493
 11
1283.5258007476009
 21
256.02631497192493
  0
LINE
  8
_0-0_0
  6
CONTINUOUS
 62
    7
 10
1269.5487011801922
 20
235.97409777851578
 11
1269.5487011801922
 21
238.6740977785158
  0
LINE
  8
_0-0_0
  6
CONTINUOUS
 62
    7
 10
1292.0487011801922
 20
235.97409777851578
 11
1292.0487011801922
 21
238.6740977785158
  0
ARC
  8
_0-0_0
  6
CONTINUOUS
 62
    7
 10
1691.2875988852709
 20
237.32409777851575
 40
50.725750369634468
 50
303.06012261326634
 51
326.99697608872725
  0
LINE
  8
_0-0_0
  6
CONTINUOUS
 62
    7
 10
1668.2909833461133
 20
192.10930868447531
 11
1672.7366090157855
 21
199.81032331016547
  0
LINE
  8
_0-0_0
  6
CONTINUOUS
 62
    7
 10
1663.6150102907613
 20
194.80963753064478
 11
1668.0609071287049
 21
202.5111218924259
  0
LINE
  8
_0-0_0
  6
CONTINUOUS
 62
    7
 10
1714.2840904233044
 20
282.53867206939219
 11
1709.8385887547556
 21
274.83787224686637
  0
LINE
  8
_0-0_0
  6
CONTINUOUS
 62
    7
 10
1718.9600634786561
 20
279.83834322322275
 11
1714.5142906418357
 21
272.13707366460608
  0
LINE
  8
_0-0_0
  6
CONTINUOUS
 62
    7
 10
1748.8178958796357
 20
273.87466686600237
 11
1738.3943581646599
 21
267.82664262838694
  0
ARC
  8
_0-0_0
  6
CONTINUOUS
 62
    7
 10
1691.2875988852709
 20
237.32409777851575
 40
50.725750369634468
 50
27.119896557387559
 51
56.939877386733549
  0
ARC
  8
_0-0_0
  6
CONTINUOUS
 62
    7
 10
1691.2875988852709
 20
237.32409777851575
 40
50.725750369634468
 50
86.662422450258347
 51
116.9581941762073
  0
ARC
  8
_0-0_0
  6
CONTINUOUS
 62
    7
 10
1691.2875988852709
 20
237.32409777851575
 40
50.725750369634468
 50
146.73533729496526
 51
177.14542158387479
  0
ARC
  8
_0-0_0
  6
CONTINUOUS
 62
    7
 10
1691.2875988852709
 20
237.32409777851575
 40
50.725750369634468
 50
207.11989655738691
 51
236.93987738673354
  0
ARC
  8
_0-0_0
  6
CONTINUOUS
 62
    7
 10
1691.2875988852709
 20
237.32409777851575
 40
50.725750369634468
 50
266.662304331656
 51
296.9581941762076
  0
ARC
  8
_0-0_0
  6
CONTINUOUS
 62
    7
 10
1691.2875988852709
 20
237.32409777851575
 40
50.725750369634468
 50
326.99697608872754
 51
356.75437427783498
  0
LINE
  8
_0-0_0
  6
CONTINUOUS
 62
    7
 10
1781.0170873467634
 20
490.05200154658166
 11
1781.3548573881783
 21
489.68923299189419
  0
LINE
  8
_0-0_0
  6
CONTINUOUS
 62
    7
 10
1601.4455386997874
 20
490.05200154658166
 11
1601.2270924956001
 21
489.81635701533162
  0
LINE
  8
_0-0_0
  6
CONTINUOUS
 62
    7
 10
1689.415789684839
 20
470.46098964466978
 11
1689.2625988852169
 21
488.01491658564413
  0
LINE
  8
_0-0_0
  6
CONTINUOUS
 62
    7
 10
1702.0875988846451
 20
450.21491716012667
 11
1680.487598884645
 21
450.21491716012667
  0
LINE
  8
_0-0_0
  6
CONTINUOUS
 62
    7
 10
1702.0875988846451
 20
447.51491716012663
 11
1680.487598884645
 21
447.51491716012663
  0
LINE
  8
_0-0_0
  6
CONTINUOUS
 62
    7
 10
1702.0875988846451
 20
452.91491716012666
 11
1680.487598884645
 21
452.91491716012666
  0
LINE
  8
_0-0_0
  6
CONTINUOUS
 62
    7
 10
1702.0875988846451
 20
455.61491716012659
 11
1680.487598884645
 21
455.61491716012659
  0
LINE
  8
_0-0_0
  6
CONTINUOUS
 62
    7
 10
1702.0875988846451
 20
458.31491716012658
 11
1680.487598884645
 21
458.31491716012658
  0
LINE
  8
_0-0_0
  6
CONTINUOUS
 62
    7
 10
1702.0875988846451
 20
461.01491716012663
 11
1680.487598884645
 21
461.01491716012663
  0
LINE
  8
_0-0_0
  6
CONTINUOUS
 62
    7
 10
1702.0875988846451
 20
463.71491716012667
 11
1680.487598884645
 21
463.71491716012667
  0
LINE
  8
_0-0_0
  6
CONTINUOUS
 62
    7
 10
1702.0875988846451
 20
466.41491716012666
 11
1680.487598884645
 21
466.41491716012666
  0
LINE
  8
_0-0_0
  6
CONTINUOUS
 62
    7
 10
1702.0875988846451
 20
469.11491716012659
 11
1680.487598884645
 21
469.11491716012659
  0
LINE
  8
_0-0_0
  6
CONTINUOUS
 62
    7
 10
1702.0875988846451
 20
445.26491716012652
 11
1702.0875988846451
 21
470.01491716012663
  0
LINE
  8
_0-0_0
  6
CONTINUOUS
 62
    7
 10
1680.487598884645
 20
445.26491716012652
 11
1680.487598884645
 21
470.01491716012663
  0
LINE
  8
_0-0_0
  6
CONTINUOUS
 62
    7
 10
1702.0875988846451
 20
445.26491716012652
 11
1680.487598884645
 21
445.26491716012652
  0
LINE
  8
_0-0_0
  6
CONTINUOUS
 62
    7
 10
1693.1594080855937
 20
470.46098964466978
 11
1693.3125988852169
 21
488.01491658564413
  0
LINE
  8
_0-0_0
  6
CONTINUOUS
 62
    7
 10
1701.1469080858881
 20
470.46098964466978
 11
1701.3000988855106
 21
488.01491658564413
  0
LINE
  8
_0-0_0
  6
CONTINUOUS
 62
    7
 10
1681.2750988849364
 20
488.0149165856443
 11
1681.4282896845596
 21
470.46098964466978
  0
LINE
  8
_0-0_0
  6
CONTINUOUS
 62
    7
 10
1706.9941639115743
 20
470.46098964466972
 11
1707.1473547111968
 21
488.01491658564413
  0
LINE
  8
_0-0_0
  6
CONTINUOUS
 62
    7
 10
1675.4278430592897
 20
488.0149165856443
 11
1675.5810338589122
 21
470.46098964466978
  0
LINE
  8
_0-0_0
  6
CONTINUOUS
 62
    7
 10
1709.1344080862227
 20
470.46098964466972
 11
1709.2875988858452
 21
488.01491658564413
  0
LINE
  8
_0-0_0
  6
CONTINUOUS
 62
    7
 10
1673.2875988846965
 20
488.0149165856443
 11
1673.4407896843197
 21
470.46098964466978
  0
LINE
  8
_0-0_0
  6
CONTINUOUS
 62
    7
 10
1708.6844252208434
 20
470.01491658564407
 11
1673.8907725496983
 21
470.01491658564413
  0
ARC
  8
_0-0_0
  6
CONTINUOUS
 62
    7
 10
1692.7094252202151
 20
470.46491658564406
 40
0.4499999999999999
 50
270
 51
359.50000000000188
  0
ARC
  8
_0-0_0
  6
CONTINUOUS
 62
    7
 10
1689.8657725502176
 20
470.46491658564406
 40
0.4499999999999999
 50
180.4999999999981
 51
270
  0
ARC
  8
_0-0_0
  6
CONTINUOUS
 62
    7
 10
1700.6969252205095
 20
470.46491658564406
 40
0.4499999999999999
 50
270
 51
359.49999999999858
  0
ARC
  8
_0-0_0
  6
CONTINUOUS
 62
    7
 10
1681.8782725499382
 20
470.46491658564406
 40
0.4499999999999999
 50
180.4999999999981
 51
270
  0
ARC
  8
_0-0_0
  6
CONTINUOUS
 62
    7
 10
1706.5441810461962
 20
470.46491658564406
 40
0.4499999999999999
 50
270
 51
359.50000000000188
  0
ARC
  8
_0-0_0
  6
CONTINUOUS
 62
    7
 10
1676.0310167242915
 20
470.46491658564406
 40
0.4499999999999999
 50
180.4999999999981
 51
270
  0
ARC
  8
_0-0_0
  6
CONTINUOUS
 62
    7
 10
1708.6844252208434
 20
470.46491658564406
 40
0.4499999999999999
 50
270
 51
359.50000000000188
  0
ARC
  8
_0-0_0
  6
CONTINUOUS
 62
    7
 10
1673.8907725496983
 20
470.46491658564406
 40
0.4499999999999999
 50
180.4999999999981
 51
270
  0
LINE
  8
_0-0_0
  6
CONTINUOUS
 62
    7
 10
1594.5167615065686
 20
431.33235644729461
 11
1793.946448956711
 21
431.33235644729461
  0
LINE
  8
_0-0_0
  6
CONTINUOUS
 62
    7
 10
1607.3500866986728
 20
430.72464160369657
 11
1597.0313367012527
 21
425.56526660498662
  0
LINE
  8
_0-0_0
  6
CONTINUOUS
 62
    7
 10
1613.3032116971845
 20
430.72464160369657
 11
1595.0469617017488
 21
421.59651660597859
  0
LINE
  8
_0-0_0
  6
CONTINUOUS
 62
    7
 10
1619.2563366956963
 20
430.72464160369657
 11
1591.6735242025918
 21
417.37971973203287
  0
LINE
  8
_0-0_0
  6
CONTINUOUS
 62
    7
 10
1625.2094616942079
 20
430.72464160369657
 11
1597.6266492011034
 21
417.37971973203287
  0
LINE
  8
_0-0_0
  6
CONTINUOUS
 62
    7
 10
1631.1625866927197
 20
430.72464160369657
 11
1603.5797741996157
 21
417.37971973203287
  0
LINE
  8
_0-0_0
  6
CONTINUOUS
 62
    7
 10
1637.1157116912311
 20
430.72464160369657
 11
1609.5328991981269
 21
417.37971973203287
  0
LINE
  8
_0-0_0
  6
CONTINUOUS
 62
    7
 10
1643.0688366897434
 20
430.72464160369657
 11
1615.4860241966389
 21
417.37971973203287
  0
LINE
  8
_0-0_0
  6
CONTINUOUS
 62
    7
 10
1649.0219616882546
 20
430.72464160369657
 11
1621.4391491951505
 21
417.37971973203287
  0
LINE
  8
_0-0_0
  6
CONTINUOUS
 62
    7
 10
1654.9750866867666
 20
430.72464160369657
 11
1627.3922741936626
 21
417.37971973203287
  0
LINE
  8
_0-0_0
  6
CONTINUOUS
 62
    7
 10
1660.9282116852783
 20
430.72464160369657
 11
1633.3453991921738
 21
417.37971973203287
  0
LINE
  8
_0-0_0
  6
CONTINUOUS
 62
    7
 10
1666.8813366837899
 20
430.72464160369657
 11
1639.2985241906854
 21
417.37971973203287
  0
LINE
  8
_0-0_0
  6
CONTINUOUS
 62
    7
 10
1672.8344616823022
 20
430.72464160369657
 11
1645.2516491891975
 21
417.37971973203287
  0
LINE
  8
_0-0_0
  6
CONTINUOUS
 62
    7
 10
1678.7875866808131
 20
430.72464160369657
 11
1651.2047741877091
 21
417.37971973203287
  0
LINE
  8
_0-0_0
  6
CONTINUOUS
 62
    7
 10
1684.7407116793254
 20
430.72464160369657
 11
1657.1578991862209
 21
417.37971973203287
  0
LINE
  8
_0-0_0
  6
CONTINUOUS
 62
    7
 10
1690.693836677837
 20
430.72464160369657
 11
1663.1110241847325
 21
417.37971973203287
  0
LINE
  8
_0-0_0
  6
CONTINUOUS
 62
    7
 10
1696.6469616763486
 20
430.72464160369657
 11
1669.0641491832441
 21
417.37971973203287
  0
LINE
  8
_0-0_0
  6
CONTINUOUS
 62
    7
 10
1702.6000866748602
 20
430.72464160369657
 11
1675.0172741817564
 21
417.37971973203287
  0
LINE
  8
_0-0_0
  6
CONTINUOUS
 62
    7
 10
1708.5532116733718
 20
430.72464160369657
 11
1680.9703991802673
 21
417.37971973203287
  0
LINE
  8
_0-0_0
  6
CONTINUOUS
 62
    7
 10
1714.5063366718841
 20
430.72464160369657
 11
1686.9235241787792
 21
417.37971973203287
  0
LINE
  8
_0-0_0
  6
CONTINUOUS
 62
    7
 10
1720.4594616703951
 20
430.72464160369657
 11
1692.8766491772913
 21
417.37971973203287
  0
LINE
  8
_0-0_0
  6
CONTINUOUS
 62
    7
 10
1726.4125866689069
 20
430.72464160369657
 11
1698.8297741758029
 21
417.37971973203287
  0
LINE
  8
_0-0_0
  6
CONTINUOUS
 62
    7
 10
1732.365711667419
 20
430.72464160369657
 11
1704.7828991743149
 21
417.37971973203287
  0
LINE
  8
_0-0_0
  6
CONTINUOUS
 62
    7
 10
1738.3188366659306
 20
430.72464160369657
 11
1710.7360241728261
 21
417.37971973203287
  0
LINE
  8
_0-0_0
  6
CONTINUOUS
 62
    7
 10
1744.2719616644426
 20
430.72464160369657
 11
1716.6891491713377
 21
417.37971973203287
  0
LINE
  8
_0-0_0
  6
CONTINUOUS
 62
    7
 10
1750.2250866629538
 20
430.72464160369657
 11
1722.6422741698498
 21
417.37971973203287
  0
LINE
  8
_0-0_0
  6
CONTINUOUS
 62
    7
 10
1756.1782116614661
 20
430.72464160369657
 11
1728.5953991683616
 21
417.37971973203287
  0
LINE
  8
_0-0_0
  6
CONTINUOUS
 62
    7
 10
1762.1313366599775
 20
430.72464160369657
 11
1734.5485241668732
 21
417.37971973203287
  0
LINE
  8
_0-0_0
  6
CONTINUOUS
 62
    7
 10
1768.0844616584893
 20
430.72464160369657
 11
1740.5016491653848
 21
417.37971973203287
  0
LINE
  8
_0-0_0
  6
CONTINUOUS
 62
    7
 10
1774.0375866570009
 20
430.72464160369657
 11
1746.4547741638971
 21
417.37971973203287
  0
LINE
  8
_0-0_0
  6
CONTINUOUS
 62
    7
 10
1779.9907116555123
 20
430.72464160369657
 11
1752.4078991624081
 21
417.37971973203287
  0
LINE
  8
_0-0_0
  6
CONTINUOUS
 62
    7
 10
1785.9438366540248
 20
430.72464160369657
 11
1758.3610241609204
 21
417.37971973203287
  0
LINE
  8
_0-0_0
  6
CONTINUOUS
 62
    7
 10
1712.4366955591199
 20
385.92427540395897
 11
1670.1385022103191
 21
385.92427540395897
  0
LINE
  8
_0-0_0
  6
CONTINUOUS
 62
    7
 10
1670.1385022103191
 20
385.92427540395897
 11
1670.1385022103191
 21
430.92462939661505
  0
LINE
  8
_0-0_0
  6
CONTINUOUS
 62
    7
 10
1670.1385022103191
 20
430.92462939661505
 11
1712.4366955591199
 21
430.92462939661505
  0
LINE
  8
_0-0_0
  6
CONTINUOUS
 62
    7
 10
1712.4366955591199
 20
430.92462939661505
 11
1712.4366955591199
 21
385.92427540395897
  0
LINE
  8
_0-0_0
  6
CONTINUOUS
 62
    7
 10
1673.5832531860206
 20
430.77425097868399
 11
1674.0669445921501
 21
413.71637744779235
  0
LINE
  8
_0-0_0
  6
CONTINUOUS
 62
    7
 10
1674.0669445921501
 20
413.71637744779235
 11
1708.8307141147088
 21
413.6078569400072
  0
LINE
  8
_0-0_0
  6
CONTINUOUS
 62
    7
 10
1708.8307141147088
 20
413.6078569400072
 11
1709.5779553254595
 21
430.85021533413374
  0
LINE
  8
_0-0_0
  6
CONTINUOUS
 62
    7
 10
1680.0634777937757
 20
413.68227100248851
 11
1682.3083020119645
 21
411.62503223347153
  0
LINE
  8
_0-0_0
  6
CONTINUOUS
 62
    7
 10
1682.3083020119645
 20
411.62503223347153
 11
1682.6912243751501
 21
386.94901905604695
  0
LINE
  8
_0-0_0
  6
CONTINUOUS
 62
    7
 10
1682.6912243751501
 20
386.94901905604695
 11
1699.8126599177449
 21
386.89320850918563
  0
LINE
  8
_0-0_0
  6
CONTINUOUS
 62
    7
 10
1699.8126599177449
 20
386.89320850918563
 11
1700.7319836479833
 21
411.47155322960356
  0
LINE
  8
_0-0_0
  6
CONTINUOUS
 62
    7
 10
1700.7319836479833
 20
411.47155322960356
 11
1703.0682751513054
 21
413.7256792056026
  0
LINE
  8
_0-0_0
  6
CONTINUOUS
 62
    7
 10
1682.3083020119645
 20
411.62503223347153
 11
1700.8482556206109
 21
411.62503223347153
  0
LINE
  8
_0-0_0
  6
CONTINUOUS
 62
    7
 10
1669.9989758431668
 20
406.8516801838835
 11
1712.3684826685123
 21
406.8516801838835
  0
LINE
  8
_0-0_0
  6
CONTINUOUS
 62
    7
 10
1671.2965710576862
 20
405.15255909055838
 11
1711.3235852078355
 21
405.15255909055838
  0
LINE
  8
_0-0_0
  6
CONTINUOUS
 62
    7
 10
1689.7652111897874
 20
405.17426319211552
 11
1689.7125012288639
 21
388.00631886046995
  0
LINE
  8
_0-0_0
  6
CONTINUOUS
 62
    7
 10
1692.8611462476074
 20
405.0719438562034
 11
1692.8099865796514
 21
388.05592823545754
  0
LINE
  8
_0-0_0
  6
CONTINUOUS
 62
    7
 10
1675.5211193964742
 20
403.49684620034708
 11
1706.846339115205
 21
403.49684620034708
  0
LINE
  8
_0-0_0
  6
CONTINUOUS
 62
    7
 10
1712.2909680200937
 20
387.86989307925421
 11
1669.8749524056977
 21
387.86989307925421
  0
LINE
  8
_0-0_0
  6
CONTINUOUS
 62
    7
 10
1138.6743809653485
 20
431.33235644729461
 11
1138.6743809653485
 21
385.92427540395897
  0
LINE
  8
_0-0_0
  6
CONTINUOUS
 62
    7
 10
1173.4691563559734
 20
431.33235644729461
 11
1138.6743809653485
 21
431.33235644729461
  0
LINE
  8
_0-0_0
  6
CONTINUOUS
 62
    7
 10
1173.4691563559734
 20
385.92427540395897
 11
1138.6743809653485
 21
385.92427540395897
  0
LINE
  8
_0-0_0
  6
CONTINUOUS
 62
    7
 10
1259.6461788636616
 20
361.42902153172446
 11
1301.944372212462
 21
361.42902153172446
  0
TEXT
  8
_0-0_0
 62
    7
 10
1262.045275538062
 20
347.17902153172446
 40
15
 41
1
 50
0
  1
47±2
  0
TEXT
  8
_0-0_0
 62
    7
 10
1139.4243809653485
 20
389.87831592562674
 40
15
 41
1
 50
90
  1
50±2
  0
LINE
  8
_0-0_0
  6
CONTINUOUS
 62
    7
 10
1280.9565060067712
 20
413.6621171938998
 11
1312.5824617565199
 21
382.03616144415122
  0
LINE
  8
_0-0_0
  6
CONTINUOUS
 62
    7
 10
1312.5824617565199
 20
382.03616144415122
 11
1511.2791035577784
 21
382.03616144415122
  0
TEXT
  8
_0-0_0
 62
    7
 10
1384.760404595738
 20
383.40275699068491
 40
15
 41
1
 50
0
  1
アンカーナット
  0
LINE
  8
_0-0_0
  6
CONTINUOUS
 62
    7
 10
1259.6461788636616
 20
380.60025417060717
 11
1259.6461788636616
 21
361.42902153172446
  0
LINE
  8
_0-0_0
  6
CONTINUOUS
 62
    7
 10
1301.944372212462
 20
380.60025417060717
 11
1301.944372212462
 21
361.42902153172446
  0
LINE
  8
_0-0_0
  6
CONTINUOUS
 62
    7
 10
1280.7952755379874
 20
467.76491716012663
 11
1298.1686027593055
 21
450.39158993880852
  0
LINE
  8
_0-0_0
  6
CONTINUOUS
 62
    7
 10
1298.1686027593055
 20
450.39158993880852
 11
1511.2791035577784
 21
450.39158993880852
  0
TEXT
  8
_0-0_0
 62
    7
 10
1405.2952878970782
 20
451.09692587403026
 40
15
 41
1
 50
0
  1
M24ボルト
  0
TEXT
  8
_0-5_D-BYP-STR1
 62
    7
 10
1136.3114280636687
 20
207.32446568025298
 40
15
 41
1
 50
90
  1
φ200±5
  0
LINE
  8
_0-0_0
  6
CONTINUOUS
 62
    7
 10
1696.8550462477572
 20
223.6309960782925
 11
1697.5213974429462
 21
222.4768419525407
  0
LINE
  8
_0-0_0
  6
CONTINUOUS
 62
    7
 10
1685.0538003276993
 20
222.4768419524863
 11
1685.7201515228883
 21
223.63099607823818
  0
LINE
  8
_0-0_0
  6
CONTINUOUS
 62
    7
 10
1689.2625988853297
 20
222.68180016827128
 11
1689.2625988853297
 21
221.34909777789301
  0
LINE
  8
_0-0_0
  6
CONTINUOUS
 62
    7
 10
1693.3125988853299
 20
221.34909777789301
 11
1693.3125988853299
 21
222.68180016827128
  0
LINE
  8
_0-0_0
  6
CONTINUOUS
 62
    7
 10
1701.0288003282735
 20
224.50184195254064
 11
1700.3624491330841
 21
225.65599607829253
  0
LINE
  8
_0-0_0
  6
CONTINUOUS
 62
    7
 10
1682.2127486375614
 20
225.6559960782383
 11
1681.5463974423717
 21
224.50184195248633
  0
LINE
  8
_0-0_0
  6
CONTINUOUS
 62
    7
 10
1702.9557005855045
 20
228.2492475307528
 11
1704.1098547112567
 21
227.58289633556362
  0
LINE
  8
_0-0_0
  6
CONTINUOUS
 62
    7
 10
1677.5944971851013
 20
231.75665041598555
 11
1676.4403430593493
 21
231.09029922079645
  0
LINE
  8
_0-0_0
  6
CONTINUOUS
 62
    7
 10
1678.4653430593494
 20
227.5828963354694
 11
1679.6194971851016
 21
228.24924753065849
  0
LINE
  8
_0-0_0
  6
CONTINUOUS
 62
    7
 10
1706.1348547112566
 20
231.09029922089042
 11
1704.9807005855048
 21
231.75665041607968
  0
LINE
  8
_0-0_0
  6
CONTINUOUS
 62
    7
 10
1705.9298964954714
 20
235.29909777852126
 11
1707.2625988858501
 21
235.29909777852126
  0
LINE
  8
_0-0_0
  6
CONTINUOUS
 62
    7
 10
1675.3125988847014
 20
235.29909777841254
 11
1676.6453012750799
 21
235.29909777841254
  0
LINE
  8
_0-0_0
  6
CONTINUOUS
 62
    7
 10
1676.6453012750799
 20
239.34909777841253
 11
1675.3125988847014
 21
239.34909777841253
  0
LINE
  8
_0-0_0
  6
CONTINUOUS
 62
    7
 10
1707.2625988858501
 20
239.34909777852124
 11
1705.9298964954714
 21
239.34909777852124
  0
LINE
  8
_0-0_0
  6
CONTINUOUS
 62
    7
 10
1704.9807005854502
 20
242.89154514094849
 11
1706.134854711202
 21
243.55789633613767
  0
LINE
  8
_0-0_0
  6
CONTINUOUS
 62
    7
 10
1676.4403430592947
 20
243.55789633604346
 11
1677.5944971850465
 21
242.89154514085428
  0
LINE
  8
_0-0_0
  6
CONTINUOUS
 62
    7
 10
1679.6194971850468
 20
246.39894802618133
 11
1678.4653430592946
 21
247.06529922137051
  0
LINE
  8
_0-0_0
  6
CONTINUOUS
 62
    7
 10
1704.1098547112022
 20
247.06529922146456
 11
1702.9557005854499
 21
246.39894802627529
  0
LINE
  8
_0-0_0
  6
CONTINUOUS
 62
    7
 10
1700.3624491329899
 20
248.99219947869582
 11
1701.0288003281796
 21
250.1463536044478
  0
LINE
  8
_0-0_0
  6
CONTINUOUS
 62
    7
 10
1697.521397442852
 20
252.17135360444775
 11
1696.855046247663
 21
251.01719947869586
  0
LINE
  8
_0-0_0
  6
CONTINUOUS
 62
    7
 10
1689.2625988852219
 20
253.29909777904112
 11
1689.2625988852219
 21
251.96639538866276
  0
LINE
  8
_0-0_0
  6
CONTINUOUS
 62
    7
 10
1685.7201515227941
 20
251.01719947864137
 11
1685.0538003276051
 21
252.17135360439343
  0
LINE
  8
_0-0_0
  6
CONTINUOUS
 62
    7
 10
1681.5463974422787
 20
250.1463536043934
 11
1682.2127486374675
 21
248.99219947864151
  0
LINE
  8
_0-0_0
  6
CONTINUOUS
 62
    7
 10
1693.3125988852216
 20
251.96639538866251
 11
1693.3125988852216
 21
253.29909777904112
  0
CIRCLE
  8
_0-0_0
  6
CONTINUOUS
 62
    7
 10
1691.2875988852231
 20
237.32409777901822
 40
10.800000000000216
  0
ARC
  8
_0-0_0
  6
CONTINUOUS
 62
    7
 10
1683.3000988850358
 20
223.48934195248631
 40
2.0249999999999977
 50
149.99999999999983
 51
329.99999999999983
  0
ARC
  8
_0-0_0
  6
CONTINUOUS
 62
    7
 10
1691.2875988853295
 20
237.32409777789297
 40
14.399999999999988
 50
279.59406879190908
 51
290.40593120927889
  0
ARC
  8
_0-0_0
  6
CONTINUOUS
 62
    7
 10
1696.4653346659877
 20
223.40599599165157
 40
0.4500001732820183
 50
30.000000000008516
 51
110.40593120808607
  0
ARC
  8
_0-0_0
  6
CONTINUOUS
 62
    7
 10
1688.8125987120482
 20
222.68180016827128
 40
0.4500001732820163
 50
0
 51
80.405931208091985
  0
ARC
  8
_0-0_0
  6
CONTINUOUS
 62
    7
 10
1691.2875988853295
 20
221.34909777789301
 40
2.024999999999999
 50
180
 51
0
  0
ARC
  8
_0-0_0
  6
CONTINUOUS
 62
    7
 10
1693.7625990586116
 20
222.68180016827128
 40
0.450000173282079
 50
99.594068791907958
 51
180
  0
ARC
  8
_0-0_0
  6
CONTINUOUS
 62
    7
 10
1691.2875988850355
 20
237.32409777794268
 40
14.399999999999999
 50
249.59406879190897
 51
260.40593120927895
  0
ARC
  8
_0-0_0
  6
CONTINUOUS
 62
    7
 10
1700.7521607148535
 20
225.88099616493355
 40
0.4500001732820799
 50
129.59406879191445
 51
210.0000000000052
  0
ARC
  8
_0-0_0
  6
CONTINUOUS
 62
    7
 10
1686.1098631046584
 20
223.40599599159708
 40
0.4500001732820793
 50
69.594068791913898
 51
150.00000000000924
  0
ARC
  8
_0-0_0
  6
CONTINUOUS
 62
    7
 10
1699.2750988856103
 20
223.48934195254054
 40
2.024999999999999
 50
210.00000000000023
 51
30.00000000000027
  0
ARC
  8
_0-0_0
  6
CONTINUOUS
 62
    7
 10
1702.7307004988638
 20
227.85953594898299
 40
0.4500001732820158
 50
60.000000000002885
 51
140.40593120809055
  0
ARC
  8
_0-0_0
  6
CONTINUOUS
 62
    7
 10
1681.8230370557919
 20
225.88099616487924
 40
0.4500001732820166
 50
330.00000000000608
 51
50.405931208090536
  0
ARC
  8
_0-0_0
  6
CONTINUOUS
 62
    7
 10
1679.8444972717421
 20
227.85953594888895
 40
0.450000173282079
 50
39.594068791905279
 51
120.00000000000195
  0
ARC
  8
_0-0_0
  6
CONTINUOUS
 62
    7
 10
1691.2875988856099
 20
237.32409777799691
 40
14.399999999999988
 50
309.59406879190919
 51
320.40593120927849
  0
ARC
  8
_0-0_0
  6
CONTINUOUS
 62
    7
 10
1691.2875988848057
 20
237.32409777813291
 40
14.399999999999988
 50
219.59406879190919
 51
230.4059312092788
  0
ARC
  8
_0-0_0
  6
CONTINUOUS
 62
    7
 10
1705.1223547112563
 20
229.33659777822706
 40
2.0249999999999977
 50
239.99999999999983
 51
59.999999999999829
  0
ARC
  8
_0-0_0
  6
CONTINUOUS
 62
    7
 10
1677.4528430593496
 20
229.33659777813293
 40
2.0249999999999977
 50
120.00000000000017
 51
300.00000000000011
  0
ARC
  8
_0-0_0
  6
CONTINUOUS
 62
    7
 10
1691.2875988858002
 20
237.32409777822704
 40
14.399999999999999
 50
339.59406879190874
 51
350.40593120927866
  0
ARC
  8
_0-0_0
  6
CONTINUOUS
 62
    7
 10
1705.2057006721452
 20
232.14636199784931
 40
0.4500001732820807
 50
159.59406879190777
 51
239.99999999999801
  0
ARC
  8
_0-0_0
  6
CONTINUOUS
 62
    7
 10
1677.36949709846
 20
232.14636199775518
 40
0.4500001732820175
 50
300.00000000000284
 51
20.405931208094412
  0
ARC
  8
_0-0_0
  6
CONTINUOUS
 62
    7
 10
1691.2875988847018
 20
237.32409777841258
 40
14.399999999999999
 50
189.59406879190871
 51
200.40593120927875
  0
ARC
  8
_0-0_0
  6
CONTINUOUS
 62
    7
 10
1676.6453012750799
 20
234.84909760513068
 40
0.4500001732820793
 50
9.5940687919144203
 51
89.999999999999986
  0
ARC
  8
_0-0_0
  6
CONTINUOUS
 62
    7
 10
1691.2875988858495
 20
237.32409777852121
 40
14.399999999999999
 50
9.594068791909077
 51
20.405931209279114
  0
ARC
  8
_0-0_0
  6
CONTINUOUS
 62
    7
 10
1705.9298964954714
 20
234.84909760523939
 40
0.4500001732820163
 50
90
 51
170.40593120809734
  0
ARC
  8
_0-0_0
  6
CONTINUOUS
 62
    7
 10
1675.3125988847014
 20
237.32409777841258
 40
2.0249999999999968
 50
90
 51
270
  0
ARC
  8
_0-0_0
  6
CONTINUOUS
 62
    7
 10
1676.6453012750799
 20
239.79909795169473
 40
0.4500001732820149
 50
270
 51
350.40593120809751
  0
ARC
  8
_0-0_0
  6
CONTINUOUS
 62
    7
 10
1705.9298964954714
 20
239.79909795180345
 40
0.45000017328208
 50
189.59406879191434
 51
270
  0
ARC
  8
_0-0_0
  6
CONTINUOUS
 62
    7
 10
1707.2625988858501
 20
237.32409777852121
 40
2.024999999999999
 50
270
 51
90
  0
ARC
  8
_0-0_0
  6
CONTINUOUS
 62
    7
 10
1691.2875988847513
 20
237.324097778707
 40
14.399999999999999
 50
159.59406879190928
 51
170.40593120927869
  0
ARC
  8
_0-0_0
  6
CONTINUOUS
 62
    7
 10
1677.3694970984061
 20
242.50183355908447
 40
0.4500001732820793
 50
339.59406879190783
 51
60.000000000003872
  0
ARC
  8
_0-0_0
  6
CONTINUOUS
 62
    7
 10
1705.2057006720913
 20
242.50183355917878
 40
0.4500001732820141
 50
119.99999999999717
 51
200.40593120808228
  0
ARC
  8
_0-0_0
  6
CONTINUOUS
 62
    7
 10
1677.452843059295
 20
245.31159777870707
 40
2.0249999999999968
 50
60.000000000001002
 51
239.99999999999977
  0
ARC
  8
_0-0_0
  6
CONTINUOUS
 62
    7
 10
1702.7307004988093
 20
246.78865960804518
 40
0.4500001732820804
 50
219.59406879190519
 51
300.00000000000188
  0
ARC
  8
_0-0_0
  6
CONTINUOUS
 62
    7
 10
1705.1223547112018
 20
245.3115977788012
 40
2.0250000000000004
 50
300.00000000000023
 51
120.0000000000002
  0
ARC
  8
_0-0_0
  6
CONTINUOUS
 62
    7
 10
1691.2875988857459
 20
237.32409777880113
 40
14.399999999999999
 50
39.594068791909194
 51
50.405931209278897
  0
ARC
  8
_0-0_0
  6
CONTINUOUS
 62
    7
 10
1679.8444972716882
 20
246.78865960795088
 40
0.4500001732820149
 50
239.99999999999719
 51
320.40593120809058
  0
ARC
  8
_0-0_0
  6
CONTINUOUS
 62
    7
 10
1691.2875988849419
 20
237.32409777893704
 40
14.399999999999999
 50
129.59406879190919
 51
140.40593120927898
  0
ARC
  8
_0-0_0
  6
CONTINUOUS
 62
    7
 10
1700.7521607147594
 20
248.76719939205481
 40
0.450000173282014
 50
150.00000000000608
 51
230.40593120809049
  0
ARC
  8
_0-0_0
  6
CONTINUOUS
 62
    7
 10
1681.8230370556978
 20
248.76719939200049
 40
0.4500001732820784
 50
309.59406879190107
 51
30.000000000005155
  0
ARC
  8
_0-0_0
  6
CONTINUOUS
 62
    7
 10
1696.4653346658936
 20
251.24219956533688
 40
0.4500001732820784
 50
249.59406879190777
 51
330.00000000000932
  0
ARC
  8
_0-0_0
  6
CONTINUOUS
 62
    7
 10
1693.7625990585032
 20
251.96639538866251
 40
0.4500001732820145
 50
180
 51
260.405931208092
  0
ARC
  8
_0-0_0
  6
CONTINUOUS
 62
    7
 10
1688.812598711939
 20
251.96639538866276
 40
0.4500001732820775
 50
279.59406879191431
 51
0.0000000000000127
  0
ARC
  8
_0-0_0
  6
CONTINUOUS
 62
    7
 10
1691.2875988852218
 20
237.32409777904115
 40
14.399999999999999
 50
99.594068791908981
 51
110.40593120927871
  0
ARC
  8
_0-0_0
  6
CONTINUOUS
 62
    7
 10
1686.1098631045638
 20
251.24219956528256
 40
0.4500001732820155
 50
210.00000000000841
 51
290.40593120809672
  0
ARC
  8
_0-0_0
  6
CONTINUOUS
 62
    7
 10
1683.3000988849412
 20
251.15885360439333
 40
2.0249999999999964
 50
30.00000000000022
 51
210.00000000000009
  0
ARC
  8
_0-0_0
  6
CONTINUOUS
 62
    7
 10
1691.2875988855158
 20
237.32409777899136
 40
14.399999999999999
 50
69.59406879190901
 51
80.40593120927899
  0
ARC
  8
_0-0_0
  6
CONTINUOUS
 62
    7
 10
1691.2875988852218
 20
253.29909777904112
 40
2.0249999999999964
 50
0
 51
180
  0
ARC
  8
_0-0_0
  6
CONTINUOUS
 62
    7
 10
1699.2750988855155
 20
251.15885360444773
 40
2.0249999999999964
 50
329.99999999999977
 51
149.99999999999983
  0
ARC
  8
_0-0_0
  6
CONTINUOUS
 62
    7
 10
1691.2875988852709
 20
237.32409777851575
 40
22.500000000000004
 50
245.23971391453887
 51
335.37279488227131
  0
ARC
  8
_0-0_0
  6
CONTINUOUS
 62
    7
 10
1691.2875988852709
 20
237.32409777851575
 40
22.500000000000004
 50
154.96686153931546
 51
245.2397139145389
  0
ARC
  8
_0-0_0
  6
CONTINUOUS
 62
    7
 10
1691.2875988852709
 20
237.32409777851575
 40
22.500000000000004
 50
53.083602636363217
 51
154.96686153931546
  0
LINE
  8
_0-0_0
  6
CONTINUOUS
 62
    7
 10
1708.4218236347817
 20
261.58328866018456
 11
1704.8022027549541
 21
255.3131356139738
  0
LINE
  8
_0-0_0
  6
CONTINUOUS
 62
    7
 10
1703.7464105881268
 20
264.28458759143973
 11
1700.1271105387329
 21
258.01499030948946
  0
LINE
  8
_0-0_0
  6
CONTINUOUS
 62
    7
 10
1677.7904699205849
 20
219.32194485974969
 11
1674.1711698711911
 21
213.0523475777994
  0
LINE
  8
_0-0_0
  6
CONTINUOUS
 62
    7
 10
1682.4332004158537
 20
216.56403099396763
 11
1678.848562730484
 21
210.35447821242039
  0
LINE
  8
_0-0_0
  6
CONTINUOUS
 62
    7
 10
1663.6151342918843
 20
279.83834322322275
 11
1668.0609071287049
 21
272.13707366460568
  0
LINE
  8
_0-0_0
  6
CONTINUOUS
 62
    7
 10
1668.2911073472358
 20
282.53867206939219
 11
1672.7366090157855
 21
274.83787224686603
  0
LINE
  8
_0-0_0
  6
CONTINUOUS
 62
    7
 10
1674.1533741357589
 20
261.58328866018417
 11
1677.7729950155867
 21
255.31313561397346
  0
LINE
  8
_0-0_0
  6
CONTINUOUS
 62
    7
 10
1678.8287871824139
 20
264.28458759143945
 11
1682.4480872318077
 21
258.01499030948935
  0
ARC
  8
_0-0_0
  6
CONTINUOUS
 62
    7
 10
1691.2875988852709
 20
237.32409777851575
 40
29.700000000000003
 50
125.2334953705433
 51
154.96686153931546
  0
ARC
  8
_0-0_0
  6
CONTINUOUS
 62
    7
 10
1691.2875988852709
 20
237.32409777851575
 40
29.700000000000003
 50
65.197694515571897
 51
114.80230548442907
  0
LINE
  8
_0-0_0
  6
CONTINUOUS
 62
    7
 10
1640.6239591486003
 20
239.85030017116998
 11
1649.5139133706866
 21
239.85030017116998
  0
LINE
  8
_0-0_0
  6
CONTINUOUS
 62
    7
 10
1640.6376600379822
 20
234.45218005398252
 11
1649.5362565286052
 21
234.45218005398252
  0
LINE
  8
_0-0_0
  6
CONTINUOUS
 62
    7
 10
1661.6952299116429
 20
239.85030017116998
 11
1668.9298641728415
 21
239.85030017116998
  0
LINE
  8
_0-0_0
  6
CONTINUOUS
 62
    7
 10
1661.726778724397
 20
234.45218005398252
 11
1668.9716384850656
 21
234.45218005398252
  0
ARC
  8
_0-0_0
  6
CONTINUOUS
 62
    7
 10
1691.2875988852709
 20
237.32409777851575
 40
29.700000000000003
 50
185.54903310053945
 51
234.80852402842748
  0
ARC
  8
_0-0_0
  6
CONTINUOUS
 62
    7
 10
1691.2875988852709
 20
237.32409777851575
 40
29.700000000000003
 50
154.96686153931546
 51
175.12067902135314
  0
ARC
  8
_0-0_0
  6
CONTINUOUS
 62
    7
 10
1691.2875988852709
 20
237.32409777851575
 40
41.850000000000001
 50
63.687078723912727
 51
116.31292127608819
  0
ARC
  8
_0-0_0
  6
CONTINUOUS
 62
    7
 10
1691.2875988852709
 20
237.32409777851575
 40
41.850000000000001
 50
123.7106189233517
 51
176.53933622636498
  0
ARC
  8
_0-0_0
  6
CONTINUOUS
 62
    7
 10
1691.2875988852709
 20
237.32409777851575
 40
41.850000000000001
 50
183.93496271898408
 51
236.28938107664823
  0
ARC
  8
_0-0_0
  6
CONTINUOUS
 62
    7
 10
1691.2875988852709
 20
237.32409777851575
 40
41.850000000000001
 50
243.68707872391181
 51
296.3129212760864
  0
ARC
  8
_0-0_0
  6
CONTINUOUS
 62
    7
 10
1691.2875988852709
 20
237.32409777851575
 40
29.700000000000003
 50
305.23349537053963
 51
335.37279488227136
  0
ARC
  8
_0-0_0
  6
CONTINUOUS
 62
    7
 10
1691.2875988852709
 20
237.32409777851575
 40
29.700000000000003
 50
245.23971391453887
 51
294.80230548442455
  0
LINE
  8
_0-0_0
  6
CONTINUOUS
 62
    7
 10
1703.7464105881252
 20
210.36360796559111
 11
1700.1271105387309
 21
216.63320524754107
  0
LINE
  8
_0-0_0
  6
CONTINUOUS
 62
    7
 10
1714.2842144244278
 20
192.10930868447531
 11
1709.8385887547549
 21
199.81032331016496
  0
LINE
  8
_0-0_0
  6
CONTINUOUS
 62
    7
 10
1718.9601874797791
 20
194.80963753064478
 11
1714.5142906418355
 21
202.51112189242505
  0
LINE
  8
_0-0_0
  6
CONTINUOUS
 62
    7
 10
1708.4218236347806
 20
213.06490689684625
 11
1704.802202754953
 21
219.33505994305676
  0
ARC
  8
_0-0_0
  6
CONTINUOUS
 62
    7
 10
1691.2875988852709
 20
237.32409777851575
 40
29.700000000000003
 50
4.8793209786468763
 51
54.766504629457835
  0
ARC
  8
_0-0_0
  6
CONTINUOUS
 62
    7
 10
1691.2875988852709
 20
237.32409777851575
 40
29.700000000000003
 50
335.37279488227125
 51
354.45096689946052
  0
ARC
  8
_0-0_0
  6
CONTINUOUS
 62
    7
 10
1691.2875988852709
 20
237.32409777851575
 40
41.850000000000001
 50
3.4606637736350359
 51
56.289381076649306
  0
ARC
  8
_0-0_0
  6
CONTINUOUS
 62
    7
 10
1691.2875988852709
 20
237.32409777851575
 40
41.850000000000001
 50
303.71061892334967
 51
356.06503728101592
  0
LINE
  8
_0-0_0
  6
CONTINUOUS
 62
    7
 10
1720.848419046144
 20
234.45218005398252
 11
1713.603559285476
 21
234.45218005398252
  0
LINE
  8
_0-0_0
  6
CONTINUOUS
 62
    7
 10
1720.8799678588989
 20
239.85030017116998
 11
1713.6453335976996
 21
239.85030017116998
  0
LINE
  8
_0-0_0
  6
CONTINUOUS
 62
    7
 10
1741.9512386219401
 20
239.85030017116998
 11
1733.0612843998549
 21
239.85030017116998
  0
LINE
  8
_0-0_0
  6
CONTINUOUS
 62
    7
 10
1741.9375377325582
 20
234.45218005398252
 11
1733.0389412419365
 21
234.45218005398252
  0
LINE
  8
_0-0_0
  6
CONTINUOUS
 62
    7
 10
1188.2248448325361
 20
1027.4530737892544
 11
1138.6743809653485
 21
1027.4530737892544
  0
LINE
  8
_0-0_0
  6
CONTINUOUS
 62
    7
 10
1138.6743809653485
 20
802.45314584246148
 11
1138.6743809653485
 21
1072.453059378613
  0
TEXT
  8
_0-0_0
 62
    7
 10
1136.0493809653485
 20
1042.4530665839334
 40
15
 41
1
 50
90
  1
50
  0
LINE
  8
_0-0_0
  6
CONTINUOUS
 62
    7
 10
1188.2248448325361
 20
982.453088199896
 11
1138.6743809653485
 21
982.453088199896
  0
TEXT
  8
_0-0_0
 62
    7
 10
1136.0493809653485
 20
997.4530809945752
 40
15
 41
1
 50
90
  1
50
  0
LINE
  8
_0-0_0
  6
CONTINUOUS
 62
    7
 10
1188.2248448325361
 20
937.4531026105376
 11
1138.6743809653485
 21
937.4531026105376
  0
TEXT
  8
_0-0_0
 62
    7
 10
1136.0493809653485
 20
952.4530954052168
 40
15
 41
1
 50
90
  1
50
  0
LINE
  8
_0-0_0
  6
CONTINUOUS
 62
    7
 10
1188.2248448325361
 20
892.45311702117874
 11
1138.6743809653485
 21
892.45311702117874
  0
TEXT
  8
_0-0_0
 62
    7
 10
1136.0493809653485
 20
907.45310981585772
 40
15
 41
1
 50
90
  1
50
  0
LINE
  8
_0-0_0
  6
CONTINUOUS
 62
    7
 10
1188.2248448325361
 20
847.45313143182034
 11
1138.6743809653485
 21
847.45313143182034
  0
TEXT
  8
_0-0_0
 62
    7
 10
1136.0493809653485
 20
862.45312422649965
 40
15
 41
1
 50
90
  1
50
  0
LINE
  8
_0-0_0
  6
CONTINUOUS
 62
    7
 10
1188.2248448325361
 20
802.45314584246148
 11
1138.6743809653485
 21
802.45314584246148
  0
TEXT
  8
_0-0_0
 62
    7
 10
1136.0493809653485
 20
817.45313863714091
 40
15
 41
1
 50
90
  1
50
  0
LINE
  8
_0-0_0
  6
CONTINUOUS
 62
    7
 10
1244.7952755386127
 20
1100.544276451531
 11
1316.7952755386127
 21
1100.544276451531
  0
LINE
  8
_0-0_0
  6
CONTINUOUS
 62
    7
 10
1244.7952755386127
 20
1082.1589710834069
 11
1244.7952755386127
 21
1100.544276451531
  0
LINE
  8
_0-0_0
  6
CONTINUOUS
 62
    7
 10
1316.7952755386127
 20
1082.1589710834069
 11
1316.7952755386127
 21
1100.544276451531
  0
CIRCLE
  8
_0-0_0
  6
CONTINUOUS
 62
    7
 10
1280.7952755386127
 20
1174.754484120258
 40
4.5
  0
CIRCLE
  8
_0-0_0
  6
CONTINUOUS
 62
    7
 10
1280.7952755386127
 20
1174.754484120258
 40
41.400000000000006
  0
CIRCLE
  8
_0-0_0
  6
DASHED2
 62
    7
 10
1280.7952755386127
 20
1174.754484120258
 40
38.25
  0
LINE
  8
_0-0_0
  6
CONTINUOUS
 62
    7
 10
1239.3952755386129
 20
1209.4947660218154
 11
1239.3952755386129
 21
1243.8585584140324
  0
LINE
  8
_0-0_0
  6
CONTINUOUS
 62
    7
 10
1322.1952755386128
 20
1209.4947660218154
 11
1322.1952755386128
 21
1243.8585584140324
  0
LINE
  8
_0-0_0
  6
CONTINUOUS
 62
    7
 10
1239.3952755386129
 20
1243.8585584140324
 11
1322.1952755386128
 21
1243.8585584140324
  0
TEXT
  8
_0-0_0
 62
    7
 10
1262.0452755386127
 20
1243.1085584140324
 40
15
 41
1
 50
0
  1
86±2
  0
CIRCLE
  8
_0-0_0
  6
CONTINUOUS
 62
    7
 10
1691.2875988852709
 20
1174.754484120258
 40
4.5
  0
CIRCLE
  8
_0-0_0
  6
CONTINUOUS
 62
    7
 10
1691.2875988852709
 20
1174.754484120258
 40
41.400000000000006
  0
CIRCLE
  8
_0-0_0
  6
DASHED2
 62
    7
 10
1691.2875988852709
 20
1174.754484120258
 40
38.25
  0
TEXT
  8
_0-0_0
 62
    7
 10
1262.0452755386127
 20
1099.794276451531
 40
15
 41
1
 50
0
  1
80±2
  0
LINE
  8
_0-0_0
  6
AI9-LType4
 62
    7
 10
1691.2875988852709
 20
1115.5561789981712
 11
1691.2875988852709
 21
1230.6833987631517
  0
LINE
  8
_0-0_0
  6
AI9-LType4
 62
    7
 10
1280.7952755386127
 20
1115.5561789981712
 11
1280.7952755386127
 21
1230.6833987631517
  0
TEXT
  8
_0-0_0
 62
    7
 10
1067.2258969226195
 20
753.70304868354276
 40
15
 41
1
 50
90
  1
650±10
  0
LINE
  8
_0-0_0
  6
CONTINUOUS
 62
    7
 10
1188.2248448325361
 20
1072.453059378613
 11
1069.8508969226195
 21
1072.453059378613
  0
LINE
  8
_0-0_0
  6
CONTINUOUS
 62
    7
 10
1249.2952755386127
 20
1037.3530593786131
 11
1249.2952755386127
 21
761.95305937861303
  0
LINE
  8
_0-0_0
  6
CONTINUOUS
 62
    7
 10
1258.2952755386127
 20
1037.3530593786131
 11
1258.2952755386127
 21
761.95305937861303
  0
LINE
  8
_0-0_0
  6
CONTINUOUS
 62
    7
 10
1267.2952755386127
 20
761.95305937861303
 11
1267.2952755386127
 21
1037.3530593786131
  0
LINE
  8
_0-0_0
  6
CONTINUOUS
 62
    7
 10
1276.2952755386127
 20
761.95305937861303
 11
1276.2952755386127
 21
1037.3530593786131
  0
LINE
  8
_0-0_0
  6
CONTINUOUS
 62
    7
 10
1285.2952755386127
 20
761.95305937861303
 11
1285.2952755386127
 21
1037.3530593786131
  0
LINE
  8
_0-0_0
  6
CONTINUOUS
 62
    7
 10
1294.2952755386125
 20
761.95305937861303
 11
1294.2952755386125
 21
1037.3530593786131
  0
LINE
  8
_0-0_0
  6
CONTINUOUS
 62
    7
 10
1303.2952755386127
 20
761.95305937861303
 11
1303.2952755386127
 21
1037.3530593786131
  0
LINE
  8
_0-0_0
  6
CONTINUOUS
 62
    7
 10
1312.2952755386127
 20
761.95305937861303
 11
1312.2952755386127
 21
1037.3530593786131
  0
ARC
  8
_0-0_0
  6
CONTINUOUS
 62
    7
 10
1244.7952755386127
 20
761.95305937861303
 40
4.5
 50
270
 51
0
  0
ARC
  8
_0-0_0
  6
CONTINUOUS
 62
    7
 10
1262.7952755386127
 20
761.95305937861303
 40
4.5
 50
180
 51
0
  0
ARC
  8
_0-0_0
  6
CONTINUOUS
 62
    7
 10
1280.7952755386127
 20
761.95305937861303
 40
4.5
 50
180
 51
0
  0
ARC
  8
_0-0_0
  6
CONTINUOUS
 62
    7
 10
1298.7952755386127
 20
761.95305937861303
 40
4.5
 50
180
 51
0
  0
ARC
  8
_0-0_0
  6
CONTINUOUS
 62
    7
 10
1316.7952755386127
 20
761.95305937861303
 40
4.5
 50
180
 51
270
  0
ARC
  8
_0-0_0
  6
CONTINUOUS
 62
    7
 10
1253.7952755386127
 20
1037.3530593786131
 40
4.5
 50
0
 51
180
  0
ARC
  8
_0-0_0
  6
CONTINUOUS
 62
    7
 10
1271.7952755386127
 20
1037.3530593786131
 40
4.5
 50
0
 51
180
  0
ARC
  8
_0-0_0
  6
CONTINUOUS
 62
    7
 10
1289.7952755386127
 20
1037.3530593786131
 40
4.5
 50
0
 51
180
  0
ARC
  8
_0-0_0
  6
CONTINUOUS
 62
    7
 10
1307.7952755386127
 20
1037.3530593786131
 40
4.5
 50
0
 51
180
  0
LINE
  8
_0-0_0
  6
DASHED2
 62
    7
 10
1244.7952755386127
 20
1045.453059378613
 11
1244.7952755386127
 21
1072.453059378613
  0
LINE
  8
_0-0_0
  6
DASHED2
 62
    7
 10
1316.7952755386127
 20
1045.453059378613
 11
1316.7952755386127
 21
1072.453059378613
  0
LINE
  8
_0-0_0
  6
CONTINUOUS
 62
    7
 10
1244.7952755386127
 20
1072.453059378613
 11
1316.7952755386127
 21
1072.453059378613
  0
LINE
  8
_0-0_0
  6
CONTINUOUS
 62
    7
 10
1242.0952755386129
 20
1072.453059378613
 11
1319.4952755386128
 21
1072.453059378613
  0
LINE
  8
_0-0_0
  6
CONTINUOUS
 62
    7
 10
1319.4952755386128
 20
1072.453059378613
 11
1319.4952755386128
 21
1045.453059378613
  0
LINE
  8
_0-0_0
  6
CONTINUOUS
 62
    7
 10
1319.4952755386128
 20
1045.453059378613
 11
1242.0952755386129
 21
1045.453059378613
  0
LINE
  8
_0-0_0
  6
CONTINUOUS
 62
    7
 10
1242.0952755386129
 20
1045.453059378613
 11
1242.0952755386129
 21
1072.453059378613
  0
LINE
  8
_0-0_0
  6
CONTINUOUS
 62
    7
 10
1244.7952755386127
 20
757.45305937861303
 11
1244.7952755386127
 21
1045.453059378613
  0
LINE
  8
_0-0_0
  6
CONTINUOUS
 62
    7
 10
1316.7952755386127
 20
1045.453059378613
 11
1316.7952755386127
 21
757.45305937861303
  0
LINE
  8
_0-0_0
  6
CONTINUOUS
 62
    7
 10
1249.2952755386127
 20
1027.4530737892544
 11
1258.2952755386127
 21
1027.4530737892544
  0
LINE
  8
_0-0_0
  6
CONTINUOUS
 62
    7
 10
1249.2952755386127
 20
802.45314584246148
 11
1258.2952755386127
 21
802.45314584246148
  0
LINE
  8
_0-0_0
  6
CONTINUOUS
 62
    7
 10
1249.2952755386127
 20
982.453088199896
 11
1258.2952755386127
 21
982.453088199896
  0
LINE
  8
_0-0_0
  6
CONTINUOUS
 62
    7
 10
1249.2952755386127
 20
988.32723403676528
 11
1258.2952755386127
 21
988.32723403676528
  0
LINE
  8
_0-0_0
  6
CONTINUOUS
 62
    7
 10
1249.2952755386127
 20
993.72723403676537
 11
1258.2952755386127
 21
993.72723403676537
  0
LINE
  8
_0-0_0
  6
CONTINUOUS
 62
    7
 10
1249.2952755386127
 20
999.12723403676534
 11
1258.2952755386127
 21
999.12723403676534
  0
LINE
  8
_0-0_0
  6
CONTINUOUS
 62
    7
 10
1249.2952755386127
 20
1004.5272340367652
 11
1258.2952755386127
 21
1004.5272340367652
  0
LINE
  8
_0-0_0
  6
CONTINUOUS
 62
    7
 10
1249.2952755386127
 20
1009.9272340367654
 11
1258.2952755386127
 21
1009.9272340367654
  0
LINE
  8
_0-0_0
  6
CONTINUOUS
 62
    7
 10
1249.2952755386127
 20
1015.3272340367653
 11
1258.2952755386127
 21
1015.3272340367653
  0
LINE
  8
_0-0_0
  6
CONTINUOUS
 62
    7
 10
1249.2952755386127
 20
1020.7272340367654
 11
1258.2952755386127
 21
1020.7272340367654
  0
LINE
  8
_0-0_0
  6
CONTINUOUS
 62
    7
 10
1249.2952755386127
 20
937.4531026105376
 11
1258.2952755386127
 21
937.4531026105376
  0
LINE
  8
_0-0_0
  6
CONTINUOUS
 62
    7
 10
1249.2952755386127
 20
892.45311702117874
 11
1258.2952755386127
 21
892.45311702117874
  0
LINE
  8
_0-0_0
  6
CONTINUOUS
 62
    7
 10
1249.2952755386127
 20
847.45313143182034
 11
1258.2952755386127
 21
847.45313143182034
  0
LINE
  8
_0-0_0
  6
CONTINUOUS
 62
    7
 10
1249.2952755386127
 20
898.32726285804847
 11
1258.2952755386127
 21
898.32726285804847
  0
LINE
  8
_0-0_0
  6
CONTINUOUS
 62
    7
 10
1249.2952755386127
 20
903.72726285804856
 11
1258.2952755386127
 21
903.72726285804856
  0
LINE
  8
_0-0_0
  6
CONTINUOUS
 62
    7
 10
1249.2952755386127
 20
909.12726285804854
 11
1258.2952755386127
 21
909.12726285804854
  0
LINE
  8
_0-0_0
  6
CONTINUOUS
 62
    7
 10
1249.2952755386127
 20
914.5272628580484
 11
1258.2952755386127
 21
914.5272628580484
  0
LINE
  8
_0-0_0
  6
CONTINUOUS
 62
    7
 10
1249.2952755386127
 20
919.92726285804861
 11
1258.2952755386127
 21
919.92726285804861
  0
LINE
  8
_0-0_0
  6
CONTINUOUS
 62
    7
 10
1249.2952755386127
 20
925.32726285804847
 11
1258.2952755386127
 21
925.32726285804847
  0
LINE
  8
_0-0_0
  6
CONTINUOUS
 62
    7
 10
1249.2952755386127
 20
930.72726285804856
 11
1258.2952755386127
 21
930.72726285804856
  0
LINE
  8
_0-0_0
  6
CONTINUOUS
 62
    7
 10
1249.2952755386127
 20
808.32729167933132
 11
1258.2952755386127
 21
808.32729167933132
  0
LINE
  8
_0-0_0
  6
CONTINUOUS
 62
    7
 10
1249.2952755386127
 20
813.7272916793313
 11
1258.2952755386127
 21
813.7272916793313
  0
LINE
  8
_0-0_0
  6
CONTINUOUS
 62
    7
 10
1249.2952755386127
 20
819.12729167933139
 11
1258.2952755386127
 21
819.12729167933139
  0
LINE
  8
_0-0_0
  6
CONTINUOUS
 62
    7
 10
1249.2952755386127
 20
824.52729167933126
 11
1258.2952755386127
 21
824.52729167933126
  0
LINE
  8
_0-0_0
  6
CONTINUOUS
 62
    7
 10
1249.2952755386127
 20
829.92729167933135
 11
1258.2952755386127
 21
829.92729167933135
  0
LINE
  8
_0-0_0
  6
CONTINUOUS
 62
    7
 10
1249.2952755386127
 20
835.32729167933132
 11
1258.2952755386127
 21
835.32729167933132
  0
LINE
  8
_0-0_0
  6
CONTINUOUS
 62
    7
 10
1249.2952755386127
 20
840.72729167933119
 11
1258.2952755386127
 21
840.72729167933119
  0
LINE
  8
_0-0_0
  6
CONTINUOUS
 62
    7
 10
1267.2952755386127
 20
1027.4530737892544
 11
1276.2952755386127
 21
1027.4530737892544
  0
LINE
  8
_0-0_0
  6
CONTINUOUS
 62
    7
 10
1267.2952755386127
 20
802.45314584246148
 11
1276.2952755386127
 21
802.45314584246148
  0
LINE
  8
_0-0_0
  6
CONTINUOUS
 62
    7
 10
1267.2952755386127
 20
982.453088199896
 11
1276.2952755386127
 21
982.453088199896
  0
LINE
  8
_0-0_0
  6
CONTINUOUS
 62
    7
 10
1267.2952755386127
 20
988.32723403676528
 11
1276.2952755386127
 21
988.32723403676528
  0
LINE
  8
_0-0_0
  6
CONTINUOUS
 62
    7
 10
1267.2952755386127
 20
993.72723403676537
 11
1276.2952755386127
 21
993.72723403676537
  0
LINE
  8
_0-0_0
  6
CONTINUOUS
 62
    7
 10
1267.2952755386127
 20
999.12723403676534
 11
1276.2952755386127
 21
999.12723403676534
  0
LINE
  8
_0-0_0
  6
CONTINUOUS
 62
    7
 10
1267.2952755386127
 20
1004.5272340367652
 11
1276.2952755386127
 21
1004.5272340367652
  0
LINE
  8
_0-0_0
  6
CONTINUOUS
 62
    7
 10
1267.2952755386127
 20
1009.9272340367654
 11
1276.2952755386127
 21
1009.9272340367654
  0
LINE
  8
_0-0_0
  6
CONTINUOUS
 62
    7
 10
1267.2952755386127
 20
1015.3272340367653
 11
1276.2952755386127
 21
1015.3272340367653
  0
LINE
  8
_0-0_0
  6
CONTINUOUS
 62
    7
 10
1267.2952755386127
 20
1020.7272340367654
 11
1276.2952755386127
 21
1020.7272340367654
  0
LINE
  8
_0-0_0
  6
CONTINUOUS
 62
    7
 10
1267.2952755386127
 20
937.4531026105376
 11
1276.2952755386127
 21
937.4531026105376
  0
LINE
  8
_0-0_0
  6
CONTINUOUS
 62
    7
 10
1267.2952755386127
 20
892.45311702117874
 11
1276.2952755386127
 21
892.45311702117874
  0
LINE
  8
_0-0_0
  6
CONTINUOUS
 62
    7
 10
1267.2952755386127
 20
847.45313143182034
 11
1276.2952755386127
 21
847.45313143182034
  0
LINE
  8
_0-0_0
  6
CONTINUOUS
 62
    7
 10
1267.2952755386127
 20
898.32726285804847
 11
1276.2952755386127
 21
898.32726285804847
  0
LINE
  8
_0-0_0
  6
CONTINUOUS
 62
    7
 10
1267.2952755386127
 20
903.72726285804856
 11
1276.2952755386127
 21
903.72726285804856
  0
LINE
  8
_0-0_0
  6
CONTINUOUS
 62
    7
 10
1267.2952755386127
 20
909.12726285804854
 11
1276.2952755386127
 21
909.12726285804854
  0
LINE
  8
_0-0_0
  6
CONTINUOUS
 62
    7
 10
1267.2952755386127
 20
914.5272628580484
 11
1276.2952755386127
 21
914.5272628580484
  0
LINE
  8
_0-0_0
  6
CONTINUOUS
 62
    7
 10
1267.2952755386127
 20
919.92726285804861
 11
1276.2952755386127
 21
919.92726285804861
  0
LINE
  8
_0-0_0
  6
CONTINUOUS
 62
    7
 10
1267.2952755386127
 20
925.32726285804847
 11
1276.2952755386127
 21
925.32726285804847
  0
LINE
  8
_0-0_0
  6
CONTINUOUS
 62
    7
 10
1267.2952755386127
 20
930.72726285804856
 11
1276.2952755386127
 21
930.72726285804856
  0
LINE
  8
_0-0_0
  6
CONTINUOUS
 62
    7
 10
1267.2952755386127
 20
808.32729167933132
 11
1276.2952755386127
 21
808.32729167933132
  0
LINE
  8
_0-0_0
  6
CONTINUOUS
 62
    7
 10
1267.2952755386127
 20
813.7272916793313
 11
1276.2952755386127
 21
813.7272916793313
  0
LINE
  8
_0-0_0
  6
CONTINUOUS
 62
    7
 10
1267.2952755386127
 20
819.12729167933139
 11
1276.2952755386127
 21
819.12729167933139
  0
LINE
  8
_0-0_0
  6
CONTINUOUS
 62
    7
 10
1267.2952755386127
 20
824.52729167933126
 11
1276.2952755386127
 21
824.52729167933126
  0
LINE
  8
_0-0_0
  6
CONTINUOUS
 62
    7
 10
1267.2952755386127
 20
829.92729167933135
 11
1276.2952755386127
 21
829.92729167933135
  0
LINE
  8
_0-0_0
  6
CONTINUOUS
 62
    7
 10
1267.2952755386127
 20
835.32729167933132
 11
1276.2952755386127
 21
835.32729167933132
  0
LINE
  8
_0-0_0
  6
CONTINUOUS
 62
    7
 10
1267.2952755386127
 20
840.72729167933119
 11
1276.2952755386127
 21
840.72729167933119
  0
LINE
  8
_0-0_0
  6
CONTINUOUS
 62
    7
 10
1285.2952755386127
 20
1027.4530737892544
 11
1294.2952755386125
 21
1027.4530737892544
  0
LINE
  8
_0-0_0
  6
CONTINUOUS
 62
    7
 10
1285.2952755386127
 20
802.45314584246148
 11
1294.2952755386125
 21
802.45314584246148
  0
LINE
  8
_0-0_0
  6
CONTINUOUS
 62
    7
 10
1285.2952755386127
 20
982.453088199896
 11
1294.2952755386125
 21
982.453088199896
  0
LINE
  8
_0-0_0
  6
CONTINUOUS
 62
    7
 10
1285.2952755386127
 20
988.32723403676528
 11
1294.2952755386125
 21
988.32723403676528
  0
LINE
  8
_0-0_0
  6
CONTINUOUS
 62
    7
 10
1285.2952755386127
 20
993.72723403676537
 11
1294.2952755386125
 21
993.72723403676537
  0
LINE
  8
_0-0_0
  6
CONTINUOUS
 62
    7
 10
1285.2952755386127
 20
999.12723403676534
 11
1294.2952755386125
 21
999.12723403676534
  0
LINE
  8
_0-0_0
  6
CONTINUOUS
 62
    7
 10
1285.2952755386127
 20
1004.5272340367652
 11
1294.2952755386125
 21
1004.5272340367652
  0
LINE
  8
_0-0_0
  6
CONTINUOUS
 62
    7
 10
1285.2952755386127
 20
1009.9272340367654
 11
1294.2952755386125
 21
1009.9272340367654
  0
LINE
  8
_0-0_0
  6
CONTINUOUS
 62
    7
 10
1285.2952755386127
 20
1015.3272340367653
 11
1294.2952755386125
 21
1015.3272340367653
  0
LINE
  8
_0-0_0
  6
CONTINUOUS
 62
    7
 10
1285.2952755386127
 20
1020.7272340367654
 11
1294.2952755386125
 21
1020.7272340367654
  0
LINE
  8
_0-0_0
  6
CONTINUOUS
 62
    7
 10
1285.2952755386127
 20
937.4531026105376
 11
1294.2952755386125
 21
937.4531026105376
  0
LINE
  8
_0-0_0
  6
CONTINUOUS
 62
    7
 10
1285.2952755386127
 20
892.45311702117874
 11
1294.2952755386125
 21
892.45311702117874
  0
LINE
  8
_0-0_0
  6
CONTINUOUS
 62
    7
 10
1285.2952755386127
 20
847.45313143182034
 11
1294.2952755386125
 21
847.45313143182034
  0
LINE
  8
_0-0_0
  6
CONTINUOUS
 62
    7
 10
1285.2952755386127
 20
898.32726285804847
 11
1294.2952755386125
 21
898.32726285804847
  0
LINE
  8
_0-0_0
  6
CONTINUOUS
 62
    7
 10
1285.2952755386127
 20
903.72726285804856
 11
1294.2952755386125
 21
903.72726285804856
  0
LINE
  8
_0-0_0
  6
CONTINUOUS
 62
    7
 10
1285.2952755386127
 20
909.12726285804854
 11
1294.2952755386125
 21
909.12726285804854
  0
LINE
  8
_0-0_0
  6
CONTINUOUS
 62
    7
 10
1285.2952755386127
 20
914.5272628580484
 11
1294.2952755386125
 21
914.5272628580484
  0
LINE
  8
_0-0_0
  6
CONTINUOUS
 62
    7
 10
1285.2952755386127
 20
919.92726285804861
 11
1294.2952755386125
 21
919.92726285804861
  0
LINE
  8
_0-0_0
  6
CONTINUOUS
 62
    7
 10
1285.2952755386127
 20
925.32726285804847
 11
1294.2952755386125
 21
925.32726285804847
  0
LINE
  8
_0-0_0
  6
CONTINUOUS
 62
    7
 10
1285.2952755386127
 20
930.72726285804856
 11
1294.2952755386125
 21
930.72726285804856
  0
LINE
  8
_0-0_0
  6
CONTINUOUS
 62
    7
 10
1285.2952755386127
 20
808.32729167933132
 11
1294.2952755386125
 21
808.32729167933132
  0
LINE
  8
_0-0_0
  6
CONTINUOUS
 62
    7
 10
1285.2952755386127
 20
813.7272916793313
 11
1294.2952755386125
 21
813.7272916793313
  0
LINE
  8
_0-0_0
  6
CONTINUOUS
 62
    7
 10
1285.2952755386127
 20
819.12729167933139
 11
1294.2952755386125
 21
819.12729167933139
  0
LINE
  8
_0-0_0
  6
CONTINUOUS
 62
    7
 10
1285.2952755386127
 20
824.52729167933126
 11
1294.2952755386125
 21
824.52729167933126
  0
LINE
  8
_0-0_0
  6
CONTINUOUS
 62
    7
 10
1285.2952755386127
 20
829.92729167933135
 11
1294.2952755386125
 21
829.92729167933135
  0
LINE
  8
_0-0_0
  6
CONTINUOUS
 62
    7
 10
1285.2952755386127
 20
835.32729167933132
 11
1294.2952755386125
 21
835.32729167933132
  0
LINE
  8
_0-0_0
  6
CONTINUOUS
 62
    7
 10
1285.2952755386127
 20
840.72729167933119
 11
1294.2952755386125
 21
840.72729167933119
  0
LINE
  8
_0-0_0
  6
CONTINUOUS
 62
    7
 10
1303.2952755386127
 20
1027.4530737892544
 11
1312.2952755386127
 21
1027.4530737892544
  0
LINE
  8
_0-0_0
  6
CONTINUOUS
 62
    7
 10
1303.2952755386127
 20
802.45314584246148
 11
1312.2952755386127
 21
802.45314584246148
  0
LINE
  8
_0-0_0
  6
CONTINUOUS
 62
    7
 10
1303.2952755386127
 20
982.453088199896
 11
1312.2952755386127
 21
982.453088199896
  0
LINE
  8
_0-0_0
  6
CONTINUOUS
 62
    7
 10
1303.2952755386127
 20
988.32723403676528
 11
1312.2952755386127
 21
988.32723403676528
  0
LINE
  8
_0-0_0
  6
CONTINUOUS
 62
    7
 10
1303.2952755386127
 20
993.72723403676537
 11
1312.2952755386127
 21
993.72723403676537
  0
LINE
  8
_0-0_0
  6
CONTINUOUS
 62
    7
 10
1303.2952755386127
 20
999.12723403676534
 11
1312.2952755386127
 21
999.12723403676534
  0
LINE
  8
_0-0_0
  6
CONTINUOUS
 62
    7
 10
1303.2952755386127
 20
1004.5272340367652
 11
1312.2952755386127
 21
1004.5272340367652
  0
LINE
  8
_0-0_0
  6
CONTINUOUS
 62
    7
 10
1303.2952755386127
 20
1009.9272340367654
 11
1312.2952755386127
 21
1009.9272340367654
  0
LINE
  8
_0-0_0
  6
CONTINUOUS
 62
    7
 10
1303.2952755386127
 20
1015.3272340367653
 11
1312.2952755386127
 21
1015.3272340367653
  0
LINE
  8
_0-0_0
  6
CONTINUOUS
 62
    7
 10
1303.2952755386127
 20
1020.7272340367654
 11
1312.2952755386127
 21
1020.7272340367654
  0
LINE
  8
_0-0_0
  6
CONTINUOUS
 62
    7
 10
1303.2952755386127
 20
937.4531026105376
 11
1312.2952755386127
 21
937.4531026105376
  0
LINE
  8
_0-0_0
  6
CONTINUOUS
 62
    7
 10
1303.2952755386127
 20
892.45311702117874
 11
1312.2952755386127
 21
892.45311702117874
  0
LINE
  8
_0-0_0
  6
CONTINUOUS
 62
    7
 10
1303.2952755386127
 20
847.45313143182034
 11
1312.2952755386127
 21
847.45313143182034
  0
LINE
  8
_0-0_0
  6
CONTINUOUS
 62
    7
 10
1303.2952755386127
 20
898.32726285804847
 11
1312.2952755386127
 21
898.32726285804847
  0
LINE
  8
_0-0_0
  6
CONTINUOUS
 62
    7
 10
1303.2952755386127
 20
903.72726285804856
 11
1312.2952755386127
 21
903.72726285804856
  0
LINE
  8
_0-0_0
  6
CONTINUOUS
 62
    7
 10
1303.2952755386127
 20
909.12726285804854
 11
1312.2952755386127
 21
909.12726285804854
  0
LINE
  8
_0-0_0
  6
CONTINUOUS
 62
    7
 10
1303.2952755386127
 20
914.5272628580484
 11
1312.2952755386127
 21
914.5272628580484
  0
LINE
  8
_0-0_0
  6
CONTINUOUS
 62
    7
 10
1303.2952755386127
 20
919.92726285804861
 11
1312.2952755386127
 21
919.92726285804861
  0
LINE
  8
_0-0_0
  6
CONTINUOUS
 62
    7
 10
1303.2952755386127
 20
925.32726285804847
 11
1312.2952755386127
 21
925.32726285804847
  0
LINE
  8
_0-0_0
  6
CONTINUOUS
 62
    7
 10
1303.2952755386127
 20
930.72726285804856
 11
1312.2952755386127
 21
930.72726285804856
  0
LINE
  8
_0-0_0
  6
CONTINUOUS
 62
    7
 10
1303.2952755386127
 20
808.32729167933132
 11
1312.2952755386127
 21
808.32729167933132
  0
LINE
  8
_0-0_0
  6
CONTINUOUS
 62
    7
 10
1303.2952755386127
 20
813.7272916793313
 11
1312.2952755386127
 21
813.7272916793313
  0
LINE
  8
_0-0_0
  6
CONTINUOUS
 62
    7
 10
1303.2952755386127
 20
819.12729167933139
 11
1312.2952755386127
 21
819.12729167933139
  0
LINE
  8
_0-0_0
  6
CONTINUOUS
 62
    7
 10
1303.2952755386127
 20
824.52729167933126
 11
1312.2952755386127
 21
824.52729167933126
  0
LINE
  8
_0-0_0
  6
CONTINUOUS
 62
    7
 10
1303.2952755386127
 20
829.92729167933135
 11
1312.2952755386127
 21
829.92729167933135
  0
LINE
  8
_0-0_0
  6
CONTINUOUS
 62
    7
 10
1303.2952755386127
 20
835.32729167933132
 11
1312.2952755386127
 21
835.32729167933132
  0
LINE
  8
_0-0_0
  6
CONTINUOUS
 62
    7
 10
1303.2952755386127
 20
840.72729167933119
 11
1312.2952755386127
 21
840.72729167933119
  0
LINE
  8
_0-0_0
  6
CONTINUOUS
 62
    7
 10
1659.7875988852702
 20
1037.3530593786131
 11
1659.7875988852702
 21
761.95305937861303
  0
LINE
  8
_0-0_0
  6
CONTINUOUS
 62
    7
 10
1668.7875988852702
 20
1037.3530593786131
 11
1668.7875988852702
 21
761.95305937861303
  0
LINE
  8
_0-0_0
  6
CONTINUOUS
 62
    7
 10
1677.7875988852702
 20
761.95305937861303
 11
1677.7875988852702
 21
1037.3530593786131
  0
LINE
  8
_0-0_0
  6
CONTINUOUS
 62
    7
 10
1686.7875988852702
 20
761.95305937861303
 11
1686.7875988852702
 21
1037.3530593786131
  0
LINE
  8
_0-0_0
  6
CONTINUOUS
 62
    7
 10
1695.7875988852702
 20
761.95305937861303
 11
1695.7875988852702
 21
1037.3530593786131
  0
LINE
  8
_0-0_0
  6
CONTINUOUS
 62
    7
 10
1704.7875988852702
 20
761.95305937861303
 11
1704.7875988852702
 21
1037.3530593786131
  0
LINE
  8
_0-0_0
  6
CONTINUOUS
 62
    7
 10
1713.7875988852702
 20
761.95305937861303
 11
1713.7875988852702
 21
1037.3530593786131
  0
LINE
  8
_0-0_0
  6
CONTINUOUS
 62
    7
 10
1722.7875988852702
 20
761.95305937861303
 11
1722.7875988852702
 21
1037.3530593786131
  0
ARC
  8
_0-0_0
  6
CONTINUOUS
 62
    7
 10
1655.2875988852702
 20
761.95305937861303
 40
4.5
 50
270
 51
0
  0
ARC
  8
_0-0_0
  6
CONTINUOUS
 62
    7
 10
1673.2875988852702
 20
761.95305937861303
 40
4.5
 50
180
 51
0
  0
ARC
  8
_0-0_0
  6
CONTINUOUS
 62
    7
 10
1691.2875988852702
 20
761.95305937861303
 40
4.5
 50
180
 51
0
  0
ARC
  8
_0-0_0
  6
CONTINUOUS
 62
    7
 10
1709.2875988852702
 20
761.95305937861303
 40
4.5
 50
180
 51
0
  0
ARC
  8
_0-0_0
  6
CONTINUOUS
 62
    7
 10
1727.2875988852702
 20
761.95305937861303
 40
4.5
 50
180
 51
270
  0
ARC
  8
_0-0_0
  6
CONTINUOUS
 62
    7
 10
1664.2875988852702
 20
1037.3530593786131
 40
4.5
 50
0
 51
180
  0
ARC
  8
_0-0_0
  6
CONTINUOUS
 62
    7
 10
1682.2875988852702
 20
1037.3530593786131
 40
4.5
 50
0
 51
180
  0
ARC
  8
_0-0_0
  6
CONTINUOUS
 62
    7
 10
1700.2875988852702
 20
1037.3530593786131
 40
4.5
 50
0
 51
180
  0
ARC
  8
_0-0_0
  6
CONTINUOUS
 62
    7
 10
1718.2875988852702
 20
1037.3530593786131
 40
4.5
 50
0
 51
180
  0
LINE
  8
_0-0_0
  6
DASHED2
 62
    7
 10
1655.2875988852702
 20
1045.453059378613
 11
1655.2875988852702
 21
1072.453059378613
  0
LINE
  8
_0-0_0
  6
DASHED2
 62
    7
 10
1727.2875988852702
 20
1045.453059378613
 11
1727.2875988852702
 21
1072.453059378613
  0
LINE
  8
_0-0_0
  6
CONTINUOUS
 62
    7
 10
1655.2875988852702
 20
1072.453059378613
 11
1727.2875988852702
 21
1072.453059378613
  0
LINE
  8
_0-0_0
  6
CONTINUOUS
 62
    7
 10
1652.5875988852706
 20
1072.453059378613
 11
1729.9875988852698
 21
1072.453059378613
  0
LINE
  8
_0-0_0
  6
CONTINUOUS
 62
    7
 10
1729.9875988852698
 20
1072.453059378613
 11
1729.9875988852698
 21
1045.453059378613
  0
LINE
  8
_0-0_0
  6
CONTINUOUS
 62
    7
 10
1729.9875988852698
 20
1045.453059378613
 11
1652.5875988852706
 21
1045.453059378613
  0
LINE
  8
_0-0_0
  6
CONTINUOUS
 62
    7
 10
1652.5875988852706
 20
1045.453059378613
 11
1652.5875988852706
 21
1072.453059378613
  0
LINE
  8
_0-0_0
  6
CONTINUOUS
 62
    7
 10
1655.2875988852702
 20
757.45305937861303
 11
1655.2875988852702
 21
1045.453059378613
  0
LINE
  8
_0-0_0
  6
CONTINUOUS
 62
    7
 10
1727.2875988852702
 20
1045.453059378613
 11
1727.2875988852702
 21
757.45305937861303
  0
LINE
  8
_0-0_0
  6
CONTINUOUS
 62
    7
 10
1659.7875988852702
 20
1027.4530737892544
 11
1668.7875988852702
 21
1027.4530737892544
  0
LINE
  8
_0-0_0
  6
CONTINUOUS
 62
    7
 10
1659.7875988852702
 20
802.45314584246148
 11
1668.7875988852702
 21
802.45314584246148
  0
LINE
  8
_0-0_0
  6
CONTINUOUS
 62
    7
 10
1659.7875988852702
 20
982.453088199896
 11
1668.7875988852702
 21
982.453088199896
  0
LINE
  8
_0-0_0
  6
CONTINUOUS
 62
    7
 10
1659.7875988852702
 20
988.32723403676528
 11
1668.7875988852702
 21
988.32723403676528
  0
LINE
  8
_0-0_0
  6
CONTINUOUS
 62
    7
 10
1659.7875988852702
 20
993.72723403676537
 11
1668.7875988852702
 21
993.72723403676537
  0
LINE
  8
_0-0_0
  6
CONTINUOUS
 62
    7
 10
1659.7875988852702
 20
999.12723403676534
 11
1668.7875988852702
 21
999.12723403676534
  0
LINE
  8
_0-0_0
  6
CONTINUOUS
 62
    7
 10
1659.7875988852702
 20
1004.5272340367652
 11
1668.7875988852702
 21
1004.5272340367652
  0
LINE
  8
_0-0_0
  6
CONTINUOUS
 62
    7
 10
1659.7875988852702
 20
1009.9272340367654
 11
1668.7875988852702
 21
1009.9272340367654
  0
LINE
  8
_0-0_0
  6
CONTINUOUS
 62
    7
 10
1659.7875988852702
 20
1015.3272340367653
 11
1668.7875988852702
 21
1015.3272340367653
  0
LINE
  8
_0-0_0
  6
CONTINUOUS
 62
    7
 10
1659.7875988852702
 20
1020.7272340367654
 11
1668.7875988852702
 21
1020.7272340367654
  0
LINE
  8
_0-0_0
  6
CONTINUOUS
 62
    7
 10
1659.7875988852702
 20
937.4531026105376
 11
1668.7875988852702
 21
937.4531026105376
  0
LINE
  8
_0-0_0
  6
CONTINUOUS
 62
    7
 10
1659.7875988852702
 20
892.45311702117874
 11
1668.7875988852702
 21
892.45311702117874
  0
LINE
  8
_0-0_0
  6
CONTINUOUS
 62
    7
 10
1659.7875988852702
 20
847.45313143182034
 11
1668.7875988852702
 21
847.45313143182034
  0
LINE
  8
_0-0_0
  6
CONTINUOUS
 62
    7
 10
1659.7875988852702
 20
898.32726285804847
 11
1668.7875988852702
 21
898.32726285804847
  0
LINE
  8
_0-0_0
  6
CONTINUOUS
 62
    7
 10
1659.7875988852702
 20
903.72726285804856
 11
1668.7875988852702
 21
903.72726285804856
  0
LINE
  8
_0-0_0
  6
CONTINUOUS
 62
    7
 10
1659.7875988852702
 20
909.12726285804854
 11
1668.7875988852702
 21
909.12726285804854
  0
LINE
  8
_0-0_0
  6
CONTINUOUS
 62
    7
 10
1659.7875988852702
 20
914.5272628580484
 11
1668.7875988852702
 21
914.5272628580484
  0
LINE
  8
_0-0_0
  6
CONTINUOUS
 62
    7
 10
1659.7875988852702
 20
919.92726285804861
 11
1668.7875988852702
 21
919.92726285804861
  0
LINE
  8
_0-0_0
  6
CONTINUOUS
 62
    7
 10
1659.7875988852702
 20
925.32726285804847
 11
1668.7875988852702
 21
925.32726285804847
  0
LINE
  8
_0-0_0
  6
CONTINUOUS
 62
    7
 10
1659.7875988852702
 20
930.72726285804856
 11
1668.7875988852702
 21
930.72726285804856
  0
LINE
  8
_0-0_0
  6
CONTINUOUS
 62
    7
 10
1659.7875988852702
 20
808.32729167933132
 11
1668.7875988852702
 21
808.32729167933132
  0
LINE
  8
_0-0_0
  6
CONTINUOUS
 62
    7
 10
1659.7875988852702
 20
813.7272916793313
 11
1668.7875988852702
 21
813.7272916793313
  0
LINE
  8
_0-0_0
  6
CONTINUOUS
 62
    7
 10
1659.7875988852702
 20
819.12729167933139
 11
1668.7875988852702
 21
819.12729167933139
  0
LINE
  8
_0-0_0
  6
CONTINUOUS
 62
    7
 10
1659.7875988852702
 20
824.52729167933126
 11
1668.7875988852702
 21
824.52729167933126
  0
LINE
  8
_0-0_0
  6
CONTINUOUS
 62
    7
 10
1659.7875988852702
 20
829.92729167933135
 11
1668.7875988852702
 21
829.92729167933135
  0
LINE
  8
_0-0_0
  6
CONTINUOUS
 62
    7
 10
1659.7875988852702
 20
835.32729167933132
 11
1668.7875988852702
 21
835.32729167933132
  0
LINE
  8
_0-0_0
  6
CONTINUOUS
 62
    7
 10
1659.7875988852702
 20
840.72729167933119
 11
1668.7875988852702
 21
840.72729167933119
  0
LINE
  8
_0-0_0
  6
CONTINUOUS
 62
    7
 10
1677.7875988852702
 20
1027.4530737892544
 11
1686.7875988852702
 21
1027.4530737892544
  0
LINE
  8
_0-0_0
  6
CONTINUOUS
 62
    7
 10
1677.7875988852702
 20
802.45314584246148
 11
1686.7875988852702
 21
802.45314584246148
  0
LINE
  8
_0-0_0
  6
CONTINUOUS
 62
    7
 10
1677.7875988852702
 20
982.453088199896
 11
1686.7875988852702
 21
982.453088199896
  0
LINE
  8
_0-0_0
  6
CONTINUOUS
 62
    7
 10
1677.7875988852702
 20
988.32723403676528
 11
1686.7875988852702
 21
988.32723403676528
  0
LINE
  8
_0-0_0
  6
CONTINUOUS
 62
    7
 10
1677.7875988852702
 20
993.72723403676537
 11
1686.7875988852702
 21
993.72723403676537
  0
LINE
  8
_0-0_0
  6
CONTINUOUS
 62
    7
 10
1677.7875988852702
 20
999.12723403676534
 11
1686.7875988852702
 21
999.12723403676534
  0
LINE
  8
_0-0_0
  6
CONTINUOUS
 62
    7
 10
1677.7875988852702
 20
1004.5272340367652
 11
1686.7875988852702
 21
1004.5272340367652
  0
LINE
  8
_0-0_0
  6
CONTINUOUS
 62
    7
 10
1677.7875988852702
 20
1009.9272340367654
 11
1686.7875988852702
 21
1009.9272340367654
  0
LINE
  8
_0-0_0
  6
CONTINUOUS
 62
    7
 10
1677.7875988852702
 20
1015.3272340367653
 11
1686.7875988852702
 21
1015.3272340367653
  0
LINE
  8
_0-0_0
  6
CONTINUOUS
 62
    7
 10
1677.7875988852702
 20
1020.7272340367654
 11
1686.7875988852702
 21
1020.7272340367654
  0
LINE
  8
_0-0_0
  6
CONTINUOUS
 62
    7
 10
1677.7875988852702
 20
937.4531026105376
 11
1686.7875988852702
 21
937.4531026105376
  0
LINE
  8
_0-0_0
  6
CONTINUOUS
 62
    7
 10
1677.7875988852702
 20
892.45311702117874
 11
1686.7875988852702
 21
892.45311702117874
  0
LINE
  8
_0-0_0
  6
CONTINUOUS
 62
    7
 10
1677.7875988852702
 20
847.45313143182034
 11
1686.7875988852702
 21
847.45313143182034
  0
LINE
  8
_0-0_0
  6
CONTINUOUS
 62
    7
 10
1677.7875988852702
 20
898.32726285804847
 11
1686.7875988852702
 21
898.32726285804847
  0
LINE
  8
_0-0_0
  6
CONTINUOUS
 62
    7
 10
1677.7875988852702
 20
903.72726285804856
 11
1686.7875988852702
 21
903.72726285804856
  0
LINE
  8
_0-0_0
  6
CONTINUOUS
 62
    7
 10
1677.7875988852702
 20
909.12726285804854
 11
1686.7875988852702
 21
909.12726285804854
  0
LINE
  8
_0-0_0
  6
CONTINUOUS
 62
    7
 10
1677.7875988852702
 20
914.5272628580484
 11
1686.7875988852702
 21
914.5272628580484
  0
LINE
  8
_0-0_0
  6
CONTINUOUS
 62
    7
 10
1677.7875988852702
 20
919.92726285804861
 11
1686.7875988852702
 21
919.92726285804861
  0
LINE
  8
_0-0_0
  6
CONTINUOUS
 62
    7
 10
1677.7875988852702
 20
925.32726285804847
 11
1686.7875988852702
 21
925.32726285804847
  0
LINE
  8
_0-0_0
  6
CONTINUOUS
 62
    7
 10
1677.7875988852702
 20
930.72726285804856
 11
1686.7875988852702
 21
930.72726285804856
  0
LINE
  8
_0-0_0
  6
CONTINUOUS
 62
    7
 10
1677.7875988852702
 20
808.32729167933132
 11
1686.7875988852702
 21
808.32729167933132
  0
LINE
  8
_0-0_0
  6
CONTINUOUS
 62
    7
 10
1677.7875988852702
 20
813.7272916793313
 11
1686.7875988852702
 21
813.7272916793313
  0
LINE
  8
_0-0_0
  6
CONTINUOUS
 62
    7
 10
1677.7875988852702
 20
819.12729167933139
 11
1686.7875988852702
 21
819.12729167933139
  0
LINE
  8
_0-0_0
  6
CONTINUOUS
 62
    7
 10
1677.7875988852702
 20
824.52729167933126
 11
1686.7875988852702
 21
824.52729167933126
  0
LINE
  8
_0-0_0
  6
CONTINUOUS
 62
    7
 10
1677.7875988852702
 20
829.92729167933135
 11
1686.7875988852702
 21
829.92729167933135
  0
LINE
  8
_0-0_0
  6
CONTINUOUS
 62
    7
 10
1677.7875988852702
 20
835.32729167933132
 11
1686.7875988852702
 21
835.32729167933132
  0
LINE
  8
_0-0_0
  6
CONTINUOUS
 62
    7
 10
1677.7875988852702
 20
840.72729167933119
 11
1686.7875988852702
 21
840.72729167933119
  0
LINE
  8
_0-0_0
  6
CONTINUOUS
 62
    7
 10
1695.7875988852702
 20
1027.4530737892544
 11
1704.7875988852702
 21
1027.4530737892544
  0
LINE
  8
_0-0_0
  6
CONTINUOUS
 62
    7
 10
1695.7875988852702
 20
802.45314584246148
 11
1704.7875988852702
 21
802.45314584246148
  0
LINE
  8
_0-0_0
  6
CONTINUOUS
 62
    7
 10
1695.7875988852702
 20
982.453088199896
 11
1704.7875988852702
 21
982.453088199896
  0
LINE
  8
_0-0_0
  6
CONTINUOUS
 62
    7
 10
1695.7875988852702
 20
988.32723403676528
 11
1704.7875988852702
 21
988.32723403676528
  0
LINE
  8
_0-0_0
  6
CONTINUOUS
 62
    7
 10
1695.7875988852702
 20
993.72723403676537
 11
1704.7875988852702
 21
993.72723403676537
  0
LINE
  8
_0-0_0
  6
CONTINUOUS
 62
    7
 10
1695.7875988852702
 20
999.12723403676534
 11
1704.7875988852702
 21
999.12723403676534
  0
LINE
  8
_0-0_0
  6
CONTINUOUS
 62
    7
 10
1695.7875988852702
 20
1004.5272340367652
 11
1704.7875988852702
 21
1004.5272340367652
  0
LINE
  8
_0-0_0
  6
CONTINUOUS
 62
    7
 10
1695.7875988852702
 20
1009.9272340367654
 11
1704.7875988852702
 21
1009.9272340367654
  0
LINE
  8
_0-0_0
  6
CONTINUOUS
 62
    7
 10
1695.7875988852702
 20
1015.3272340367653
 11
1704.7875988852702
 21
1015.3272340367653
  0
LINE
  8
_0-0_0
  6
CONTINUOUS
 62
    7
 10
1695.7875988852702
 20
1020.7272340367654
 11
1704.7875988852702
 21
1020.7272340367654
  0
LINE
  8
_0-0_0
  6
CONTINUOUS
 62
    7
 10
1695.7875988852702
 20
937.4531026105376
 11
1704.7875988852702
 21
937.4531026105376
  0
LINE
  8
_0-0_0
  6
CONTINUOUS
 62
    7
 10
1695.7875988852702
 20
892.45311702117874
 11
1704.7875988852702
 21
892.45311702117874
  0
LINE
  8
_0-0_0
  6
CONTINUOUS
 62
    7
 10
1695.7875988852702
 20
847.45313143182034
 11
1704.7875988852702
 21
847.45313143182034
  0
LINE
  8
_0-0_0
  6
CONTINUOUS
 62
    7
 10
1695.7875988852702
 20
898.32726285804847
 11
1704.7875988852702
 21
898.32726285804847
  0
LINE
  8
_0-0_0
  6
CONTINUOUS
 62
    7
 10
1695.7875988852702
 20
903.72726285804856
 11
1704.7875988852702
 21
903.72726285804856
  0
LINE
  8
_0-0_0
  6
CONTINUOUS
 62
    7
 10
1695.7875988852702
 20
909.12726285804854
 11
1704.7875988852702
 21
909.12726285804854
  0
LINE
  8
_0-0_0
  6
CONTINUOUS
 62
    7
 10
1695.7875988852702
 20
914.5272628580484
 11
1704.7875988852702
 21
914.5272628580484
  0
LINE
  8
_0-0_0
  6
CONTINUOUS
 62
    7
 10
1695.7875988852702
 20
919.92726285804861
 11
1704.7875988852702
 21
919.92726285804861
  0
LINE
  8
_0-0_0
  6
CONTINUOUS
 62
    7
 10
1695.7875988852702
 20
925.32726285804847
 11
1704.7875988852702
 21
925.32726285804847
  0
LINE
  8
_0-0_0
  6
CONTINUOUS
 62
    7
 10
1695.7875988852702
 20
930.72726285804856
 11
1704.7875988852702
 21
930.72726285804856
  0
LINE
  8
_0-0_0
  6
CONTINUOUS
 62
    7
 10
1695.7875988852702
 20
808.32729167933132
 11
1704.7875988852702
 21
808.32729167933132
  0
LINE
  8
_0-0_0
  6
CONTINUOUS
 62
    7
 10
1695.7875988852702
 20
813.7272916793313
 11
1704.7875988852702
 21
813.7272916793313
  0
LINE
  8
_0-0_0
  6
CONTINUOUS
 62
    7
 10
1695.7875988852702
 20
819.12729167933139
 11
1704.7875988852702
 21
819.12729167933139
  0
LINE
  8
_0-0_0
  6
CONTINUOUS
 62
    7
 10
1695.7875988852702
 20
824.52729167933126
 11
1704.7875988852702
 21
824.52729167933126
  0
LINE
  8
_0-0_0
  6
CONTINUOUS
 62
    7
 10
1695.7875988852702
 20
829.92729167933135
 11
1704.7875988852702
 21
829.92729167933135
  0
LINE
  8
_0-0_0
  6
CONTINUOUS
 62
    7
 10
1695.7875988852702
 20
835.32729167933132
 11
1704.7875988852702
 21
835.32729167933132
  0
LINE
  8
_0-0_0
  6
CONTINUOUS
 62
    7
 10
1695.7875988852702
 20
840.72729167933119
 11
1704.7875988852702
 21
840.72729167933119
  0
LINE
  8
_0-0_0
  6
CONTINUOUS
 62
    7
 10
1713.7875988852702
 20
1027.4530737892544
 11
1722.7875988852702
 21
1027.4530737892544
  0
LINE
  8
_0-0_0
  6
CONTINUOUS
 62
    7
 10
1713.7875988852702
 20
802.45314584246148
 11
1722.7875988852702
 21
802.45314584246148
  0
LINE
  8
_0-0_0
  6
CONTINUOUS
 62
    7
 10
1713.7875988852702
 20
982.453088199896
 11
1722.7875988852702
 21
982.453088199896
  0
LINE
  8
_0-0_0
  6
CONTINUOUS
 62
    7
 10
1713.7875988852702
 20
988.32723403676528
 11
1722.7875988852702
 21
988.32723403676528
  0
LINE
  8
_0-0_0
  6
CONTINUOUS
 62
    7
 10
1713.7875988852702
 20
993.72723403676537
 11
1722.7875988852702
 21
993.72723403676537
  0
LINE
  8
_0-0_0
  6
CONTINUOUS
 62
    7
 10
1713.7875988852702
 20
999.12723403676534
 11
1722.7875988852702
 21
999.12723403676534
  0
LINE
  8
_0-0_0
  6
CONTINUOUS
 62
    7
 10
1713.7875988852702
 20
1004.5272340367652
 11
1722.7875988852702
 21
1004.5272340367652
  0
LINE
  8
_0-0_0
  6
CONTINUOUS
 62
    7
 10
1713.7875988852702
 20
1009.9272340367654
 11
1722.7875988852702
 21
1009.9272340367654
  0
LINE
  8
_0-0_0
  6
CONTINUOUS
 62
    7
 10
1713.7875988852702
 20
1015.3272340367653
 11
1722.7875988852702
 21
1015.3272340367653
  0
LINE
  8
_0-0_0
  6
CONTINUOUS
 62
    7
 10
1713.7875988852702
 20
1020.7272340367654
 11
1722.7875988852702
 21
1020.7272340367654
  0
LINE
  8
_0-0_0
  6
CONTINUOUS
 62
    7
 10
1713.7875988852702
 20
937.4531026105376
 11
1722.7875988852702
 21
937.4531026105376
  0
LINE
  8
_0-0_0
  6
CONTINUOUS
 62
    7
 10
1713.7875988852702
 20
892.45311702117874
 11
1722.7875988852702
 21
892.45311702117874
  0
LINE
  8
_0-0_0
  6
CONTINUOUS
 62
    7
 10
1713.7875988852702
 20
847.45313143182034
 11
1722.7875988852702
 21
847.45313143182034
  0
LINE
  8
_0-0_0
  6
CONTINUOUS
 62
    7
 10
1713.7875988852702
 20
898.32726285804847
 11
1722.7875988852702
 21
898.32726285804847
  0
LINE
  8
_0-0_0
  6
CONTINUOUS
 62
    7
 10
1713.7875988852702
 20
903.72726285804856
 11
1722.7875988852702
 21
903.72726285804856
  0
LINE
  8
_0-0_0
  6
CONTINUOUS
 62
    7
 10
1713.7875988852702
 20
909.12726285804854
 11
1722.7875988852702
 21
909.12726285804854
  0
LINE
  8
_0-0_0
  6
CONTINUOUS
 62
    7
 10
1713.7875988852702
 20
914.5272628580484
 11
1722.7875988852702
 21
914.5272628580484
  0
LINE
  8
_0-0_0
  6
CONTINUOUS
 62
    7
 10
1713.7875988852702
 20
919.92726285804861
 11
1722.7875988852702
 21
919.92726285804861
  0
LINE
  8
_0-0_0
  6
CONTINUOUS
 62
    7
 10
1713.7875988852702
 20
925.32726285804847
 11
1722.7875988852702
 21
925.32726285804847
  0
LINE
  8
_0-0_0
  6
CONTINUOUS
 62
    7
 10
1713.7875988852702
 20
930.72726285804856
 11
1722.7875988852702
 21
930.72726285804856
  0
LINE
  8
_0-0_0
  6
CONTINUOUS
 62
    7
 10
1713.7875988852702
 20
808.32729167933132
 11
1722.7875988852702
 21
808.32729167933132
  0
LINE
  8
_0-0_0
  6
CONTINUOUS
 62
    7
 10
1713.7875988852702
 20
813.7272916793313
 11
1722.7875988852702
 21
813.7272916793313
  0
LINE
  8
_0-0_0
  6
CONTINUOUS
 62
    7
 10
1713.7875988852702
 20
819.12729167933139
 11
1722.7875988852702
 21
819.12729167933139
  0
LINE
  8
_0-0_0
  6
CONTINUOUS
 62
    7
 10
1713.7875988852702
 20
824.52729167933126
 11
1722.7875988852702
 21
824.52729167933126
  0
LINE
  8
_0-0_0
  6
CONTINUOUS
 62
    7
 10
1713.7875988852702
 20
829.92729167933135
 11
1722.7875988852702
 21
829.92729167933135
  0
LINE
  8
_0-0_0
  6
CONTINUOUS
 62
    7
 10
1713.7875988852702
 20
835.32729167933132
 11
1722.7875988852702
 21
835.32729167933132
  0
LINE
  8
_0-0_0
  6
CONTINUOUS
 62
    7
 10
1713.7875988852702
 20
840.72729167933119
 11
1722.7875988852702
 21
840.72729167933119
  0
LINE
  8
_0-0_0
  6
CONTINUOUS
 62
    7
 10
1306.7357233138744
 20
1057.1573901481061
 11
1338.4192298702428
 21
1088.8408967044743
  0
LINE
  8
_0-0_0
  6
CONTINUOUS
 62
    7
 10
1299.6291424040348
 20
1004.4502484001287
 11
1337.5309072565128
 21
1042.3520132526069
  0
LINE
  8
_0-0_0
  6
CONTINUOUS
 62
    7
 10
1308.5123685413344
 20
916.80241717877334
 11
1341.0841977114326
 21
949.37424634887145
  0
TEXT
  8
_0-0_0
 62
    7
 10
1342.4715967298912
 20
1090.7558645456641
 40
15
 41
1
 50
0
  1
キャップ
  0
TEXT
  8
_0-0_0
 62
    7
 10
1343.46140377703
 20
1046.3397338591665
 40
15
 41
1
 50
0
  1
腰みの(透明)
  0
TEXT
  8
_0-0_0
 62
    7
 10
1341.8877274163888
 20
950.40089157633133
 40
15
 41
1
 50
0
  1
高輝度反射シート(白)
  0
LINE
  8
_0-0_0
  6
CONTINUOUS
 62
    7
 10
1341.0841977114326
 20
949.37424634887145
 11
1491.5068269697047
 21
949.37424634887145
  0
LINE
  8
_0-0_0
  6
CONTINUOUS
 62
    7
 10
1337.5309072565128
 20
1042.3520132526069
 11
1440.5763304491875
 21
1042.3520132526069
  0
LINE
  8
_0-0_0
  6
CONTINUOUS
 62
    7
 10
1338.4192298702428
 20
1088.8408967044743
 11
1406.2278560516293
 21
1088.8408967044743
  0
LINE
  8
_0-0_0
  6
CONTINUOUS
 62
    7
 10
1109.5281030658248
 20
1072.453059378613
 11
1109.5281030658248
 21
757.45305937861303
  0
LINE
  8
_0-0_0
  6
CONTINUOUS
 62
    7
 10
1109.5281030658248
 20
757.45305937861303
 11
1188.2248448325361
 21
757.45305937861303
  0
TEXT
  8
_0-0_0
 62
    7
 10
1110.2781030658248
 20
903.70305937861303
 40
15
 41
1
 50
90
  1
350
  0
LINE
  8
_0-0_0
  6
CONTINUOUS
 62
    7
 10
1170.0440418718599
 20
1072.453059378613
 11
1170.0440418718599
 21
1045.453059378613
  0
LINE
  8
_0-0_0
  6
CONTINUOUS
 62
    7
 10
1170.0440418718599
 20
1045.453059378613
 11
1188.2248448325361
 21
1045.453059378613
  0
TEXT
  8
_0-0_0
 62
    7
 10
1170.7940418718599
 20
1051.453059378613
 40
15
 41
1
 50
90
  1
30
  0
LINE
  8
_0-0_0
  6
CONTINUOUS
 62
    7
 10
1069.8508969226195
 20
487.45303798847306
 11
1069.8508969226195
 21
1072.453059378613
  0
LINE
  8
_0-0_0
  6
AI9-LType4
 62
    7
 10
1280.7952755386127
 20
439.99844018596161
 11
1280.7952755386127
 21
1092.5186762540104
  0
LINE
  8
_0-0_0
  6
AI9-LType4
 62
    7
 10
1691.2875988852709
 20
439.99844018596161
 11
1691.2875988852709
 21
1092.5186762540104
  0
LINE
  8
_0-5_D-BYP-STR1
  6
CONTINUOUS
 62
    7
 10
1173.4691563559734
 20
487.45303798847306
 11
1069.8508969226195
 21
487.45303798847306
  0
ENDSEC
  0
EOF
