  0
SECTION
  2
HEADER
  9
$ACADVER
  1
AC1009
  9
$INSBASE
 10
0
 20
0
 30
0
  9
$EXTMIN
 10
0
 20
0
  9
$EXTMAX
 10
1782
 20
1260
  9
$LIMMIN
 10
0
 20
0
  9
$LIMMAX
 10
1782
 20
1260
  9
$LTSCALE
 40
6
  0
ENDSEC
  0
SECTION
  2
TABLES
  0
TABLE
  2
LTYPE
 70
     9
  0
LTYPE
  2
CONTINUOUS
 70
    64
  3
実線
 72
    65
 73
     0
 40
0.0
  0
LTYPE
  2
DASHED1
 70
    64
  3
--  --  --  --  --  --  --  --  
 72
    65
 73
     2
 40
2.5
 49
1.25
 49
-1.25
  0
LTYPE
  2
DASHED2
 70
    64
  3
----    ----    ----    ----    
 72
    65
 73
     2
 40
5.0
 49
2.5
 49
-2.5
  0
LTYPE
  2
DASHED3
 70
    64
  3
------  ------  ------  ------  
 72
    65
 73
     2
 40
5.0
 49
3.75
 49
-1.25
  0
LTYPE
  2
CENTER1
 70
    64
  3
----- - ----- - ----- - ----- - 
 72
    65
 73
     4
 40
10.0
 49
6.25
 49
-1.25
 49
1.25
 49
-1.25
  0
LTYPE
  2
CENTER2
 70
    64
  3
----------  --  ----------  --  
 72
    65
 73
     4
 40
20.0
 49
12.5
 49
-2.5
 49
2.5
 49
-2.5
  0
LTYPE
  2
PHANTOM1
 70
    64
  3
--- - - --- - - --- - - --- - - 
 72
    65
 73
     6
 40
10.0
 49
3.25
 49
-1.25
 49
1.25
 49
-1.25
 49
1.25
 49
-1.25
  0
LTYPE
  2
PHANTOM2
 70
    64
  3
--------  -  -  --------  -  -  
 72
    65
 73
     6
 40
20.0
 49
10.0
 49
-2.5
 49
1.25
 49
-2.5
 49
1.25
 49
-2.5
  0
LTYPE
  2
DOT
 70
    64
  3
-   -   -   -   -   -   -   -   
 72
    65
 73
     2
 40
2.5
 49
0.625
 49
-1.875
  0
LTYPE
  2
DUMMY
 70
    64
  3
ダミー
 72
    65
 73
     0
 40
0.0
  0
LTYPE
  2
RAND1
 70
    64
  3
ランダム線1
 72
    65
 73
     4
 40
10.0
 49
1.0
 49
-2.0
 49
3.0
 49
-4.0
  0
LTYPE
  2
RAND2
 70
    64
  3
ランダム線2
 72
    65
 73
     4
 40
14.0
 49
2.0
 49
-3.0
 49
4.0
 49
-5.0
  0
LTYPE
  2
RAND3
 70
    64
  3
ランダム線3
 72
    65
 73
     4
 40
18.0
 49
3.0
 49
-4.0
 49
5.0
 49
-6.0
  0
LTYPE
  2
RAND4
 70
    64
  3
ランダム線4
 72
    65
 73
     4
 40
22.0
 49
4.0
 49
-5.0
 49
6.0
 49
-7.0
  0
LTYPE
  2
RAND5
 70
    64
  3
ランダム線5
 72
    65
 73
     4
 40
26.0
 49
5.0
 49
-6.0
 49
7.0
 49
-8.0
  0
LTYPE
  2
LONG1
 70
    64
  3
----------  --  ----------  --  
 72
    65
 73
     4
 40
40.0
 49
32.5
 49
-2.5
 49
2.5
 49
-2.5
  0
LTYPE
  2
LONG2
 70
    64
  3
--------  -  -  --------  -  -  
 72
    65
 73
     6
 40
40.0
 49
30.0
 49
-2.5
 49
1.25
 49
-2.5
 49
1.25
 49
-2.5
  0
LTYPE
  2
LONG3
 70
    64
  3
+++++++++++++++..+++++++++++++++
 72
    65
 73
     2
 40
40.0
 49
37.5
 49
-2.5
  0
LTYPE
  2
LONG4
 70
    64
  3
+++++++++++++++..+++++++++++++++
 72
    65
 73
     2
 40
80.0
 49
75.0
 49
-5.0
  0
LTYPE
  2
LONG5
 70
    64
  3
----------  --  ----------  --  
 72
    65
 73
     4
 40
60.0
 49
37.5
 49
-7.5
 49
7.5
 49
-7.5
  0
LTYPE
  2
dashed
 70
   64
  3
-------   -------------   ------
 72
   65
 73
    2
 40
7.5
 49
6
 49
-1.5
  0
LTYPE
  2
dashed_spaced
 70
   64
  3
----        --------        ----
 72
   65
 73
    2
 40
12
 49
6
 49
-6
  0
LTYPE
  2
long_dashed_dotted
 70
   64
  3
------------- --- --------------
 72
   65
 73
    4
 40
15.25
 49
12
 49
-1.5
 49
0.25
 49
-1.5
  0
LTYPE
  2
long_dashed_double-dotted
 70
   64
  3
----------- --- --- ------------
 72
   65
 73
    6
 40
17
 49
12
 49
-1.5
 49
0.25
 49
-1.5
 49
0.25
 49
-1.5
  0
LTYPE
  2
long_dashed_triplicate-dotted
 70
   64
  3
--------- --- --- --- ----------
 72
   65
 73
    8
 40
18.75
 49
12
 49
-1.5
 49
0.25
 49
-1.5
 49
0.25
 49
-1.5
 49
0.25
 49
-1.5
  0
LTYPE
  2
dotted
 70
   64
  3
   -       -       -       -    
 72
   65
 73
    2
 40
1.75
 49
0.25
 49
-1.5
  0
LTYPE
  2
chain
 70
   64
  3
-------------- -- --------------
 72
   65
 73
    4
 40
18.5
 49
12
 49
-1.5
 49
3.5
 49
-1.5
  0
LTYPE
  2
chain_double_dash
 70
   64
  3
------------ -- -- -------------
 72
   65
 73
    6
 40
23.5
 49
12
 49
-1.5
 49
3.5
 49
-1.5
 49
3.5
 49
-1.5
  0
LTYPE
  2
dashed_dotted
 70
   64
  3
-----------     -     ----------
 72
   65
 73
    4
 40
9.25
 49
6
 49
-1.5
 49
0.25
 49
-1.5
  0
LTYPE
  2
double-dashed_dotted
 70
   64
  3
------   -----------   -   -----
 72
   65
 73
    6
 40
16.75
 49
6
 49
-1.5
 49
6
 49
-1.5
 49
0.25
 49
-1.5
  0
LTYPE
  2
dashed_double-dotted
 70
   64
  3
---------    -    -    ---------
 72
   65
 73
    6
 40
11
 49
6
 49
-1.5
 49
0.25
 49
-1.5
 49
0.25
 49
-1.5
  0
LTYPE
  2
double-dashed_double-dotted
 70
   64
  3
-----   ---------   -   -   ----
 72
   65
 73
    8
 40
18.5
 49
6
 49
-1.5
 49
6
 49
-1.5
 49
0.25
 49
-1.5
 49
0.25
 49
-1.5
  0
LTYPE
  2
dashed_triplicate-dotted
 70
   64
  3
-------    -    -    -    ------
 72
   65
 73
    8
 40
12.75
 49
6
 49
-1.5
 49
0.25
 49
-1.5
 49
0.25
 49
-1.5
 49
0.25
 49
-1.5
  0
LTYPE
  2
double-dashed_triplicate-dotted
 70
   64
  3
-----  ---------  -  -  -  -----
 72
   65
 73
   10
 40
20.25
 49
6
 49
-1.5
 49
6
 49
-1.5
 49
0.25
 49
-1.5
 49
0.25
 49
-1.5
 49
0.25
 49
-1.5
  0
LTYPE
  2
undefined
 70
   64
  3
--------------------------------
 72
   65
 73
    0
 40
0
  0
LTYPE
  2
AI9-LType1
 70
   64
  3
-----------   -----   ----------
 72
   65
 73
    4
 40
1.909268638160492
 49
1.272857477929856
 49
-0.159102790057659
 49
0.318205580115318
 49
-0.159102790057659
  0
LTYPE
  2
AI9-LType3
 70
   64
  3
----        --------        ----
 72
   65
 73
    4
 40
3.9999355157216385
 49
0.9999838789304096
 49
-0.9999838789304096
 49
0.9999838789304096
 49
-0.9999838789304096
  0
LTYPE
  2
AI9-LType4
 70
   64
  3
-----------   -----   ----------
 72
   65
 73
    4
 40
9.8010483688778347
 49
6.5340441332923032
 49
-0.8167510588963825
 49
1.6335021177927651
 49
-0.8167510588963825
  0
LTYPE
  2
AI9-LType5
 70
   64
  3
-------   -------------   ------
 72
   65
 73
    2
 40
24.502673406071132
 49
19.6021317270067
 49
-4.9005416790644318
  0
LTYPE
  2
AI9-LType6
 70
   64
  3
-----------   -----   ----------
 72
   65
 73
    4
 40
5.8806294586923364
 49
3.9204197512732599
 49
-0.4900435954332351
 49
0.9801225165526068
 49
-0.4900435954332351
  0
LTYPE
  2
_
 70
   64
  3
                                
 72
   65
 73
    0
 40
0
  0
LTYPE
  2
__23
 70
   64
  3
                                
 72
   65
 73
    0
 40
0
  0
LTYPE
  2
__24
 70
   64
  3
                                
 72
   65
 73
    0
 40
0
  0
LTYPE
  2
__25
 70
   64
  3
                                
 72
   65
 73
    0
 40
0
  0
LTYPE
  2
__26
 70
   64
  3
                                
 72
   65
 73
    0
 40
0
  0
LTYPE
  2
__27
 70
   64
  3
                                
 72
   65
 73
    0
 40
0
  0
LTYPE
  2
__28
 70
   64
  3
                                
 72
   65
 73
    0
 40
0
  0
LTYPE
  2
__29
 70
   64
  3
                                
 72
   65
 73
    0
 40
0
  0
LTYPE
  2
__30
 70
   64
  3
                                
 72
   65
 73
    0
 40
0
  0
LTYPE
  2
__31
 70
   64
  3
                                
 72
   65
 73
    0
 40
0
  0
LTYPE
  2
__32
 70
   64
  3
                                
 72
   65
 73
    0
 40
0
  0
ENDTAB
  0
TABLE
  2
STYLE
  5
3
100
AcDbSymbolTable
 70
     1
  0
STYLE
  5
10
100
AcDbSymbolTableRecord
100
AcDbTextStyleTableRecord
  2
STANDARD
 70
     0
 40
0.0
 41
1.0
 50
0.0
 71
     0
 42
0.2
  3
txt
  4
bigfont.shx
  0
STYLE
  5
26
100
AcDbSymbolTableRecord
100
AcDbTextStyleTableRecord
  2
TATEGAKI
 70
    68
 40
0.0
 41
1.0
 50
0.0
 71
     0
 42
1.0
  3
txt
  4
bigfont.shx
  0
ENDTAB
  0
TABLE
  2
LAYER
 70
    5
  0
LAYER
  2
_0-0_0
 70
   64
 62
    7
  6
CONTINUOUS
  0
LAYER
  2
_0-3_D-STR-TXT
 70
   64
 62
    7
  6
CONTINUOUS
  0
LAYER
  2
_0-5_D-BYP-STR1
 70
   64
 62
    7
  6
CONTINUOUS
  0
LAYER
  2
_0-c_ADD_LINE
 70
   64
 62
    7
  6
CONTINUOUS
  0
LAYER
  2
ADD_LINE
 70
   64
 62
    7
  6
CONTINUOUS
  0
ENDTAB
  0
ENDSEC
  0
SECTION
  2
BLOCKS
  0
ENDSEC
  0
SECTION
  2
ENTITIES
  0
CIRCLE
  8
_0-0_0
  6
CONTINUOUS
 62
    7
 10
1266.8279649617475
 20
237.21975867398979
 40
125
  0
TEXT
  8
_0-0_0
 62
    7
 10
1355.7428643428248
 20
390.08603042622047
 40
15
 41
1
 50
0
  1
アンカーホール φ12
  0
ARC
  8
_0-0_0
  6
CONTINUOUS
 62
    7
 10
1722.9267401896125
 20
337.21975867398982
 40
22
 50
126.03155245063201
 51
232.9514242276633
  0
LINE
  8
_0-0_0
  6
AI9-LType4
 62
    7
 10
1722.9267401896125
 20
102.12038598232994
 11
1722.9267401896125
 21
371.48125904543531
  0
LINE
  8
_0-0_0
  6
AI9-LType1
 62
    7
 10
1247.7412746948203
 20
461.50559767491626
 11
1247.7412746948203
 21
486.58288886415232
  0
LINE
  8
_0-0_0
  6
CONTINUOUS
 62
    7
 10
1287.7743250274007
 20
238.71975867398979
 11
1274.8279649617475
 21
238.71975867398979
  0
CIRCLE
  8
_0-0_0
  6
CONTINUOUS
 62
    7
 10
1266.8279649617475
 20
237.21975867398979
 40
30
  0
LINE
  8
_0-0_0
  6
CONTINUOUS
 62
    7
 10
1437.4024127156536
 20
48.305735107421782
 11
1437.4024127156536
 21
-18.360924892578026
  0
LINE
  8
_0-0_0
  6
CONTINUOUS
 62
    7
 10
1654.3834576375284
 20
48.305735107421782
 11
1654.3834576375284
 21
14.972405107421878
  0
LINE
  8
_0-0_0
  6
CONTINUOUS
 62
    7
 10
1754.3835325073198
 20
48.305735107421782
 11
1754.3835325073198
 21
14.972405107421878
  0
LINE
  8
_0-0_0
  6
CONTINUOUS
 62
    7
 10
1929.7564927937781
 20
-51.694393581814239
 11
987.40229900037593
 21
-51.694393581814239
  0
LINE
  8
_0-0_0
  6
CONTINUOUS
 62
    7
 10
987.40229900037593
 20
-51.694393581814239
 11
987.40229900037593
 21
1311.6943935818144
  0
LINE
  8
_0-0_0
  6
CONTINUOUS
 62
    7
 10
987.40229900037593
 20
1311.6943935818144
 11
1929.7564927937781
 21
1311.6943935818144
  0
LINE
  8
_0-0_0
  6
CONTINUOUS
 62
    7
 10
1929.7564927937781
 20
1311.6943935818144
 11
1929.7564927937781
 21
-51.694393581814239
  0
LINE
  8
_0-0_0
  6
CONTINUOUS
 62
    7
 10
1337.4023378458619
 20
14.972405107421878
 11
1929.7564927937781
 21
14.972405107421878
  0
LINE
  8
_0-0_0
  6
CONTINUOUS
 62
    7
 10
1337.4023378458619
 20
48.305735107421782
 11
1337.4023378458619
 21
-51.694393581814239
  0
LINE
  8
_0-0_0
  6
CONTINUOUS
 62
    7
 10
987.40229900037593
 20
48.305735107421782
 11
1928.996849239091
 21
48.305735107421782
  0
LINE
  8
_0-0_0
  6
CONTINUOUS
 62
    7
 10
1337.4023378458619
 20
-18.360924892578026
 11
1929.7564927937781
 21
-18.360924892578026
  0
LINE
  8
_0-0_0
  6
CONTINUOUS
 62
    7
 10
1579.7628972803236
 20
647.55328210523271
 11
1588.0128690455729
 21
647.55328210523271
  0
LINE
  8
_0-0_0
  6
CONTINUOUS
 62
    7
 10
1588.0128690455729
 20
647.55328210523271
 11
1588.0128690455729
 21
627.75332117830669
  0
LINE
  8
_0-0_0
  6
CONTINUOUS
 62
    7
 10
1588.0128690455729
 20
627.75332117830669
 11
1579.7628972803236
 21
627.75332117830669
  0
LINE
  8
_0-0_0
  6
CONTINUOUS
 62
    7
 10
1579.7628972803236
 20
627.75332117830669
 11
1579.7628972803236
 21
647.55328210523271
  0
CIRCLE
  8
_0-0_0
  6
CONTINUOUS
 62
    7
 10
1606.0910122243952
 20
637.7601607623717
 40
9.899980463463006
  0
LINE
  8
_0-0_0
  6
CONTINUOUS
 62
    7
 10
1426.3117779052714
 20
642.60330083922872
 11
1513.7578449669909
 21
642.60330083922872
  0
LINE
  8
_0-0_0
  6
CONTINUOUS
 62
    7
 10
1513.7578449669909
 20
642.6015683392983
 11
1579.7628972803236
 21
644.66636231479072
  0
ARC
  8
_0-0_0
  6
CONTINUOUS
 62
    7
 10
1426.2231155358127
 20
639.29794848209917
 40
3.3065412776102443
 50
88.463473431715343
 51
166.13379640606391
  0
LINE
  8
_0-0_0
  6
CONTINUOUS
 62
    7
 10
1426.3117779052714
 20
632.70330244431125
 11
1513.7578449669909
 21
632.70330244431125
  0
LINE
  8
_0-0_0
  6
CONTINUOUS
 62
    7
 10
1513.7578449669909
 20
632.70503494424179
 11
1579.7628972803236
 21
630.64024096874914
  0
ARC
  8
_0-0_0
  6
CONTINUOUS
 62
    7
 10
1426.2231155358122
 20
636.00865480144068
 40
3.306541277610048
 50
193.86620359393439
 51
271.53652656828473
  0
LINE
  8
_0-0_0
  6
CONTINUOUS
 62
    7
 10
1423.0129334402527
 20
640.09037900516421
 11
1423.0129334402527
 21
635.21622427837565
  0
LINE
  8
_0-0_0
  6
AI9-LType4
 62
    7
 10
1628.4960950995319
 20
637.7601607623717
 11
1410.5078310285785
 21
637.7601607623717
  0
LINE
  8
_0-0_0
  6
AI9-LType4
 62
    7
 10
1606.4036911853627
 20
615.35507788723419
 11
1606.4036911853627
 21
660.16524363750818
  0
LINE
  8
_0-0_0
  6
CONTINUOUS
 62
    7
 10
1287.9028508666956
 20
476.84257208121926
 11
1322.2952391045424
 21
499.7128384657683
  0
LINE
  8
_0-0_0
  6
CONTINUOUS
 62
    7
 10
1322.2952391045424
 20
499.7128384657683
 11
1480.3491290118061
 21
499.7128384657683
  0
LINE
  8
_0-0_0
  6
CONTINUOUS
 62
    7
 10
1612.8603077893617
 20
566.2681477475337
 11
1394.4005109321788
 21
566.2681477475337
  0
LINE
  8
_0-0_0
  6
CONTINUOUS
 62
    7
 10
1394.4005109321788
 20
566.2681477475337
 11
1394.4005109321788
 21
593.6084255253113
  0
LINE
  8
_0-0_0
  6
CONTINUOUS
 62
    7
 10
1394.4005109321788
 20
593.6084255253113
 11
1612.8603077893617
 21
593.6084255253113
  0
LINE
  8
_0-0_0
  6
CONTINUOUS
 62
    7
 10
1612.8603077893617
 20
593.6084255253113
 11
1612.8603077893617
 21
566.2681477475337
  0
LINE
  8
_0-5_D-BYP-STR1
  6
CONTINUOUS
 62
    7
 10
1588.0079300193311
 20
685.08491448286873
 11
1423.0129334402527
 21
685.08491448286873
  0
TEXT
  8
_0-5_D-BYP-STR1
 62
    7
 10
1494.2604317297914
 20
688.83491448286873
 40
15
 41
1
 50
0
  1
100
  0
LINE
  8
_0-5_D-BYP-STR1
  6
CONTINUOUS
 62
    7
 10
1389.0041621191438
 20
632.70330244431125
 11
1389.0041621191438
 21
642.60448975970974
  0
TEXT
  8
_0-5_D-BYP-STR1
 62
    7
 10
1385.2541621191438
 20
633.90389610201066
 40
15
 41
1
 50
90
  1
6
  0
LINE
  8
_0-5_D-BYP-STR1
  6
CONTINUOUS
 62
    7
 10
1588.0128690455729
 20
666.47543777453484
 11
1579.7628972803236
 21
666.47543777453484
  0
TEXT
  8
_0-3_D-STR-TXT
 62
    7
 10
1062.4023184231189
 20
-11.694329237196257
 40
20
 41
1
 50
0
  1
保安道路企画株式会社
  0
TEXT
  8
_0-3_D-STR-TXT
 62
    7
 10
1364.902375280758
 20
24.139070107421873
 40
15
 41
1
 50
0
  1
品　名
  0
TEXT
  8
_0-3_D-STR-TXT
 62
    7
 10
1364.902375280758
 20
-9.1942598925781169
 40
15
 41
1
 50
0
  1
材　質
  0
TEXT
  8
_0-3_D-STR-TXT
 62
    7
 10
1473.5794527547159
 20
-9.1942598925781169
 40
15
 41
1
 50
0
  1
ポスト：ポリウレタン　　ベース・セットピン：スチレニクス
  0
TEXT
  8
_0-3_D-STR-TXT
 62
    7
 10
1681.8834950724242
 20
24.139070107421873
 40
15
 41
1
 50
0
  1
品　番
  0
TEXT
  8
_0-3_D-STR-TXT
 62
    7
 10
1345.0721840581741
 20
499.7128384657683
 40
15
 41
1
 50
0
  1
セットピン(2本)
  0
TEXT
  8
_0-0_0
 62
    7
 10
1499.7778263533141
 20
572.92900665377806
 40
15
 41
1
 50
0
  1
　
  0
LINE
  8
_0-5_D-BYP-STR1
  6
CONTINUOUS
 62
    7
 10
1643.6226446020314
 20
627.86511932515066
 11
1643.6226446020314
 21
685.08491448286873
  0
LINE
  8
_0-5_D-BYP-STR1
  6
CONTINUOUS
 62
    7
 10
1618.2049762161728
 20
647.65520219959228
 11
1643.6226446020314
 21
647.65520219959228
  0
LINE
  8
_0-5_D-BYP-STR1
  6
CONTINUOUS
 62
    7
 10
1618.2049762161728
 20
627.86511932515066
 11
1643.6226446020314
 21
627.86511932515066
  0
LINE
  8
_0-5_D-BYP-STR1
  6
CONTINUOUS
 62
    7
 10
1588.0079300193311
 20
652.29531885742006
 11
1588.0079300193311
 21
685.08491448286873
  0
LINE
  8
_0-5_D-BYP-STR1
  6
CONTINUOUS
 62
    7
 10
1579.7628972803236
 20
652.29531885742006
 11
1579.7628972803236
 21
666.47543777453484
  0
LINE
  8
_0-5_D-BYP-STR1
  6
CONTINUOUS
 62
    7
 10
1423.0129334402527
 20
652.29531885742006
 11
1423.0129334402527
 21
685.08491448286873
  0
LINE
  8
_0-5_D-BYP-STR1
  6
CONTINUOUS
 62
    7
 10
1416.8604717704206
 20
642.60448975970974
 11
1389.0041621191438
 21
642.60448975970974
  0
LINE
  8
_0-5_D-BYP-STR1
  6
CONTINUOUS
 62
    7
 10
1416.8604717704206
 20
632.70330244431125
 11
1389.0041621191438
 21
632.70330244431125
  0
TEXT
  8
_0-5_D-BYP-STR1
 62
    7
 10
1580.1910868631235
 20
666.69594916555434
 40
15
 41
1
 50
0
  1
5
  0
LINE
  8
ADD_LINE
  6
DOT
 62
    9
 10
891.90621328500697
 20
-184.18049743203318
 11
2019.9062132850067
 21
-184.18049743203318
  0
LINE
  8
ADD_LINE
  6
DOT
 62
    9
 10
2019.9062132850067
 20
-184.18049743203318
 11
2019.9062132850067
 21
1431.819502567967
  0
LINE
  8
ADD_LINE
  6
DOT
 62
    9
 10
2019.9062132850067
 20
1431.819502567967
 11
891.90621328500697
 21
1431.819502567967
  0
LINE
  8
ADD_LINE
  6
DOT
 62
    9
 10
891.90621328500697
 20
1431.819502567967
 11
891.90621328500697
 21
-184.18049743203318
  0
TEXT
  8
_0-3_D-STR-TXT
 62
    7
 10
1447.38040936077
 20
572.4382866364225
 40
15
 41
1
 50
0
  1
セットピン(2本)
  0
TEXT
  8
_0-3_D-STR-TXT
 62
    7
 10
1493.392935176591
 20
24.139070107421702
 40
15
 41
1
 50
0
  1
ラウンドポスト
  0
CIRCLE
  8
_0-0_0
  6
CONTINUOUS
 62
    7
 10
1266.8279649617475
 20
237.21975867398979
 40
42.5
  0
CIRCLE
  8
_0-0_0
  6
CONTINUOUS
 62
    7
 10
1266.8279649617475
 20
237.21975867398979
 40
36.5
  0
LINE
  8
_0-0_0
  6
CONTINUOUS
 62
    7
 10
1250.455410806881
 20
198
 11
1283.200519116614
 21
198
  0
LINE
  8
_0-0_0
  6
CONTINUOUS
 62
    7
 10
1240.3195203894579
 20
204
 11
1251.7052127769789
 21
204
  0
LINE
  8
_0-0_0
  6
CONTINUOUS
 62
    7
 10
1281.9507171465161
 20
204
 11
1293.3364095340371
 21
204
  0
LINE
  8
_0-0_0
  6
CONTINUOUS
 62
    7
 10
1234.188499008244
 20
210
 11
1242.5105897388789
 21
210
  0
LINE
  8
_0-0_0
  6
CONTINUOUS
 62
    7
 10
1291.1453401846161
 20
210
 11
1299.467430915251
 21
210
  0
LINE
  8
_0-0_0
  6
CONTINUOUS
 62
    7
 10
1230.0044420203271
 20
216
 11
1237.1299542233578
 21
216
  0
LINE
  8
_0-0_0
  6
CONTINUOUS
 62
    7
 10
1296.5259757001372
 20
216
 11
1303.6514879031679
 21
216
  0
LINE
  8
_0-0_0
  6
CONTINUOUS
 62
    7
 10
1227.146622420129
 20
222
 11
1233.652538123421
 21
222
  0
LINE
  8
_0-0_0
  6
CONTINUOUS
 62
    7
 10
1300.003391800074
 20
222
 11
1306.509307503366
 21
222
  0
LINE
  8
_0-0_0
  6
CONTINUOUS
 62
    7
 10
1225.3400625082254
 20
228
 11
1231.5115941120462
 21
228
  0
LINE
  8
_0-0_0
  6
CONTINUOUS
 62
    7
 10
1302.1443358114489
 20
228
 11
1308.3158674152696
 21
228
  0
LINE
  8
_0-0_0
  6
CONTINUOUS
 62
    7
 10
1224.4501033582969
 20
234
 11
1230.4702538940624
 21
234
  0
LINE
  8
_0-0_0
  6
CONTINUOUS
 62
    7
 10
1303.1856760294327
 20
234
 11
1309.2058265651981
 21
234
  0
LINE
  8
_0-0_0
  6
CONTINUOUS
 62
    7
 10
1224.4190006007852
 20
240
 11
1230.4340058727871
 21
240
  0
LINE
  8
_0-0_0
  6
CONTINUOUS
 62
    7
 10
1303.2219240507079
 20
240
 11
1309.2369293227098
 21
240
  0
LINE
  8
_0-0_0
  6
CONTINUOUS
 62
    7
 10
1225.2448270058781
 20
246
 11
1231.3997648627196
 21
246
  0
LINE
  8
_0-0_0
  6
CONTINUOUS
 62
    7
 10
1302.2561650607754
 20
246
 11
1308.411102917617
 21
246
  0
LINE
  8
_0-0_0
  6
CONTINUOUS
 62
    7
 10
1226.9808262144693
 20
252
 11
1233.4544055719421
 21
252
  0
LINE
  8
_0-0_0
  6
CONTINUOUS
 62
    7
 10
1300.201524351553
 20
252
 11
1306.6751037090257
 21
252
  0
LINE
  8
_0-0_0
  6
CONTINUOUS
 62
    7
 10
1229.754638021303
 20
258
 11
1236.8207729832798
 21
258
  0
LINE
  8
_0-0_0
  6
CONTINUOUS
 62
    7
 10
1296.8351569402153
 20
258
 11
1303.901291902192
 21
258
  0
LINE
  8
_0-0_0
  6
CONTINUOUS
 62
    7
 10
1233.8269244551088
 20
264
 11
1242.0273868531444
 21
264
  0
LINE
  8
_0-0_0
  6
CONTINUOUS
 62
    7
 10
1291.6285430703506
 20
264
 11
1299.8290054683862
 21
264
  0
LINE
  8
_0-0_0
  6
CONTINUOUS
 62
    7
 10
1239.7779043590713
 20
270
 11
1250.7747478820279
 21
270
  0
LINE
  8
_0-0_0
  6
CONTINUOUS
 62
    7
 10
1282.8811820414671
 20
270
 11
1293.8780255644238
 21
270
  0
LINE
  8
_0-0_0
  6
CONTINUOUS
 62
    7
 10
1249.4399552223736
 20
276
 11
1284.2159747011215
 21
276
  0
LINE
  8
_0-0_0
  6
CONTINUOUS
 62
    7
 10
1245.8816048960941
 20
238.71975867398979
 11
1258.8279649617475
 21
238.71975867398979
  0
LINE
  8
_0-0_0
  6
CONTINUOUS
 62
    7
 10
1258.8279649617475
 20
256.63624651293736
 11
1258.8279649617475
 21
238.71975867398979
  0
LINE
  8
_0-0_0
  6
CONTINUOUS
 62
    7
 10
1242.3330675339157
 20
242.21975867398976
 11
1254.3279649617475
 21
242.21975867398976
  0
LINE
  8
_0-0_0
  6
CONTINUOUS
 62
    7
 10
1254.3279649617475
 20
242.21975867398976
 11
1254.3279649617475
 21
258.87039376860076
  0
LINE
  8
_0-0_0
  6
CONTINUOUS
 62
    7
 10
1245.8816048960941
 20
235.71975867398979
 11
1258.8279649617475
 21
235.71975867398979
  0
LINE
  8
_0-0_0
  6
CONTINUOUS
 62
    7
 10
1258.8279649617475
 20
217.80327083504216
 11
1258.8279649617475
 21
235.71975867398979
  0
LINE
  8
_0-0_0
  6
CONTINUOUS
 62
    7
 10
1242.3330675339157
 20
232.21975867398982
 11
1254.3279649617475
 21
232.21975867398982
  0
LINE
  8
_0-0_0
  6
CONTINUOUS
 62
    7
 10
1254.3279649617475
 20
215.56912357937881
 11
1254.3279649617475
 21
232.21975867398982
  0
LINE
  8
_0-0_0
  6
CONTINUOUS
 62
    7
 10
1274.8279649617475
 20
256.63624651293736
 11
1274.8279649617475
 21
238.71975867398979
  0
LINE
  8
_0-0_0
  6
CONTINUOUS
 62
    7
 10
1279.3279649617475
 20
242.21975867398976
 11
1279.3279649617475
 21
258.87039376860076
  0
LINE
  8
_0-0_0
  6
CONTINUOUS
 62
    7
 10
1279.3279649617475
 20
242.21975867398976
 11
1291.3228623895793
 21
242.21975867398976
  0
LINE
  8
_0-0_0
  6
CONTINUOUS
 62
    7
 10
1287.7743250274007
 20
235.71975867398979
 11
1274.8279649617475
 21
235.71975867398979
  0
LINE
  8
_0-0_0
  6
CONTINUOUS
 62
    7
 10
1274.8279649617475
 20
217.80327083504216
 11
1274.8279649617475
 21
235.71975867398979
  0
LINE
  8
_0-0_0
  6
CONTINUOUS
 62
    7
 10
1279.3279649617475
 20
232.21975867398982
 11
1291.3228623895793
 21
232.21975867398982
  0
LINE
  8
_0-0_0
  6
CONTINUOUS
 62
    7
 10
1279.3279649617475
 20
232.21975867398982
 11
1279.3279649617475
 21
215.56912357937881
  0
ARC
  8
_0-0_0
  6
CONTINUOUS
 62
    7
 10
1266.8279649617475
 20
237.21975867398979
 40
21
 50
175.90395624184768
 51
184.09604375815232
  0
ARC
  8
_0-0_0
  6
CONTINUOUS
 62
    7
 10
1266.8279649617475
 20
237.21975867398979
 40
21
 50
247.60731219459836
 51
292.39268780540164
  0
ARC
  8
_0-0_0
  6
CONTINUOUS
 62
    7
 10
1266.8279649617475
 20
237.21975867398979
 40
21
 50
355.90395624184765
 51
4.096043758152363
  0
ARC
  8
_0-0_0
  6
CONTINUOUS
 62
    7
 10
1266.8279649617475
 20
237.21975867398979
 40
21
 50
67.607312194598336
 51
112.39268780540168
  0
ARC
  8
_0-0_0
  6
CONTINUOUS
 62
    7
 10
1266.8279649617475
 20
237.21975867398979
 40
25
 50
168.46304096718458
 51
191.53695903281542
  0
ARC
  8
_0-0_0
  6
CONTINUOUS
 62
    7
 10
1266.8279649617475
 20
237.21975867398979
 40
25
 50
240
 51
300
  0
ARC
  8
_0-0_0
  6
CONTINUOUS
 62
    7
 10
1266.8279649617475
 20
237.21975867398979
 40
25
 50
348.46304096718455
 51
11.536959032815451
  0
ARC
  8
_0-0_0
  6
CONTINUOUS
 62
    7
 10
1266.8279649617475
 20
237.21975867398979
 40
25
 50
59.999999999999986
 51
120.00000000000001
  0
LINE
  8
_0-0_0
  6
CONTINUOUS
 62
    7
 10
1254.2150851268457
 20
210
 11
1279.4408447966493
 21
210
  0
LINE
  8
_0-0_0
  6
CONTINUOUS
 62
    7
 10
1245.6213187908475
 20
216
 11
1254.3279649617475
 21
216
  0
LINE
  8
_0-0_0
  6
CONTINUOUS
 62
    7
 10
1279.3279649617475
 20
216
 11
1288.0346111326476
 21
216
  0
LINE
  8
_0-0_0
  6
CONTINUOUS
 62
    7
 10
1240.975325910666
 20
222
 11
1254.3279649617475
 21
222
  0
LINE
  8
_0-0_0
  6
CONTINUOUS
 62
    7
 10
1279.3279649617475
 20
222
 11
1292.680604012829
 21
222
  0
LINE
  8
_0-0_0
  6
CONTINUOUS
 62
    7
 10
1238.2798292959419
 20
228
 11
1254.3279649617475
 21
228
  0
LINE
  8
_0-0_0
  6
CONTINUOUS
 62
    7
 10
1279.3279649617475
 20
228
 11
1295.3761006275531
 21
228
  0
LINE
  8
_0-0_0
  6
CONTINUOUS
 62
    7
 10
1237.0012461666561
 20
234
 11
1242.0361688573616
 21
234
  0
LINE
  8
_0-0_0
  6
CONTINUOUS
 62
    7
 10
1291.6197610661334
 20
234
 11
1296.6546837568389
 21
234
  0
LINE
  8
_0-0_0
  6
CONTINUOUS
 62
    7
 10
1236.9570718018663
 20
240
 11
1241.983040768479
 21
240
  0
LINE
  8
_0-0_0
  6
CONTINUOUS
 62
    7
 10
1291.672889155016
 20
240
 11
1296.6988581216287
 21
240
  0
LINE
  8
_0-0_0
  6
CONTINUOUS
 62
    7
 10
1238.141603005985
 20
246
 11
1254.3279649617475
 21
246
  0
LINE
  8
_0-0_0
  6
CONTINUOUS
 62
    7
 10
1279.3279649617475
 20
246
 11
1295.5143269175101
 21
246
  0
LINE
  8
_0-0_0
  6
CONTINUOUS
 62
    7
 10
1240.7215583468028
 20
252
 11
1254.3279649617475
 21
252
  0
LINE
  8
_0-0_0
  6
CONTINUOUS
 62
    7
 10
1279.3279649617475
 20
252
 11
1292.9343715766922
 21
252
  0
LINE
  8
_0-0_0
  6
CONTINUOUS
 62
    7
 10
1245.1904611678078
 20
258
 11
1254.3279649617475
 21
258
  0
LINE
  8
_0-0_0
  6
CONTINUOUS
 62
    7
 10
1279.3279649617475
 20
258
 11
1288.4654687556872
 21
258
  0
LINE
  8
_0-0_0
  6
CONTINUOUS
 62
    7
 10
1253.3069193468259
 20
264
 11
1280.3490105766691
 21
264
  0
LINE
  8
_0-0_0
  6
CONTINUOUS
 62
    7
 10
1258.8279649617475
 20
222
 11
1274.8279649617475
 21
222
  0
LINE
  8
_0-0_0
  6
CONTINUOUS
 62
    7
 10
1258.8279649617475
 20
228
 11
1274.8279649617475
 21
228
  0
LINE
  8
_0-0_0
  6
CONTINUOUS
 62
    7
 10
1258.8279649617475
 20
234
 11
1274.8279649617475
 21
234
  0
LINE
  8
_0-0_0
  6
CONTINUOUS
 62
    7
 10
1258.8279649617475
 20
240
 11
1274.8279649617475
 21
240
  0
LINE
  8
_0-0_0
  6
CONTINUOUS
 62
    7
 10
1258.8279649617475
 20
246
 11
1274.8279649617475
 21
246
  0
LINE
  8
_0-0_0
  6
CONTINUOUS
 62
    7
 10
1258.8279649617475
 20
252
 11
1274.8279649617475
 21
252
  0
LINE
  8
_0-0_0
  6
CONTINUOUS
 62
    7
 10
1263.7978543312934
 20
258
 11
1269.8580755922017
 21
258
  0
LINE
  8
_0-0_0
  6
CONTINUOUS
 62
    7
 10
1254.3279649617475
 20
235.71975867398979
 11
1254.3279649617475
 21
238.71975867398979
  0
LINE
  8
_0-0_0
  6
CONTINUOUS
 62
    7
 10
1279.3279649617475
 20
235.71975867398979
 11
1279.3279649617475
 21
238.71975867398979
  0
LINE
  8
_0-0_0
  6
AI9-LType1
 62
    7
 10
1285.9146552286747
 20
461.50559767491626
 11
1285.9146552286747
 21
486.58288886415232
  0
CIRCLE
  8
_0-0_0
  6
CONTINUOUS
 62
    7
 10
1285.9137939548029
 20
474.06469326953436
 40
6.0177205403645893
  0
CIRCLE
  8
_0-0_0
  6
CONTINUOUS
 62
    7
 10
1247.7412746948203
 20
474.06469326953436
 40
6.0185818142360841
  0
CIRCLE
  8
_0-0_0
  6
CONTINUOUS
 62
    7
 10
1247.7408440578847
 20
474.06469326953436
 40
7.0327317979600643
  0
CIRCLE
  8
_0-0_0
  6
CONTINUOUS
 62
    7
 10
1285.9137939548029
 20
474.06469326953436
 40
7.0323011610243213
  0
LINE
  8
_0-0_0
  6
AI9-LType1
 62
    7
 10
1304.9994556258584
 20
474.06469326953436
 11
1228.6488617607927
 21
474.06469326953436
  0
LINE
  8
_0-0_0
  6
AI9-LType3
 62
    7
 10
1306.8241586933259
 20
437.2789707357332
 11
1226.8241586933259
 21
437.2789707357332
  0
LINE
  8
_0-0_0
  6
CONTINUOUS
 62
    7
 10
1226.8241586933259
 20
509.09742505430972
 11
1306.8241586933259
 21
509.09742505430972
  0
LINE
  8
_0-0_0
  6
CONTINUOUS
 62
    7
 10
1306.8241586933259
 20
509.09742505430972
 11
1306.8241586933259
 21
534.09742505430972
  0
LINE
  8
_0-0_0
  6
CONTINUOUS
 62
    7
 10
1306.8241586933259
 20
534.09742505430972
 11
1226.8241586933259
 21
534.09742505430972
  0
LINE
  8
_0-0_0
  6
CONTINUOUS
 62
    7
 10
1226.8241586933259
 20
534.09742505430972
 11
1226.8241586933259
 21
509.09742505430972
  0
LINE
  8
_0-0_0
  6
CONTINUOUS
 62
    7
 10
1226.8241586933259
 20
516
 11
1306.8241586933259
 21
516
  0
LINE
  8
_0-0_0
  6
CONTINUOUS
 62
    7
 10
1226.8241586933259
 20
522
 11
1306.8241586933259
 21
522
  0
LINE
  8
_0-0_0
  6
CONTINUOUS
 62
    7
 10
1226.8241586933259
 20
528
 11
1306.8241586933259
 21
528
  0
LINE
  8
_0-5_D-BYP-STR1
  6
CONTINUOUS
 62
    7
 10
1108.9120536119212
 20
433.47311550189733
 11
1108.9120536119212
 21
534.09742505430972
  0
LINE
  8
_0-5_D-BYP-STR1
  6
CONTINUOUS
 62
    7
 10
1108.9120536119212
 20
534.09742505430972
 11
1163.9681245754628
 21
534.09742505430972
  0
LINE
  8
_0-5_D-BYP-STR1
  6
CONTINUOUS
 62
    7
 10
1163.9681245754628
 20
509.09742505430972
 11
1108.9120536119212
 21
509.09742505430972
  0
TEXT
  8
_0-5_D-BYP-STR1
 62
    7
 10
1108.9120536119212
 20
514.09742505430972
 40
15
 41
1
 50
90
  1
25
  0
LINE
  8
_0-0_0
  6
CONTINUOUS
 62
    7
 10
1682.926740189612
 20
509.09742505430972
 11
1762.9267401896122
 21
509.09742505430972
  0
LINE
  8
_0-0_0
  6
CONTINUOUS
 62
    7
 10
1762.9267401896122
 20
509.09742505430972
 11
1762.9267401896122
 21
534.09742505430972
  0
LINE
  8
_0-0_0
  6
CONTINUOUS
 62
    7
 10
1762.9267401896122
 20
534.09742505430972
 11
1682.926740189612
 21
534.09742505430972
  0
LINE
  8
_0-0_0
  6
CONTINUOUS
 62
    7
 10
1682.926740189612
 20
534.09742505430972
 11
1682.926740189612
 21
509.09742505430972
  0
LINE
  8
_0-0_0
  6
CONTINUOUS
 62
    7
 10
1682.926740189612
 20
516
 11
1762.9267401896122
 21
516
  0
LINE
  8
_0-0_0
  6
CONTINUOUS
 62
    7
 10
1682.926740189612
 20
522
 11
1762.9267401896122
 21
522
  0
LINE
  8
_0-0_0
  6
CONTINUOUS
 62
    7
 10
1682.926740189612
 20
528
 11
1762.9267401896122
 21
528
  0
LINE
  8
_0-0_0
  6
CONTINUOUS
 62
    7
 10
1351.9752224487265
 20
66.405469262855576
 11
1179.1141113376154
 21
66.405469262855576
  0
LINE
  8
_0-0_0
  6
CONTINUOUS
 62
    7
 10
1179.1141113376154
 20
66.405469262855576
 11
1179.1141113376154
 21
93.745747040633347
  0
LINE
  8
_0-0_0
  6
CONTINUOUS
 62
    7
 10
1179.1141113376154
 20
93.745747040633347
 11
1351.9752224487265
 21
93.745747040633347
  0
LINE
  8
_0-0_0
  6
CONTINUOUS
 62
    7
 10
1351.9752224487265
 20
93.745747040633347
 11
1351.9752224487265
 21
66.405469262855576
  0
LINE
  8
_0-0_0
  6
CONTINUOUS
 62
    7
 10
1813.9754462442991
 20
67.306361732473647
 11
1641.114335133188
 21
67.306361732473647
  0
LINE
  8
_0-0_0
  6
CONTINUOUS
 62
    7
 10
1641.114335133188
 20
67.306361732473647
 11
1641.114335133188
 21
94.646639510251504
  0
LINE
  8
_0-0_0
  6
CONTINUOUS
 62
    7
 10
1641.114335133188
 20
94.646639510251504
 11
1813.9754462442991
 21
94.646639510251504
  0
LINE
  8
_0-0_0
  6
CONTINUOUS
 62
    7
 10
1813.9754462442991
 20
94.646639510251504
 11
1813.9754462442991
 21
67.306361732473647
  0
TEXT
  8
_0-3_D-STR-TXT
 62
    7
 10
1228.0446668931709
 20
72.575608151744376
 40
15
 41
1
 50
0
  1
ベース平面
  0
TEXT
  8
_0-3_D-STR-TXT
 62
    7
 10
1690.0448906887434
 20
73.476500621362533
 40
15
 41
1
 50
0
  1
ベース底面
  0
LINE
  8
_0-0_0
  6
AI9-LType4
 62
    7
 10
1266.8279649617475
 20
102.12038598232994
 11
1266.8279649617475
 21
371.48125904543531
  0
LINE
  8
_0-5_D-BYP-STR1
  6
CONTINUOUS
 62
    7
 10
1110.4214911661743
 20
112.2197586739899
 11
1110.4214911661743
 21
362.21975867398976
  0
LINE
  8
_0-5_D-BYP-STR1
  6
CONTINUOUS
 62
    7
 10
1149.0823527113137
 20
112.2197586739899
 11
1110.4214911661743
 21
112.2197586739899
  0
LINE
  8
_0-5_D-BYP-STR1
  6
CONTINUOUS
 62
    7
 10
1149.0823527113137
 20
362.21975867398976
 11
1110.4214911661743
 21
362.21975867398976
  0
TEXT
  8
_0-5_D-BYP-STR1
 62
    7
 10
1105.453217054499
 20
207.22016745369777
 40
15
 41
1
 50
90
  1
φ250±5
  0
CIRCLE
  8
_0-0_0
  6
CONTINUOUS
 62
    7
 10
1722.9267401896125
 20
237.21975867398979
 40
125
  0
CIRCLE
  8
_0-0_0
  6
CONTINUOUS
 62
    7
 10
1722.9267401896125
 20
337.21975867398982
 40
6.5
  0
CIRCLE
  8
_0-0_0
  6
CONTINUOUS
 62
    7
 10
1636.3241998111685
 20
187.21975867398982
 40
6.5
  0
CIRCLE
  8
_0-0_0
  6
CONTINUOUS
 62
    7
 10
1809.5292805680567
 20
187.21975867398982
 40
6.5
  0
LINE
  8
_0-0_0
  6
CONTINUOUS
 62
    7
 10
1725.4267401896122
 20
315.21975867398982
 11
1725.4267401896122
 21
299.71975867398976
  0
LINE
  8
_0-0_0
  6
CONTINUOUS
 62
    7
 10
1720.4267401896127
 20
315.21975867398982
 11
1720.4267401896127
 21
299.71975867398976
  0
LINE
  8
_0-0_0
  6
CONTINUOUS
 62
    7
 10
1761.1068956217396
 20
349.42838459543412
 11
1749.1361906053414
 21
316.53914286792724
  0
LINE
  8
_0-0_0
  6
CONTINUOUS
 62
    7
 10
1765.8053587256688
 20
347.71828387880578
 11
1753.8346537092707
 21
314.82904215129884
  0
LINE
  8
_0-0_0
  6
CONTINUOUS
 62
    7
 10
1797.1819608296703
 20
329.60299420780501
 11
1774.6843944906411
 21
302.79143869864072
  0
LINE
  8
_0-0_0
  6
CONTINUOUS
 62
    7
 10
1801.0121830452649
 20
326.38905615937233
 11
1778.5146167062358
 21
299.57750065020804
  0
LINE
  8
_0-0_0
  6
CONTINUOUS
 62
    7
 10
1815.3099757234277
 20
311.47497931404723
 11
1788.4984202142639
 21
288.97741297501835
  0
LINE
  8
_0-0_0
  6
CONTINUOUS
 62
    7
 10
1812.0960376749949
 20
315.30520152964209
 11
1785.2844821658312
 21
292.80763519061327
  0
LINE
  8
_0-0_0
  6
CONTINUOUS
 62
    7
 10
1835.135366111057
 20
275.39991410611674
 11
1802.2461243835501
 21
263.42920908971831
  0
LINE
  8
_0-0_0
  6
CONTINUOUS
 62
    7
 10
1833.4252653944286
 20
280.09837721004635
 11
1800.5360236669217
 21
268.12767219364787
  0
LINE
  8
_0-0_0
  6
CONTINUOUS
 62
    7
 10
1839.192338477392
 20
260.25908711005155
 11
1804.7240671219647
 21
254.18140089170896
  0
LINE
  8
_0-0_0
  6
CONTINUOUS
 62
    7
 10
1840.0605793657267
 20
255.33504834499053
 11
1805.5923080102993
 21
249.25736212664793
  0
LINE
  8
_0-0_0
  6
CONTINUOUS
 62
    7
 10
1839.192338477392
 20
214.18043023792831
 11
1804.7240671219647
 21
220.25811645627078
  0
LINE
  8
_0-0_0
  6
CONTINUOUS
 62
    7
 10
1840.0605793657267
 20
219.10446900298936
 11
1805.5923080102993
 21
225.18215522133184
  0
LINE
  8
_0-0_0
  6
CONTINUOUS
 62
    7
 10
1789.226721684799
 20
196.05469516452877
 11
1775.8033279261406
 21
203.80469516452871
  0
LINE
  8
_0-0_0
  6
CONTINUOUS
 62
    7
 10
1791.7267216847988
 20
200.38482218345098
 11
1778.3033279261404
 21
208.13482218345092
  0
LINE
  8
_0-0_0
  6
CONTINUOUS
 62
    7
 10
1797.1819608296703
 20
144.83652314017476
 11
1774.6843944906411
 21
171.64807864933897
  0
LINE
  8
_0-0_0
  6
CONTINUOUS
 62
    7
 10
1801.0121830452649
 20
148.05046118860741
 11
1778.5146167062364
 21
174.86201669777162
  0
LINE
  8
_0-0_0
  6
CONTINUOUS
 62
    7
 10
1761.1068956217396
 20
125.01113275254568
 11
1749.1361906053414
 21
157.90037448005236
  0
LINE
  8
_0-0_0
  6
CONTINUOUS
 62
    7
 10
1765.8053587256695
 20
126.721233469174
 11
1753.8346537092707
 21
159.61047519668068
  0
LINE
  8
_0-0_0
  6
CONTINUOUS
 62
    7
 10
1741.0420298606134
 20
120.08591949787586
 11
1734.9643436422709
 21
154.55419085330317
  0
LINE
  8
_0-0_0
  6
CONTINUOUS
 62
    7
 10
1745.9660686256746
 20
120.9541603862105
 11
1739.8883824073321
 21
155.42243174163781
  0
LINE
  8
_0-0_0
  6
CONTINUOUS
 62
    7
 10
1704.8114505186122
 20
120.08591949787578
 11
1710.8891367369547
 21
154.554190853303
  0
LINE
  8
_0-0_0
  6
CONTINUOUS
 62
    7
 10
1699.8874117535511
 20
120.95416038621042
 11
1705.9650979718936
 21
155.42243174163764
  0
LINE
  8
_0-0_0
  6
CONTINUOUS
 62
    7
 10
1680.0481216535561
 20
126.72123346917365
 11
1692.0188266699549
 21
159.61047519668043
  0
LINE
  8
_0-0_0
  6
CONTINUOUS
 62
    7
 10
1684.7465847574861
 20
125.01113275254534
 11
1696.7172897738842
 21
157.90037448005211
  0
LINE
  8
_0-0_0
  6
CONTINUOUS
 62
    7
 10
1644.84129733396
 20
148.05046118860707
 11
1667.3388636729892
 21
174.86201669777128
  0
LINE
  8
_0-0_0
  6
CONTINUOUS
 62
    7
 10
1648.6715195495549
 20
144.83652314017434
 11
1671.1690858885838
 21
171.64807864933863
  0
LINE
  8
_0-0_0
  6
CONTINUOUS
 62
    7
 10
1654.1267586944261
 20
200.38482218345081
 11
1667.5501524530853
 21
208.13482218345084
  0
LINE
  8
_0-0_0
  6
CONTINUOUS
 62
    7
 10
1656.6267586944264
 20
196.0546951645286
 11
1670.050152453085
 21
203.80469516452862
  0
LINE
  8
_0-0_0
  6
CONTINUOUS
 62
    7
 10
1605.7929010134983
 20
255.33504834499035
 11
1640.2611723689256
 21
249.25736212664788
  0
LINE
  8
_0-0_0
  6
CONTINUOUS
 62
    7
 10
1606.6611419018329
 20
260.25908711005144
 11
1641.1294132572602
 21
254.1814008917089
  0
LINE
  8
_0-0_0
  6
CONTINUOUS
 62
    7
 10
1612.4282149847963
 20
280.09837721004624
 11
1645.3174567123033
 21
268.12767219364792
  0
LINE
  8
_0-0_0
  6
CONTINUOUS
 62
    7
 10
1610.7181142681679
 20
275.39991410611674
 11
1643.6073559956749
 21
263.42920908971837
  0
LINE
  8
_0-0_0
  6
CONTINUOUS
 62
    7
 10
1633.75744270423
 20
315.30520152964215
 11
1660.5689982133938
 21
292.80763519061327
  0
LINE
  8
_0-0_0
  6
CONTINUOUS
 62
    7
 10
1630.5435046557973
 20
311.47497931404723
 11
1657.3550601649613
 21
288.97741297501835
  0
LINE
  8
_0-0_0
  6
CONTINUOUS
 62
    7
 10
1644.84129733396
 20
326.38905615937239
 11
1667.3388636729892
 21
299.57750065020809
  0
LINE
  8
_0-0_0
  6
CONTINUOUS
 62
    7
 10
1684.7465847574854
 20
349.42838459543418
 11
1696.7172897738842
 21
316.5391428679273
  0
LINE
  8
_0-0_0
  6
CONTINUOUS
 62
    7
 10
1648.6715195495549
 20
329.60299420780507
 11
1671.1690858885838
 21
302.79143869864077
  0
LINE
  8
_0-0_0
  6
CONTINUOUS
 62
    7
 10
1680.0481216535561
 20
347.71828387880578
 11
1692.0188266699543
 21
314.82904215129895
  0
LINE
  8
_0-0_0
  6
CONTINUOUS
 62
    7
 10
1739.9087909971815
 20
262.63353348941519
 11
1725.6587909971815
 21
237.95180948155871
  0
LINE
  8
_0-0_0
  6
CONTINUOUS
 62
    7
 10
1723.6587909971813
 20
234.48770786642098
 11
1709.4087909971813
 21
209.80598385856433
  0
LINE
  8
_0-0_0
  6
CONTINUOUS
 62
    7
 10
1736.4446893820436
 20
264.63353348941519
 11
1722.1946893820436
 21
239.95180948155868
  0
LINE
  8
_0-0_0
  6
CONTINUOUS
 62
    7
 10
1720.1946893820434
 20
236.48770786642095
 11
1705.9446893820434
 21
211.80598385856439
  0
LINE
  8
_0-0_0
  6
CONTINUOUS
 62
    7
 10
1695.5129653741869
 20
250.73770786642098
 11
1720.1946893820434
 21
236.48770786642095
  0
LINE
  8
_0-0_0
  6
CONTINUOUS
 62
    7
 10
1723.6587909971813
 20
234.48770786642098
 11
1748.3405150050378
 21
220.23770786642115
  0
LINE
  8
_0-0_0
  6
CONTINUOUS
 62
    7
 10
1697.5129653741872
 20
254.20180948155871
 11
1722.1946893820436
 21
239.95180948155868
  0
LINE
  8
_0-0_0
  6
CONTINUOUS
 62
    7
 10
1725.6587909971815
 20
237.95180948155871
 11
1750.3405150050373
 21
223.70180948155888
  0
ARC
  8
_0-0_0
  6
CONTINUOUS
 62
    7
 10
1722.9267401896125
 20
237.2197586739897
 40
83.5
 50
311.71493019552679
 51
320.86620907736688
  0
ARC
  8
_0-0_0
  6
CONTINUOUS
 62
    7
 10
1722.9267401896125
 20
237.2197586739897
 40
83.5
 50
339.13379092263318
 51
348.28506980447366
  0
ARC
  8
_0-0_0
  6
CONTINUOUS
 62
    7
 10
1722.9267401896125
 20
237.2197586739897
 40
83.5
 50
351.71493019552673
 51
355.87463103689788
  0
ARC
  8
_0-0_0
  6
CONTINUOUS
 62
    7
 10
1722.9267401896125
 20
237.2197586739897
 40
83.5
 50
4.1253689631023445
 51
8.2850698044735278
  0
LINE
  8
_0-0_0
  6
CONTINUOUS
 62
    7
 10
1784.3418036990736
 20
338.59376902244583
 11
1766.8230869288038
 21
308.25046149293019
  0
LINE
  8
_0-0_0
  6
CONTINUOUS
 62
    7
 10
1780.0116766801514
 20
341.09376902244583
 11
1762.4929599098816
 21
310.75046149293019
  0
LINE
  8
_0-0_0
  6
CONTINUOUS
 62
    7
 10
1665.8418036990736
 20
341.09376902244571
 11
1683.3605204693433
 21
310.7504614929303
  0
LINE
  8
_0-0_0
  6
CONTINUOUS
 62
    7
 10
1661.5116766801514
 20
338.59376902244571
 11
1679.0303934504211
 21
308.2504614929303
  0
LINE
  8
_0-0_0
  6
CONTINUOUS
 62
    7
 10
1619.0527298411566
 20
294.3046951645286
 11
1649.396037370672
 21
276.78597839425925
  0
LINE
  8
_0-0_0
  6
CONTINUOUS
 62
    7
 10
1653.7282302721756
 20
274.28478565639466
 11
1667.5501524530853
 21
266.3046951645286
  0
LINE
  8
_0-0_0
  6
CONTINUOUS
 62
    7
 10
1621.5527298411564
 20
298.63482218345081
 11
1651.8960373706718
 21
281.11610541318146
  0
LINE
  8
_0-0_0
  6
CONTINUOUS
 62
    7
 10
1656.2282302721756
 20
278.61491267531693
 11
1670.050152453085
 21
270.63482218345081
  0
ARC
  8
_0-0_0
  6
CONTINUOUS
 62
    7
 10
1722.9267401896125
 20
237.2197586739897
 40
78.5
 50
151.82501494312351
 51
174.15116754449349
  0
LINE
  8
_0-0_0
  6
CONTINUOUS
 62
    7
 10
1604.4267401896125
 20
234.71975867398976
 11
1637.3273981128273
 21
234.71975867398976
  0
LINE
  8
_0-0_0
  6
CONTINUOUS
 62
    7
 10
1604.4267401896125
 20
239.71975867398982
 11
1637.3273981128277
 21
239.71975867398982
  0
ARC
  8
_0-0_0
  6
CONTINUOUS
 62
    7
 10
1644.9267401896127
 20
237.2197586739897
 40
8
 50
18.209956864283871
 51
90.654232852933859
  0
ARC
  8
_0-0_0
  6
CONTINUOUS
 62
    7
 10
1644.9267401896127
 20
237.2197586739897
 40
8
 50
131.33471498216369
 51
161.79004313571613
  0
ARC
  8
_0-0_0
  6
CONTINUOUS
 62
    7
 10
1644.9267401896127
 20
237.2197586739897
 40
8
 50
198.20995686428253
 51
228.66528501783631
  0
ARC
  8
_0-0_0
  6
CONTINUOUS
 62
    7
 10
1644.9267401896127
 20
237.2197586739897
 40
8
 50
269.34576714706611
 51
341.79004313571738
  0
ARC
  8
_0-0_0
  6
CONTINUOUS
 62
    7
 10
1722.9267401896125
 20
237.21975867398979
 40
118.5
 50
181.20886140541697
 51
188.79113859458312
  0
ARC
  8
_0-0_0
  6
CONTINUOUS
 62
    7
 10
1722.9267401896125
 20
237.21975867398979
 40
118.5
 50
171.20886140541703
 51
178.79113859458303
  0
ARC
  8
_0-0_0
  6
CONTINUOUS
 62
    7
 10
1722.9267401896125
 20
237.21975867398979
 40
118.5
 50
151.20886140541697
 51
158.79113859458312
  0
ARC
  8
_0-0_0
  6
CONTINUOUS
 62
    7
 10
1722.9267401896125
 20
237.21975867398979
 40
118.5
 50
161.208861405417
 51
168.79113859458309
  0
ARC
  8
_0-0_0
  6
CONTINUOUS
 62
    7
 10
1722.9267401896125
 20
237.21975867398979
 40
118.5
 50
141.20886140541697
 51
148.79113859458306
  0
ARC
  8
_0-0_0
  6
CONTINUOUS
 62
    7
 10
1722.9267401896125
 20
237.21975867398979
 40
118.5
 50
131.20886140541694
 51
138.79113859458309
  0
ARC
  8
_0-0_0
  6
CONTINUOUS
 62
    7
 10
1722.9267401896125
 20
237.21975867398979
 40
118.5
 50
121.20886140541698
 51
128.79113859458303
  0
ARC
  8
_0-0_0
  6
CONTINUOUS
 62
    7
 10
1722.9267401896125
 20
237.21975867398979
 40
118.5
 50
111.20886140541698
 51
118.791138594583
  0
ARC
  8
_0-0_0
  6
CONTINUOUS
 62
    7
 10
1722.9267401896125
 20
237.21975867398979
 40
118.5
 50
61.208861405416982
 51
68.791138594583018
  0
ARC
  8
_0-0_0
  6
CONTINUOUS
 62
    7
 10
1722.9267401896125
 20
237.21975867398979
 40
118.5
 50
51.208861405416911
 51
58.791138594583074
  0
ARC
  8
_0-0_0
  6
CONTINUOUS
 62
    7
 10
1722.9267401896125
 20
237.21975867398979
 40
118.5
 50
41.208861405416975
 51
48.791138594583018
  0
ARC
  8
_0-0_0
  6
CONTINUOUS
 62
    7
 10
1722.9267401896125
 20
237.21975867398979
 40
118.5
 50
31.208861405416965
 51
38.791138594583046
  0
ARC
  8
_0-0_0
  6
CONTINUOUS
 62
    7
 10
1722.9267401896125
 20
237.21975867398979
 40
118.5
 50
21.208861405416968
 51
28.791138594583057
  0
ARC
  8
_0-0_0
  6
CONTINUOUS
 62
    7
 10
1722.9267401896125
 20
237.21975867398979
 40
118.5
 50
11.208861405416943
 51
18.791138594583042
  0
ARC
  8
_0-0_0
  6
CONTINUOUS
 62
    7
 10
1722.9267401896125
 20
237.21975867398979
 40
118.5
 50
1.208861405416958
 51
8.7911385945830531
  0
ARC
  8
_0-0_0
  6
CONTINUOUS
 62
    7
 10
1722.9267401896125
 20
237.21975867398979
 40
118.5
 50
351.20886140541711
 51
358.79113859458306
  0
ARC
  8
_0-0_0
  6
CONTINUOUS
 62
    7
 10
1722.9267401896125
 20
237.21975867398979
 40
118.5
 50
336.26962678037324
 51
348.79113859458323
  0
ARC
  8
_0-0_0
  6
CONTINUOUS
 62
    7
 10
1722.9267401896125
 20
237.21975867398979
 40
118.5
 50
311.20886140541711
 51
323.7303732196267
  0
ARC
  8
_0-0_0
  6
CONTINUOUS
 62
    7
 10
1722.9267401896125
 20
237.21975867398979
 40
118.5
 50
191.208861405417
 51
203.73037321962667
  0
ARC
  8
_0-0_0
  6
CONTINUOUS
 62
    7
 10
1722.9267401896125
 20
237.21975867398979
 40
118.5
 50
96.269626780373258
 51
108.79113859458306
  0
ARC
  8
_0-0_0
  6
CONTINUOUS
 62
    7
 10
1722.9267401896125
 20
237.21975867398979
 40
118.5
 50
71.208861405416926
 51
83.730373219626742
  0
ARC
  8
_0-0_0
  6
CONTINUOUS
 62
    7
 10
1722.9267401896125
 20
337.21975867398982
 40
22
 50
307.04857577233679
 51
53.968447549368072
  0
ARC
  8
_0-0_0
  6
CONTINUOUS
 62
    7
 10
1636.3241998111685
 20
187.21975867398982
 40
22
 50
67.048575772337017
 51
173.96844754936799
  0
ARC
  8
_0-0_0
  6
CONTINUOUS
 62
    7
 10
1636.3241998111685
 20
187.21975867398982
 40
22
 50
246.03155245063192
 51
352.9514242276627
  0
ARC
  8
_0-0_0
  6
CONTINUOUS
 62
    7
 10
1809.5292805680567
 20
187.21975867398973
 40
22
 50
187.04857577233705
 51
293.96844754936774
  0
ARC
  8
_0-0_0
  6
CONTINUOUS
 62
    7
 10
1809.5292805680567
 20
187.21975867398973
 40
22
 50
6.0315524506320433
 51
112.95142422766298
  0
ARC
  8
_0-0_0
  6
CONTINUOUS
 62
    7
 10
1809.5292805680567
 20
187.21975867398973
 40
22
 50
139.17820751832662
 51
160.82179248167344
  0
ARC
  8
_0-0_0
  6
CONTINUOUS
 62
    7
 10
1722.9267401896125
 20
237.21975867398979
 40
118.5
 50
301.20886140541711
 51
308.79113859458317
  0
ARC
  8
_0-0_0
  6
CONTINUOUS
 62
    7
 10
1722.9267401896125
 20
237.21975867398979
 40
118.5
 50
291.20886140541717
 51
298.79113859458323
  0
ARC
  8
_0-0_0
  6
CONTINUOUS
 62
    7
 10
1722.9267401896125
 20
237.21975867398979
 40
118.5
 50
281.208861405417
 51
288.79113859458323
  0
ARC
  8
_0-0_0
  6
CONTINUOUS
 62
    7
 10
1722.9267401896125
 20
237.21975867398979
 40
118.5
 50
271.20886140541688
 51
278.79113859458317
  0
ARC
  8
_0-0_0
  6
CONTINUOUS
 62
    7
 10
1722.9267401896125
 20
237.21975867398979
 40
118.5
 50
261.20886140541705
 51
268.79113859458306
  0
ARC
  8
_0-0_0
  6
CONTINUOUS
 62
    7
 10
1722.9267401896125
 20
237.21975867398979
 40
118.5
 50
251.208861405417
 51
258.79113859458323
  0
ARC
  8
_0-0_0
  6
CONTINUOUS
 62
    7
 10
1722.9267401896125
 20
237.21975867398979
 40
118.5
 50
241.20886140541705
 51
248.79113859458317
  0
ARC
  8
_0-0_0
  6
CONTINUOUS
 62
    7
 10
1722.9267401896125
 20
237.21975867398979
 40
118.5
 50
216.26962678037324
 51
228.79113859458315
  0
ARC
  8
_0-0_0
  6
CONTINUOUS
 62
    7
 10
1722.9267401896125
 20
237.21975867398979
 40
118.5
 50
231.20886140541708
 51
238.79113859458317
  0
ARC
  8
_0-0_0
  6
CONTINUOUS
 62
    7
 10
1722.9267401896125
 20
237.2197586739897
 40
78.5
 50
5.8488324555066225
 51
28.174985056876508
  0
LINE
  8
_0-0_0
  6
CONTINUOUS
 62
    7
 10
1841.4267401896125
 20
239.71975867398982
 11
1808.5260822663977
 21
239.71975867398982
  0
LINE
  8
_0-0_0
  6
CONTINUOUS
 62
    7
 10
1841.4267401896125
 20
234.71975867398976
 11
1808.5260822663977
 21
234.71975867398976
  0
ARC
  8
_0-0_0
  6
CONTINUOUS
 62
    7
 10
1800.9267401896125
 20
237.21975867398987
 40
8
 50
89.345767147068557
 51
161.79004313571744
  0
ARC
  8
_0-0_0
  6
CONTINUOUS
 62
    7
 10
1800.9267401896125
 20
237.21975867398987
 40
8
 50
18.209956864282528
 51
48.665285017839757
  0
ARC
  8
_0-0_0
  6
CONTINUOUS
 62
    7
 10
1800.9267401896125
 20
237.21975867398987
 40
8
 50
198.20995686428373
 51
270.65423285293144
  0
ARC
  8
_0-0_0
  6
CONTINUOUS
 62
    7
 10
1800.9267401896125
 20
237.21975867398987
 40
8
 50
311.33471498216028
 51
341.79004313571596
  0
ARC
  8
_0-0_0
  6
CONTINUOUS
 62
    7
 10
1722.9267401896125
 20
237.21975867398987
 40
30.5
 50
63.759798057337086
 51
146.24020194266237
  0
ARC
  8
_0-0_0
  6
CONTINUOUS
 62
    7
 10
1722.9267401896125
 20
237.21975867398987
 40
30.5
 50
333.75979805733778
 51
56.240201942661947
  0
ARC
  8
_0-0_0
  6
CONTINUOUS
 62
    7
 10
1722.9267401896125
 20
237.21975867398987
 40
30.5
 50
153.75979805733726
 51
236.24020194266311
  0
ARC
  8
_0-0_0
  6
CONTINUOUS
 62
    7
 10
1722.9267401896125
 20
237.21975867398987
 40
30.5
 50
243.75979805733814
 51
326.24020194266268
  0
LINE
  8
_0-0_0
  6
CONTINUOUS
 62
    7
 10
1652.5260822663981
 20
239.71975867398982
 11
1660.4767602056288
 21
239.71975867398982
  0
LINE
  8
_0-0_0
  6
CONTINUOUS
 62
    7
 10
1665.4811137242323
 20
239.71975867398982
 11
1675.4267401896127
 21
239.71975867398982
  0
LINE
  8
_0-0_0
  6
CONTINUOUS
 62
    7
 10
1652.5260822663984
 20
234.71975867398976
 11
1660.4767602056288
 21
234.71975867398976
  0
LINE
  8
_0-0_0
  6
CONTINUOUS
 62
    7
 10
1665.4811137242323
 20
234.71975867398976
 11
1675.4267401896127
 21
234.71975867398976
  0
LINE
  8
_0-0_0
  6
CONTINUOUS
 62
    7
 10
1681.5315861882852
 20
303.91826859142645
 11
1689.5366866881595
 21
290.05302780594957
  0
LINE
  8
_0-0_0
  6
CONTINUOUS
 62
    7
 10
1692.0388634474609
 20
285.71913052932081
 11
1697.0116766801518
 21
277.10596535375055
  0
LINE
  8
_0-0_0
  6
CONTINUOUS
 62
    7
 10
1685.8617132072075
 20
306.41826859142651
 11
1693.8668137070817
 21
292.55302780594957
  0
LINE
  8
_0-0_0
  6
CONTINUOUS
 62
    7
 10
1696.3689904663831
 20
288.21913052932086
 11
1701.341803699074
 21
279.60596535375061
  0
ARC
  8
_0-0_0
  6
CONTINUOUS
 62
    7
 10
1722.9267401896125
 20
237.2197586739897
 40
57.5
 50
122.49190636897985
 51
177.50809363101999
  0
LINE
  8
_0-0_0
  6
CONTINUOUS
 62
    7
 10
1793.3273981128273
 20
239.71975867398982
 11
1785.3767201735961
 21
239.71975867398982
  0
LINE
  8
_0-0_0
  6
CONTINUOUS
 62
    7
 10
1780.3723666549927
 20
239.71975867398982
 11
1770.4267401896122
 21
239.71975867398982
  0
LINE
  8
_0-0_0
  6
CONTINUOUS
 62
    7
 10
1793.3273981128273
 20
234.71975867398976
 11
1785.3767201735961
 21
234.71975867398976
  0
LINE
  8
_0-0_0
  6
CONTINUOUS
 62
    7
 10
1780.3723666549927
 20
234.71975867398976
 11
1770.4267401896122
 21
234.71975867398976
  0
LINE
  8
_0-0_0
  6
CONTINUOUS
 62
    7
 10
1826.8007505380683
 20
294.30469516452865
 11
1796.4574430085529
 21
276.7859783942593
  0
LINE
  8
_0-0_0
  6
CONTINUOUS
 62
    7
 10
1792.1252501070494
 20
274.28478565639472
 11
1778.3033279261397
 21
266.30469516452871
  0
LINE
  8
_0-0_0
  6
CONTINUOUS
 62
    7
 10
1824.3007505380685
 20
298.63482218345086
 11
1793.9574430085531
 21
281.11610541318151
  0
LINE
  8
_0-0_0
  6
CONTINUOUS
 62
    7
 10
1789.6252501070496
 20
278.61491267531699
 11
1775.8033279261399
 21
270.63482218345086
  0
LINE
  8
_0-0_0
  6
CONTINUOUS
 62
    7
 10
1764.3218941909397
 20
303.91826859142651
 11
1756.3167936910654
 21
290.05302780594951
  0
LINE
  8
_0-0_0
  6
CONTINUOUS
 62
    7
 10
1753.814616931764
 20
285.71913052932064
 11
1748.8418036990738
 21
277.10596535375055
  0
LINE
  8
_0-0_0
  6
CONTINUOUS
 62
    7
 10
1759.9917671720175
 20
306.41826859142657
 11
1751.9866666721432
 21
292.55302780594957
  0
LINE
  8
_0-0_0
  6
CONTINUOUS
 62
    7
 10
1749.4844899128418
 20
288.21913052932064
 11
1744.5116766801516
 21
279.60596535375061
  0
ARC
  8
_0-0_0
  6
CONTINUOUS
 62
    7
 10
1722.9267401896125
 20
237.2197586739897
 40
57.5
 50
2.4919063689800094
 51
57.508093631020152
  0
ARC
  8
_0-0_0
  6
CONTINUOUS
 62
    7
 10
1722.9267401896125
 20
237.2197586739897
 40
57.5
 50
62.491906368979947
 51
117.50809363102005
  0
ARC
  8
_0-0_0
  6
CONTINUOUS
 62
    7
 10
1722.9267401896125
 20
237.2197586739897
 40
57.5
 50
182.49190636897978
 51
237.50809363102019
  0
LINE
  8
_0-0_0
  6
CONTINUOUS
 62
    7
 10
1692.0388634474609
 20
188.7203868186586
 11
1697.0116766801518
 21
197.33355199422883
  0
LINE
  8
_0-0_0
  6
CONTINUOUS
 62
    7
 10
1696.3689904663831
 20
186.22038681865865
 11
1701.341803699074
 21
194.83355199422888
  0
LINE
  8
_0-0_0
  6
CONTINUOUS
 62
    7
 10
1749.4844899128418
 20
186.22038681865882
 11
1744.5116766801516
 21
194.83355199422897
  0
LINE
  8
_0-0_0
  6
CONTINUOUS
 62
    7
 10
1753.814616931764
 20
188.72038681865894
 11
1748.8418036990738
 21
197.33355199422891
  0
ARC
  8
_0-0_0
  6
CONTINUOUS
 62
    7
 10
1722.9267401896125
 20
237.2197586739897
 40
57.5
 50
242.49190636897995
 51
297.50809363102042
  0
ARC
  8
_0-0_0
  6
CONTINUOUS
 62
    7
 10
1722.9267401896125
 20
237.2197586739897
 40
57.5
 50
302.4919063689801
 51
357.50809363102019
  0
ARC
  8
_0-0_0
  6
CONTINUOUS
 62
    7
 10
1722.9267401896125
 20
237.2197586739897
 40
78.5
 50
333.0162517363197
 51
354.1511675444936
  0
ARC
  8
_0-0_0
  6
CONTINUOUS
 62
    7
 10
1722.9267401896125
 20
237.2197586739897
 40
78.5
 50
185.84883245550651
 51
206.98374826368027
  0
LINE
  8
_0-0_0
  6
CONTINUOUS
 62
    7
 10
1780.0116766801514
 20
133.34574832553386
 11
1762.4929599098823
 21
163.68905585504928
  0
LINE
  8
_0-0_0
  6
CONTINUOUS
 62
    7
 10
1759.9917671720175
 20
168.02124875655312
 11
1751.9866666721439
 21
181.88648954202998
  0
LINE
  8
_0-0_0
  6
CONTINUOUS
 62
    7
 10
1784.3418036990736
 20
135.84574832553389
 11
1766.8230869288045
 21
166.1890558550493
  0
LINE
  8
_0-0_0
  6
CONTINUOUS
 62
    7
 10
1764.3218941909397
 20
170.52124875655306
 11
1756.3167936910661
 21
184.38648954203001
  0
ARC
  8
_0-0_0
  6
CONTINUOUS
 62
    7
 10
1722.9267401896125
 20
237.2197586739897
 40
78.5
 50
301.82501494312368
 51
326.98374826368035
  0
ARC
  8
_0-0_0
  6
CONTINUOUS
 62
    7
 10
1722.9267401896125
 20
237.2197586739897
 40
83.5
 50
301.71569889401979
 51
308.28506980447361
  0
LINE
  8
_0-0_0
  6
CONTINUOUS
 62
    7
 10
1665.8418036990736
 20
133.34574832553369
 11
1683.3605204693433
 21
163.68905585504911
  0
LINE
  8
_0-0_0
  6
CONTINUOUS
 62
    7
 10
1685.8617132072075
 20
168.02124875655286
 11
1693.8668137070817
 21
181.88648954202981
  0
LINE
  8
_0-0_0
  6
CONTINUOUS
 62
    7
 10
1661.5116766801514
 20
135.84574832553372
 11
1679.0303934504211
 21
166.18905585504905
  0
LINE
  8
_0-0_0
  6
CONTINUOUS
 62
    7
 10
1681.5315861882852
 20
170.52124875655289
 11
1689.5366866881595
 21
184.38648954202975
  0
ARC
  8
_0-0_0
  6
CONTINUOUS
 62
    7
 10
1722.9267401896125
 20
237.2197586739897
 40
78.5
 50
213.01625173631956
 51
238.17498505687661
  0
LINE
  8
_0-0_0
  6
CONTINUOUS
 62
    7
 10
1606.6611419018329
 20
214.18043023792788
 11
1641.1294132572602
 21
220.25811645627044
  0
LINE
  8
_0-0_0
  6
CONTINUOUS
 62
    7
 10
1605.7929010134983
 20
219.10446900298894
 11
1640.2611723689256
 21
225.1821552213315
  0
ARC
  8
_0-0_0
  6
CONTINUOUS
 62
    7
 10
1722.9267401896125
 20
237.2197586739897
 40
83.5
 50
184.12536896310198
 51
188.28506980447352
  0
ARC
  8
_0-0_0
  6
CONTINUOUS
 62
    7
 10
1722.9267401896125
 20
237.2197586739897
 40
83.5
 50
191.71493019552656
 51
200.86620907736668
  0
ARC
  8
_0-0_0
  6
CONTINUOUS
 62
    7
 10
1722.9267401896125
 20
237.2197586739897
 40
83.5
 50
171.71493019552648
 51
175.87463103689802
  0
ARC
  8
_0-0_0
  6
CONTINUOUS
 62
    7
 10
1722.9267401896125
 20
237.2197586739897
 40
83.5
 50
151.7156988940196
 51
158.28506980447335
  0
ARC
  8
_0-0_0
  6
CONTINUOUS
 62
    7
 10
1722.9267401896125
 20
237.2197586739897
 40
83.5
 50
161.71493019552651
 51
168.28506980447347
  0
ARC
  8
_0-0_0
  6
CONTINUOUS
 62
    7
 10
1722.9267401896125
 20
237.2197586739897
 40
83.5
 50
141.71493019552651
 51
148.28430110598038
  0
ARC
  8
_0-0_0
  6
CONTINUOUS
 62
    7
 10
1722.9267401896125
 20
237.2197586739897
 40
83.5
 50
131.71493019552651
 51
138.28506980447347
  0
ARC
  8
_0-0_0
  6
CONTINUOUS
 62
    7
 10
1722.9267401896125
 20
237.2197586739897
 40
83.5
 50
121.71569889401957
 51
128.28506980447335
  0
ARC
  8
_0-0_0
  6
CONTINUOUS
 62
    7
 10
1722.9267401896125
 20
237.2197586739897
 40
83.5
 50
99.133790922633096
 51
108.28506980447334
  0
ARC
  8
_0-0_0
  6
CONTINUOUS
 62
    7
 10
1722.9267401896125
 20
237.2197586739897
 40
83.5
 50
111.71493019552646
 51
118.28430110598033
  0
ARC
  8
_0-0_0
  6
CONTINUOUS
 62
    7
 10
1722.9267401896125
 20
237.2197586739897
 40
78.5
 50
93.016251736319319
 51
118.17498505687642
  0
ARC
  8
_0-0_0
  6
CONTINUOUS
 62
    7
 10
1722.9267401896125
 20
237.2197586739897
 40
78.5
 50
121.82501494312342
 51
148.17498505687644
  0
ARC
  8
_0-0_0
  6
CONTINUOUS
 62
    7
 10
1722.9267401896125
 20
237.2197586739897
 40
62.500000000000007
 50
62.292442775955898
 51
87.709389957361594
  0
ARC
  8
_0-0_0
  6
CONTINUOUS
 62
    7
 10
1722.9267401896125
 20
237.2197586739897
 40
62.500000000000007
 50
92.290610042638392
 51
117.70755722404397
  0
ARC
  8
_0-0_0
  6
CONTINUOUS
 62
    7
 10
1722.9267401896125
 20
337.21975867398982
 40
22
 50
259.17820751832755
 51
263.51692630710295
  0
ARC
  8
_0-0_0
  6
CONTINUOUS
 62
    7
 10
1722.9267401896125
 20
337.21975867398982
 40
22
 50
276.48307369289705
 51
280.82179248167239
  0
ARC
  8
_0-0_0
  6
CONTINUOUS
 62
    7
 10
1722.9267401896125
 20
237.2197586739897
 40
78.5
 50
31.82501494312352
 51
58.174985056876444
  0
ARC
  8
_0-0_0
  6
CONTINUOUS
 62
    7
 10
1722.9267401896125
 20
237.2197586739897
 40
78.5
 50
61.825014943123456
 51
86.983748263680667
  0
ARC
  8
_0-0_0
  6
CONTINUOUS
 62
    7
 10
1722.9267401896125
 20
237.2197586739897
 40
83.5
 50
61.715698894019674
 51
68.285069804473423
  0
ARC
  8
_0-0_0
  6
CONTINUOUS
 62
    7
 10
1722.9267401896125
 20
237.2197586739897
 40
83.5
 50
71.714930195526506
 51
80.866209077366889
  0
ARC
  8
_0-0_0
  6
CONTINUOUS
 62
    7
 10
1722.9267401896125
 20
237.2197586739897
 40
47.5
 50
183.01278750418331
 51
236.98721249581683
  0
ARC
  8
_0-0_0
  6
CONTINUOUS
 62
    7
 10
1722.9267401896125
 20
237.2197586739897
 40
47.5
 50
243.01278750418339
 51
296.98721249581683
  0
ARC
  8
_0-0_0
  6
CONTINUOUS
 62
    7
 10
1722.9267401896125
 20
237.2197586739897
 40
47.5
 50
303.01278750418362
 51
356.98721249581695
  0
ARC
  8
_0-0_0
  6
CONTINUOUS
 62
    7
 10
1722.9267401896125
 20
237.2197586739897
 40
47.5
 50
3.0127875041834806
 51
56.987212495816621
  0
ARC
  8
_0-0_0
  6
CONTINUOUS
 62
    7
 10
1722.9267401896125
 20
237.2197586739897
 40
47.5
 50
63.012787504183372
 51
116.98721249581641
  0
ARC
  8
_0-0_0
  6
CONTINUOUS
 62
    7
 10
1722.9267401896125
 20
237.2197586739897
 40
47.5
 50
123.01278750418319
 51
176.98721249581649
  0
ARC
  8
_0-0_0
  6
CONTINUOUS
 62
    7
 10
1722.9267401896125
 20
237.2197586739897
 40
62.500000000000007
 50
182.29244277595586
 51
207.70938995736151
  0
ARC
  8
_0-0_0
  6
CONTINUOUS
 62
    7
 10
1722.9267401896125
 20
237.2197586739897
 40
62.500000000000007
 50
212.29061004263846
 51
237.70755722404428
  0
ARC
  8
_0-0_0
  6
CONTINUOUS
 62
    7
 10
1722.9267401896125
 20
237.2197586739897
 40
62.500000000000007
 50
302.29244277595615
 51
327.70938995736174
  0
ARC
  8
_0-0_0
  6
CONTINUOUS
 62
    7
 10
1722.9267401896125
 20
237.2197586739897
 40
62.500000000000007
 50
332.29061004263872
 51
357.70755722404419
  0
ARC
  8
_0-0_0
  6
CONTINUOUS
 62
    7
 10
1722.9267401896125
 20
237.2197586739897
 40
62.500000000000007
 50
2.2924427759559904
 51
27.70938995736152
  0
ARC
  8
_0-0_0
  6
CONTINUOUS
 62
    7
 10
1722.9267401896125
 20
237.2197586739897
 40
62.500000000000007
 50
32.290610042638605
 51
57.707557224044109
  0
ARC
  8
_0-0_0
  6
CONTINUOUS
 62
    7
 10
1722.9267401896125
 20
237.2197586739897
 40
62.500000000000007
 50
122.29244277595573
 51
147.70938995736142
  0
ARC
  8
_0-0_0
  6
CONTINUOUS
 62
    7
 10
1722.9267401896125
 20
237.2197586739897
 40
62.500000000000007
 50
152.29061004263849
 51
177.70755722404402
  0
ARC
  8
_0-0_0
  6
CONTINUOUS
 62
    7
 10
1722.9267401896125
 20
237.2197586739897
 40
62.500000000000007
 50
242.29244277595603
 51
267.70938995736162
  0
ARC
  8
_0-0_0
  6
CONTINUOUS
 62
    7
 10
1722.9267401896125
 20
237.2197586739897
 40
62.500000000000007
 50
272.29061004263838
 51
297.70755722404431
  0
ARC
  8
_0-0_0
  6
CONTINUOUS
 62
    7
 10
1722.9267401896125
 20
237.2197586739897
 40
83.5
 50
281.71493019552668
 51
288.28506980447361
  0
ARC
  8
_0-0_0
  6
CONTINUOUS
 62
    7
 10
1722.9267401896125
 20
237.2197586739897
 40
83.5
 50
291.71493019552685
 51
298.2843011059806
  0
ARC
  8
_0-0_0
  6
CONTINUOUS
 62
    7
 10
1722.9267401896125
 20
237.2197586739897
 40
83.5
 50
11.714930195526575
 51
18.285069804473451
  0
ARC
  8
_0-0_0
  6
CONTINUOUS
 62
    7
 10
1722.9267401896125
 20
237.2197586739897
 40
83.5
 50
21.714930195526584
 51
28.284301105980408
  0
ARC
  8
_0-0_0
  6
CONTINUOUS
 62
    7
 10
1722.9267401896125
 20
237.2197586739897
 40
83.5
 50
31.715698894019692
 51
38.285069804473508
  0
ARC
  8
_0-0_0
  6
CONTINUOUS
 62
    7
 10
1722.9267401896125
 20
237.2197586739897
 40
83.5
 50
41.714930195526541
 51
48.285069804473501
  0
ARC
  8
_0-0_0
  6
CONTINUOUS
 62
    7
 10
1722.9267401896125
 20
237.2197586739897
 40
83.5
 50
51.714930195526648
 51
58.28430110598044
  0
ARC
  8
_0-0_0
  6
CONTINUOUS
 62
    7
 10
1636.3241998111685
 20
187.21975867398982
 40
22
 50
19.178207518326079
 51
23.516926307102334
  0
ARC
  8
_0-0_0
  6
CONTINUOUS
 62
    7
 10
1636.3241998111685
 20
187.21975867398982
 40
22
 50
36.48307369289693
 51
40.821792481673853
  0
ARC
  8
_0-0_0
  6
CONTINUOUS
 62
    7
 10
1722.9267401896125
 20
237.2197586739897
 40
83.5
 50
219.13379092263321
 51
228.28506980447355
  0
ARC
  8
_0-0_0
  6
CONTINUOUS
 62
    7
 10
1722.9267401896125
 20
237.2197586739897
 40
83.5
 50
231.71493019552665
 51
238.28430110598046
  0
ARC
  8
_0-0_0
  6
CONTINUOUS
 62
    7
 10
1722.9267401896125
 20
237.2197586739897
 40
83.5
 50
241.71569889401968
 51
248.28506980447366
  0
ARC
  8
_0-0_0
  6
CONTINUOUS
 62
    7
 10
1722.9267401896125
 20
237.2197586739897
 40
83.5
 50
251.71493019552662
 51
258.28506980447366
  0
LINE
  8
_0-0_0
  6
CONTINUOUS
 62
    7
 10
1725.4267401896122
 20
118.71975867398979
 11
1725.4267401896122
 21
153.75719221452835
  0
LINE
  8
_0-0_0
  6
CONTINUOUS
 62
    7
 10
1725.4267401896122
 20
158.75957769025754
 11
1725.4267401896122
 21
174.71975867398967
  0
ARC
  8
_0-0_0
  6
CONTINUOUS
 62
    7
 10
1722.9267401896125
 20
237.2197586739897
 40
78.5
 50
271.82501494312351
 51
298.17498505687678
  0
LINE
  8
_0-0_0
  6
CONTINUOUS
 62
    7
 10
1720.4267401896127
 20
118.71975867398979
 11
1720.4267401896127
 21
153.75719221452835
  0
LINE
  8
_0-0_0
  6
CONTINUOUS
 62
    7
 10
1720.4267401896127
 20
158.75957769025754
 11
1720.4267401896127
 21
174.71975867398967
  0
ARC
  8
_0-0_0
  6
CONTINUOUS
 62
    7
 10
1722.9267401896125
 20
237.2197586739897
 40
83.5
 50
271.71569889401962
 51
278.28506980447366
  0
ARC
  8
_0-0_0
  6
CONTINUOUS
 62
    7
 10
1722.9267401896125
 20
237.2197586739897
 40
83.5
 50
261.71493019552673
 51
268.28430110598043
  0
ARC
  8
_0-0_0
  6
CONTINUOUS
 62
    7
 10
1722.9267401896125
 20
237.2197586739897
 40
78.5
 50
241.82501494312362
 51
268.17498505687661
  0
CIRCLE
  8
_0-0_0
  6
CONTINUOUS
 62
    7
 10
1188.8279649617475
 20
237.21975867398979
 40
4.75
  0
CIRCLE
  8
_0-0_0
  6
CONTINUOUS
 62
    7
 10
1344.8279649617475
 20
237.21975867398979
 40
4.75
  0
CIRCLE
  8
_0-0_0
  6
CONTINUOUS
 62
    7
 10
1266.8279649617475
 20
337.21975867398982
 40
18
  0
CIRCLE
  8
_0-0_0
  6
CONTINUOUS
 62
    7
 10
1180.2254245833037
 20
187.21975867398982
 40
18
  0
CIRCLE
  8
_0-0_0
  6
CONTINUOUS
 62
    7
 10
1353.4305053401915
 20
187.21975867398982
 40
18
  0
CIRCLE
  8
_0-0_0
  6
CONTINUOUS
 62
    7
 10
1266.8279649617475
 20
337.21975867398982
 40
6.5
  0
CIRCLE
  8
_0-0_0
  6
CONTINUOUS
 62
    7
 10
1180.2254245833037
 20
187.21975867398982
 40
6.5
  0
CIRCLE
  8
_0-0_0
  6
CONTINUOUS
 62
    7
 10
1353.4305053401915
 20
187.21975867398982
 40
6.5
  0
CIRCLE
  8
_0-0_0
  6
CONTINUOUS
 62
    7
 10
1266.8279649617475
 20
237.21975867398979
 40
53
  0
LINE
  8
_0-0_0
  6
CONTINUOUS
 62
    7
 10
1253.6583935986814
 20
288.55748739384171
 11
1241.8241557909591
 21
288.55748739384171
  0
LINE
  8
_0-0_0
  6
CONTINUOUS
 62
    7
 10
1253.6583935986814
 20
288.55748739384165
 11
1253.7410765427112
 21
292.03280562689213
  0
LINE
  8
_0-0_0
  6
CONTINUOUS
 62
    7
 10
1253.7410765427112
 20
292.03280562689213
 11
1253.6414585436391
 21
295.50318510883466
  0
LINE
  8
_0-0_0
  6
CONTINUOUS
 62
    7
 10
1253.6414585436391
 20
295.50318510883466
 11
1253.3625664439578
 21
298.86318011520723
  0
LINE
  8
_0-0_0
  6
CONTINUOUS
 62
    7
 10
1253.3625664439578
 20
298.86318011520723
 11
1252.9128742389898
 21
302.01069889798066
  0
LINE
  8
_0-0_0
  6
CONTINUOUS
 62
    7
 10
1252.9128742389898
 20
302.01069889798066
 11
1252.306045598828
 21
304.85010569166184
  0
LINE
  8
_0-0_0
  6
CONTINUOUS
 62
    7
 10
1252.306045598828
 20
304.85010569166184
 11
1251.5605187046333
 21
307.29512655763381
  0
LINE
  8
_0-0_0
  6
CONTINUOUS
 62
    7
 10
1251.5605187046333
 20
307.29512655763381
 11
1250.6989460138311
 21
309.27147077412428
  0
LINE
  8
_0-0_0
  6
CONTINUOUS
 62
    7
 10
1250.6989460138311
 20
309.27147077412428
 11
1249.7475059766548
 21
310.71908812219368
  0
LINE
  8
_0-0_0
  6
CONTINUOUS
 62
    7
 10
1249.7475059766548
 20
310.71908812219368
 11
1248.7351076171819
 21
311.59399348125066
  0
LINE
  8
_0-0_0
  6
CONTINUOUS
 62
    7
 10
1248.7351076171819
 20
311.59399348125066
 11
1247.6925121472668
 21
311.86960329468366
  0
LINE
  8
_0-0_0
  6
CONTINUOUS
 62
    7
 10
1247.6925121472668
 20
311.86960329468366
 11
1246.6513983026839
 21
311.53754329777684
  0
LINE
  8
_0-0_0
  6
CONTINUOUS
 62
    7
 10
1246.6513983026839
 20
311.53754329777684
 11
1245.6433998007722
 21
310.60790296550579
  0
LINE
  8
_0-0_0
  6
CONTINUOUS
 62
    7
 10
1245.6433998007722
 20
310.60790296550579
 11
1244.6991441659402
 21
309.10892894894585
  0
LINE
  8
_0-0_0
  6
CONTINUOUS
 62
    7
 10
1244.6991441659402
 20
309.10892894894585
 11
1243.8473221278359
 21
307.08616681507272
  0
LINE
  8
_0-0_0
  6
CONTINUOUS
 62
    7
 10
1243.8473221278359
 20
307.08616681507272
 11
1243.1138158680442
 21
304.60107716775713
  0
LINE
  8
_0-0_0
  6
CONTINUOUS
 62
    7
 10
1243.1138158680442
 20
304.60107716775713
 11
1242.520912603097
 21
301.72916819841669
  0
LINE
  8
_0-0_0
  6
CONTINUOUS
 62
    7
 10
1242.520912603097
 20
301.72916819841669
 11
1242.0866273986762
 21
298.55770140782874
  0
LINE
  8
_0-0_0
  6
CONTINUOUS
 62
    7
 10
1242.0866273986762
 20
298.55770140782874
 11
1241.8241557909591
 21
295.18304020958573
  0
LINE
  8
_0-0_0
  6
CONTINUOUS
 62
    7
 10
1241.8241557909591
 20
295.18304020958573
 11
1241.7414728469294
 21
291.70772197653525
  0
LINE
  8
_0-0_0
  6
CONTINUOUS
 62
    7
 10
1241.7414728469294
 20
291.70772197653525
 11
1241.8241557909591
 21
288.55748739384165
  0
LINE
  8
_0-0_0
  6
CONTINUOUS
 62
    7
 10
1279.9975363248136
 20
288.55748739384171
 11
1291.8317741325359
 21
288.55748739384171
  0
LINE
  8
_0-0_0
  6
CONTINUOUS
 62
    7
 10
1291.8317741325359
 20
288.55748739384165
 11
1291.9144570765657
 21
292.03280562689213
  0
LINE
  8
_0-0_0
  6
CONTINUOUS
 62
    7
 10
1291.9144570765657
 20
292.03280562689213
 11
1291.8148390774936
 21
295.50318510883466
  0
LINE
  8
_0-0_0
  6
CONTINUOUS
 62
    7
 10
1291.8148390774936
 20
295.50318510883466
 11
1291.5359469778123
 21
298.86318011520723
  0
LINE
  8
_0-0_0
  6
CONTINUOUS
 62
    7
 10
1291.5359469778123
 20
298.86318011520723
 11
1291.0862547728443
 21
302.01069889798066
  0
LINE
  8
_0-0_0
  6
CONTINUOUS
 62
    7
 10
1291.0862547728443
 20
302.01069889798066
 11
1290.4794261326824
 21
304.85010569166184
  0
LINE
  8
_0-0_0
  6
CONTINUOUS
 62
    7
 10
1290.4794261326824
 20
304.85010569166184
 11
1289.733899238488
 21
307.29512655763381
  0
LINE
  8
_0-0_0
  6
CONTINUOUS
 62
    7
 10
1289.733899238488
 20
307.29512655763381
 11
1288.8723265476856
 21
309.27147077412428
  0
LINE
  8
_0-0_0
  6
CONTINUOUS
 62
    7
 10
1288.8723265476856
 20
309.27147077412428
 11
1287.9208865105093
 21
310.71908812219368
  0
LINE
  8
_0-0_0
  6
CONTINUOUS
 62
    7
 10
1287.9208865105093
 20
310.71908812219368
 11
1286.9084881510364
 21
311.59399348125066
  0
LINE
  8
_0-0_0
  6
CONTINUOUS
 62
    7
 10
1286.9084881510364
 20
311.59399348125066
 11
1285.8658926811213
 21
311.86960329468366
  0
LINE
  8
_0-0_0
  6
CONTINUOUS
 62
    7
 10
1285.8658926811213
 20
311.86960329468366
 11
1284.8247788365384
 21
311.53754329777684
  0
LINE
  8
_0-0_0
  6
CONTINUOUS
 62
    7
 10
1284.8247788365384
 20
311.53754329777684
 11
1283.8167803346264
 21
310.60790296550579
  0
LINE
  8
_0-0_0
  6
CONTINUOUS
 62
    7
 10
1283.8167803346264
 20
310.60790296550579
 11
1282.8725246997947
 21
309.10892894894585
  0
LINE
  8
_0-0_0
  6
CONTINUOUS
 62
    7
 10
1282.8725246997947
 20
309.10892894894585
 11
1282.0207026616904
 21
307.08616681507272
  0
LINE
  8
_0-0_0
  6
CONTINUOUS
 62
    7
 10
1282.0207026616904
 20
307.08616681507272
 11
1281.2871964018987
 21
304.60107716775713
  0
LINE
  8
_0-0_0
  6
CONTINUOUS
 62
    7
 10
1281.2871964018987
 20
304.60107716775713
 11
1280.6942931369515
 21
301.72916819841669
  0
LINE
  8
_0-0_0
  6
CONTINUOUS
 62
    7
 10
1280.6942931369515
 20
301.72916819841669
 11
1280.2600079325307
 21
298.55770140782874
  0
LINE
  8
_0-0_0
  6
CONTINUOUS
 62
    7
 10
1280.2600079325307
 20
298.55770140782874
 11
1279.9975363248136
 21
295.18304020958573
  0
LINE
  8
_0-0_0
  6
CONTINUOUS
 62
    7
 10
1279.9975363248136
 20
295.18304020958573
 11
1279.9148533807838
 21
291.70772197653531
  0
LINE
  8
_0-0_0
  6
CONTINUOUS
 62
    7
 10
1279.9148533807838
 20
291.70772197653531
 11
1279.9975363248136
 21
288.55748739384165
  0
LINE
  8
_0-0_0
  6
CONTINUOUS
 62
    7
 10
1246.6954057818484
 20
187.12665011687974
 11
1245.6733705171405
 21
186.85423027065571
  0
LINE
  8
_0-0_0
  6
CONTINUOUS
 62
    7
 10
1245.6733705171405
 20
186.85423027065571
 11
1244.7141674744616
 21
186.22686130197587
  0
LINE
  8
_0-0_0
  6
CONTINUOUS
 62
    7
 10
1244.7141674744616
 20
186.22686130197587
 11
1243.846941552883
 21
185.2636054994897
  0
LINE
  8
_0-0_0
  6
CONTINUOUS
 62
    7
 10
1243.846941552883
 20
185.2636054994897
 11
1243.0980429731944
 21
183.99373090332469
  0
LINE
  8
_0-0_0
  6
CONTINUOUS
 62
    7
 10
1243.0980429731944
 20
183.99373090332469
 11
1242.4902266397789
 21
182.45582201049788
  0
LINE
  8
_0-0_0
  6
CONTINUOUS
 62
    7
 10
1242.4902266397789
 20
182.45582201049788
 11
1242.0419607443573
 21
180.69660740449828
  0
LINE
  8
_0-0_0
  6
CONTINUOUS
 62
    7
 10
1242.0419607443573
 20
180.69660740449828
 11
1241.7668656193287
 21
178.76953993092363
  0
LINE
  8
_0-0_0
  6
CONTINUOUS
 62
    7
 10
1241.7668656193287
 20
178.76953993092363
 11
1241.6732998908617
 21
176.73317255981536
  0
LINE
  8
_0-0_0
  6
CONTINUOUS
 62
    7
 10
1241.6732998908617
 20
176.73317255981536
 11
1241.7641065062699
 21
174.64937928329292
  0
LINE
  8
_0-0_0
  6
CONTINUOUS
 62
    7
 10
1241.7641065062699
 20
174.64937928329292
 11
1242.0365263524939
 21
172.58147510561318
  0
LINE
  8
_0-0_0
  6
CONTINUOUS
 62
    7
 10
1242.0365263524939
 20
172.58147510561318
 11
1242.4822820903576
 21
170.59229224880497
  0
LINE
  8
_0-0_0
  6
CONTINUOUS
 62
    7
 10
1242.4822820903576
 20
170.59229224880497
 11
1243.0878296573294
 21
168.74227102739738
  0
LINE
  8
_0-0_0
  6
CONTINUOUS
 62
    7
 10
1243.0878296573294
 20
168.74227102739738
 11
1243.8347697970082
 21
167.08762340004677
  0
LINE
  8
_0-0_0
  6
CONTINUOUS
 62
    7
 10
1243.8347697970082
 20
167.08762340004677
 11
1244.7004071112206
 21
165.67862499761824
  0
LINE
  8
_0-0_0
  6
CONTINUOUS
 62
    7
 10
1244.7004071112206
 20
165.67862499761824
 11
1245.6584396482071
 21
164.55808752358197
  0
LINE
  8
_0-0_0
  6
CONTINUOUS
 62
    7
 10
1245.6584396482071
 20
164.55808752358197
 11
1246.6797580741197
 21
163.76005794206733
  0
LINE
  8
_0-0_0
  6
CONTINUOUS
 62
    7
 10
1246.6797580741197
 20
163.76005794206733
 11
1247.7333301453989
 21
163.30878397808593
  0
LINE
  8
_0-0_0
  6
CONTINUOUS
 62
    7
 10
1247.7333301453989
 20
163.30878397808593
 11
1248.7871436077921
 21
163.21797736267786
  0
LINE
  8
_0-0_0
  6
CONTINUOUS
 62
    7
 10
1248.7871436077921
 20
163.21797736267786
 11
1249.8091788725001
 21
163.49039720890198
  0
LINE
  8
_0-0_0
  6
CONTINUOUS
 62
    7
 10
1249.8091788725001
 20
163.49039720890198
 11
1250.7683819151789
 21
164.11776617758173
  0
LINE
  8
_0-0_0
  6
CONTINUOUS
 62
    7
 10
1250.7683819151789
 20
164.11776617758173
 11
1251.6356078367576
 21
165.0810219800679
  0
LINE
  8
_0-0_0
  6
CONTINUOUS
 62
    7
 10
1251.6356078367576
 20
165.0810219800679
 11
1252.3845064164461
 21
166.35089657623291
  0
LINE
  8
_0-0_0
  6
CONTINUOUS
 62
    7
 10
1252.3845064164461
 20
166.35089657623291
 11
1252.9923227498616
 21
167.8888054690598
  0
LINE
  8
_0-0_0
  6
CONTINUOUS
 62
    7
 10
1252.9923227498616
 20
167.8888054690598
 11
1253.4405886452832
 21
169.64802007505941
  0
LINE
  8
_0-0_0
  6
CONTINUOUS
 62
    7
 10
1253.4405886452832
 20
169.64802007505941
 11
1253.7156837703119
 21
171.57508754863406
  0
LINE
  8
_0-0_0
  6
CONTINUOUS
 62
    7
 10
1253.7156837703119
 20
171.57508754863406
 11
1253.8092494987789
 21
173.61145491974233
  0
LINE
  8
_0-0_0
  6
CONTINUOUS
 62
    7
 10
1253.8092494987789
 20
173.61145491974233
 11
1253.7184428833707
 21
175.69524819626477
  0
LINE
  8
_0-0_0
  6
CONTINUOUS
 62
    7
 10
1253.7184428833707
 20
175.69524819626477
 11
1253.4460230371467
 21
177.76315237394451
  0
LINE
  8
_0-0_0
  6
CONTINUOUS
 62
    7
 10
1253.4460230371467
 20
177.76315237394451
 11
1253.000267299283
 21
179.75233523075272
  0
LINE
  8
_0-0_0
  6
CONTINUOUS
 62
    7
 10
1253.000267299283
 20
179.75233523075272
 11
1252.3947197323112
 21
181.60235645216031
  0
LINE
  8
_0-0_0
  6
CONTINUOUS
 62
    7
 10
1252.3947197323112
 20
181.60235645216031
 11
1251.6477795926323
 21
183.25700407951084
  0
LINE
  8
_0-0_0
  6
CONTINUOUS
 62
    7
 10
1251.6477795926323
 20
183.25700407951084
 11
1250.78214227842
 21
184.66600248193936
  0
LINE
  8
_0-0_0
  6
CONTINUOUS
 62
    7
 10
1250.78214227842
 20
184.66600248193936
 11
1249.8241097414334
 21
185.78653995597563
  0
LINE
  8
_0-0_0
  6
CONTINUOUS
 62
    7
 10
1249.8241097414334
 20
185.78653995597563
 11
1248.8027913155208
 21
186.58456953749035
  0
LINE
  8
_0-0_0
  6
CONTINUOUS
 62
    7
 10
1248.8027913155208
 20
186.58456953749035
 11
1247.7492192442417
 21
187.03584350147176
  0
LINE
  8
_0-0_0
  6
CONTINUOUS
 62
    7
 10
1247.7492192442417
 20
187.03584350147176
 11
1246.6954057818484
 21
187.12665011687974
  0
LINE
  8
_0-0_0
  6
CONTINUOUS
 62
    7
 10
1286.9605241416466
 20
187.12665011687974
 11
1285.9067106792536
 21
187.03584350147176
  0
LINE
  8
_0-0_0
  6
CONTINUOUS
 62
    7
 10
1285.9067106792536
 20
187.03584350147176
 11
1284.8531386079744
 21
186.58456953749044
  0
LINE
  8
_0-0_0
  6
CONTINUOUS
 62
    7
 10
1284.8531386079744
 20
186.58456953749044
 11
1283.8318201820616
 21
185.78653995597571
  0
LINE
  8
_0-0_0
  6
CONTINUOUS
 62
    7
 10
1283.8318201820616
 20
185.78653995597571
 11
1282.873787645075
 21
184.66600248193944
  0
LINE
  8
_0-0_0
  6
CONTINUOUS
 62
    7
 10
1282.873787645075
 20
184.66600248193944
 11
1282.0081503308629
 21
183.25700407951092
  0
LINE
  8
_0-0_0
  6
CONTINUOUS
 62
    7
 10
1282.0081503308629
 20
183.25700407951092
 11
1281.2612101911841
 21
181.60235645216039
  0
LINE
  8
_0-0_0
  6
CONTINUOUS
 62
    7
 10
1281.2612101911841
 20
181.60235645216039
 11
1280.655662624212
 21
179.75233523075272
  0
LINE
  8
_0-0_0
  6
CONTINUOUS
 62
    7
 10
1280.655662624212
 20
179.75233523075272
 11
1280.2099068863483
 21
177.76315237394451
  0
LINE
  8
_0-0_0
  6
CONTINUOUS
 62
    7
 10
1280.2099068863483
 20
177.76315237394451
 11
1279.9374870401243
 21
175.69524819626477
  0
LINE
  8
_0-0_0
  6
CONTINUOUS
 62
    7
 10
1279.9374870401243
 20
175.69524819626477
 11
1279.8466804247159
 21
173.61145491974233
  0
LINE
  8
_0-0_0
  6
CONTINUOUS
 62
    7
 10
1279.8466804247159
 20
173.61145491974233
 11
1279.9402461531831
 21
171.57508754863406
  0
LINE
  8
_0-0_0
  6
CONTINUOUS
 62
    7
 10
1279.9402461531831
 20
171.57508754863406
 11
1280.2153412782118
 21
169.64802007505941
  0
LINE
  8
_0-0_0
  6
CONTINUOUS
 62
    7
 10
1280.2153412782118
 20
169.64802007505941
 11
1280.6636071736334
 21
167.8888054690598
  0
LINE
  8
_0-0_0
  6
CONTINUOUS
 62
    7
 10
1280.6636071736334
 20
167.8888054690598
 11
1281.2714235070489
 21
166.35089657623291
  0
LINE
  8
_0-0_0
  6
CONTINUOUS
 62
    7
 10
1281.2714235070489
 20
166.35089657623291
 11
1282.0203220867375
 21
165.0810219800679
  0
LINE
  8
_0-0_0
  6
CONTINUOUS
 62
    7
 10
1282.0203220867375
 20
165.0810219800679
 11
1282.8875480083161
 21
164.11776617758173
  0
LINE
  8
_0-0_0
  6
CONTINUOUS
 62
    7
 10
1282.8875480083161
 20
164.11776617758173
 11
1283.846751050995
 21
163.49039720890198
  0
LINE
  8
_0-0_0
  6
CONTINUOUS
 62
    7
 10
1283.846751050995
 20
163.49039720890198
 11
1284.8687863157029
 21
163.21797736267786
  0
LINE
  8
_0-0_0
  6
CONTINUOUS
 62
    7
 10
1284.8687863157029
 20
163.21797736267786
 11
1285.9225997780959
 21
163.30878397808593
  0
LINE
  8
_0-0_0
  6
CONTINUOUS
 62
    7
 10
1285.9225997780959
 20
163.30878397808593
 11
1286.9761718493751
 21
163.76005794206733
  0
LINE
  8
_0-0_0
  6
CONTINUOUS
 62
    7
 10
1286.9761718493751
 20
163.76005794206733
 11
1287.9974902752879
 21
164.55808752358197
  0
LINE
  8
_0-0_0
  6
CONTINUOUS
 62
    7
 10
1287.9974902752879
 20
164.55808752358197
 11
1288.9555228122745
 21
165.67862499761824
  0
LINE
  8
_0-0_0
  6
CONTINUOUS
 62
    7
 10
1288.9555228122745
 20
165.67862499761824
 11
1289.8211601264866
 21
167.08762340004677
  0
LINE
  8
_0-0_0
  6
CONTINUOUS
 62
    7
 10
1289.8211601264866
 20
167.08762340004677
 11
1290.5681002661654
 21
168.74227102739729
  0
LINE
  8
_0-0_0
  6
CONTINUOUS
 62
    7
 10
1290.5681002661654
 20
168.74227102739729
 11
1291.1736478331375
 21
170.59229224880497
  0
LINE
  8
_0-0_0
  6
CONTINUOUS
 62
    7
 10
1291.1736478331375
 20
170.59229224880497
 11
1291.6194035710012
 21
172.58147510561318
  0
LINE
  8
_0-0_0
  6
CONTINUOUS
 62
    7
 10
1291.6194035710012
 20
172.58147510561318
 11
1291.8918234172252
 21
174.64937928329292
  0
LINE
  8
_0-0_0
  6
CONTINUOUS
 62
    7
 10
1291.8918234172252
 20
174.64937928329292
 11
1291.9826300326336
 21
176.73317255981536
  0
LINE
  8
_0-0_0
  6
CONTINUOUS
 62
    7
 10
1291.9826300326336
 20
176.73317255981536
 11
1291.8890643041664
 21
178.76953993092363
  0
LINE
  8
_0-0_0
  6
CONTINUOUS
 62
    7
 10
1291.8890643041664
 20
178.76953993092363
 11
1291.6139691791377
 21
180.69660740449828
  0
LINE
  8
_0-0_0
  6
CONTINUOUS
 62
    7
 10
1291.6139691791377
 20
180.69660740449828
 11
1291.1657032837161
 21
182.45582201049788
  0
LINE
  8
_0-0_0
  6
CONTINUOUS
 62
    7
 10
1291.1657032837161
 20
182.45582201049788
 11
1290.5578869503006
 21
183.99373090332469
  0
LINE
  8
_0-0_0
  6
CONTINUOUS
 62
    7
 10
1290.5578869503006
 20
183.99373090332469
 11
1289.808988370612
 21
185.2636054994897
  0
LINE
  8
_0-0_0
  6
CONTINUOUS
 62
    7
 10
1289.808988370612
 20
185.2636054994897
 11
1288.9417624490338
 21
186.22686130197587
  0
LINE
  8
_0-0_0
  6
CONTINUOUS
 62
    7
 10
1288.9417624490338
 20
186.22686130197587
 11
1287.9825594063545
 21
186.85423027065562
  0
LINE
  8
_0-0_0
  6
CONTINUOUS
 62
    7
 10
1287.9825594063545
 20
186.85423027065562
 11
1286.9605241416466
 21
187.12665011687974
  0
LINE
  8
_0-0_0
  6
CONTINUOUS
 62
    7
 10
1270.0902394055943
 20
338.91925507757242
 11
1331.0684277488062
 21
390.08603042622047
  0
LINE
  8
_0-0_0
  6
CONTINUOUS
 62
    7
 10
1331.0684277488062
 20
390.08603042622047
 11
1522.9173009368433
 21
390.08603042622047
  0
LINE
  8
_0-0_0
  6
CONTINUOUS
 62
    7
 10
1213.8279649617475
 20
483.55451519510541
 11
1319.8279649617475
 21
483.55451519510541
  0
LINE
  8
_0-0_0
  6
AI9-LType3
 62
    7
 10
1226.8241586933259
 20
483.55451519510541
 11
1226.8241586933259
 21
437.2789707357332
  0
LINE
  8
_0-0_0
  6
AI9-LType3
 62
    7
 10
1230.3241586933259
 20
483.55451519510541
 11
1230.3241586933259
 21
437.2789707357332
  0
LINE
  8
_0-0_0
  6
AI9-LType3
 62
    7
 10
1303.3241586933259
 20
483.55451519510541
 11
1303.3241586933259
 21
437.2789707357332
  0
LINE
  8
_0-0_0
  6
AI9-LType3
 62
    7
 10
1306.8241586933259
 20
483.55451519510541
 11
1306.8241586933259
 21
437.2789707357332
  0
LINE
  8
_0-0_0
  6
CONTINUOUS
 62
    7
 10
1404.4243796418236
 20
434.09742505430978
 11
1132.8517126332417
 21
434.09742505430978
  0
LINE
  8
_0-0_0
  6
CONTINUOUS
 62
    7
 10
1391.8279649617475
 20
436.36085278868472
 11
1141.8279649617475
 21
436.36085278868472
  0
LINE
  8
_0-0_0
  6
CONTINUOUS
 62
    7
 10
1319.8140182632947
 20
483.55451519510541
 11
1319.8279649617475
 21
483.54042395535453
  0
LINE
  8
_0-0_0
  6
CONTINUOUS
 62
    7
 10
1213.8279649617475
 20
483.55451519510541
 11
1141.8279649617475
 21
436.36085278868472
  0
LINE
  8
_0-0_0
  6
CONTINUOUS
 62
    7
 10
1319.8279649617475
 20
483.54042395535453
 11
1391.8279649617475
 21
436.36085278868472
  0
LINE
  8
_0-0_0
  6
CONTINUOUS
 62
    7
 10
1141.8279649617475
 20
436.36085278868472
 11
1144.0913926961225
 21
434.09742505430978
  0
LINE
  8
_0-0_0
  6
CONTINUOUS
 62
    7
 10
1198.2467695576615
 20
466.23131156471334
 11
1197.5347426208887
 21
466.66548017997093
  0
LINE
  8
_0-0_0
  6
CONTINUOUS
 62
    7
 10
1197.5347426208887
 20
466.66548017997093
 11
1196.2967808144813
 21
466.70304454650727
  0
LINE
  8
_0-0_0
  6
CONTINUOUS
 62
    7
 10
1196.2967808144813
 20
466.70304454650727
 11
1194.5704989814883
 21
466.34286329005351
  0
LINE
  8
_0-0_0
  6
CONTINUOUS
 62
    7
 10
1194.5704989814883
 20
466.34286329005351
 11
1192.4083493218643
 21
465.59588033582668
  0
LINE
  8
_0-0_0
  6
CONTINUOUS
 62
    7
 10
1192.4083493218643
 20
465.59588033582668
 11
1189.8760276589167
 21
464.48479238289917
  0
LINE
  8
_0-0_0
  6
CONTINUOUS
 62
    7
 10
1189.8760276589167
 20
464.48479238289917
 11
1187.0504773049572
 21
463.04335927648322
  0
LINE
  8
_0-0_0
  6
CONTINUOUS
 62
    7
 10
1187.0504773049572
 20
463.04335927648322
 11
1184.0175511776936
 21
461.31537823211681
  0
LINE
  8
_0-0_0
  6
CONTINUOUS
 62
    7
 10
1184.0175511776936
 20
461.31537823211681
 11
1180.8694032027681
 21
459.35335307943251
  0
LINE
  8
_0-0_0
  6
CONTINUOUS
 62
    7
 10
1180.8694032027681
 20
459.35335307943251
 11
1177.7016882633591
 21
457.21689895986196
  0
LINE
  8
_0-0_0
  6
CONTINUOUS
 62
    7
 10
1177.7016882633591
 20
457.21689895986196
 11
1174.6106557749595
 21
454.97093095073024
  0
LINE
  8
_0-0_0
  6
CONTINUOUS
 62
    7
 10
1174.6106557749595
 20
454.97093095073024
 11
1171.6902251955912
 21
452.68369165348042
  0
LINE
  8
_0-0_0
  6
CONTINUOUS
 62
    7
 10
1171.6902251955912
 20
452.68369165348042
 11
1169.0291323305994
 21
450.42467767676021
  0
LINE
  8
_0-0_0
  6
CONTINUOUS
 62
    7
 10
1169.0291323305994
 20
450.42467767676021
 11
1166.7082331401086
 21
448.26252801713633
  0
LINE
  8
_0-0_0
  6
CONTINUOUS
 62
    7
 10
1166.7082331401086
 20
448.26252801713633
 11
1164.7980469715906
 21
446.26293849791557
  0
LINE
  8
_0-0_0
  6
CONTINUOUS
 62
    7
 10
1164.7980469715906
 20
446.26293849791557
 11
1163.3566138651745
 21
444.48666563479878
  0
LINE
  8
_0-0_0
  6
CONTINUOUS
 62
    7
 10
1163.3566138651745
 20
444.48666563479878
 11
1162.4277310363989
 21
442.987680579894
  0
LINE
  8
_0-0_0
  6
CONTINUOUS
 62
    7
 10
1162.4277310363989
 20
442.987680579894
 11
1162.0396221199783
 21
441.81152923557147
  0
LINE
  8
_0-0_0
  6
CONTINUOUS
 62
    7
 10
1162.0396221199783
 20
441.81152923557147
 11
1162.2040796089459
 21
440.99394836526733
  0
LINE
  8
_0-0_0
  6
CONTINUOUS
 62
    7
 10
1162.2040796089459
 20
440.99394836526733
 11
1162.9161065457188
 21
440.55977975000974
  0
LINE
  8
_0-0_0
  6
CONTINUOUS
 62
    7
 10
1162.9161065457188
 20
440.55977975000974
 11
1164.1540683521262
 21
440.52221538347351
  0
LINE
  8
_0-0_0
  6
CONTINUOUS
 62
    7
 10
1164.1540683521262
 20
440.52221538347351
 11
1165.8803501851191
 21
440.88239663992715
  0
LINE
  8
_0-0_0
  6
CONTINUOUS
 62
    7
 10
1165.8803501851191
 20
440.88239663992715
 11
1168.0424998447431
 21
441.62937959415399
  0
LINE
  8
_0-0_0
  6
CONTINUOUS
 62
    7
 10
1168.0424998447431
 20
441.62937959415399
 11
1170.5748215076908
 21
442.74046754708138
  0
LINE
  8
_0-0_0
  6
CONTINUOUS
 62
    7
 10
1170.5748215076908
 20
442.74046754708138
 11
1173.4003718616502
 21
444.18190065349745
  0
LINE
  8
_0-0_0
  6
CONTINUOUS
 62
    7
 10
1173.4003718616502
 20
444.18190065349745
 11
1176.4332979889139
 21
445.9098816978638
  0
LINE
  8
_0-0_0
  6
CONTINUOUS
 62
    7
 10
1176.4332979889139
 20
445.9098816978638
 11
1179.5814459638393
 21
447.87190685054816
  0
LINE
  8
_0-0_0
  6
CONTINUOUS
 62
    7
 10
1179.5814459638393
 20
447.87190685054816
 11
1182.7491609032484
 21
450.00836097011882
  0
LINE
  8
_0-0_0
  6
CONTINUOUS
 62
    7
 10
1182.7491609032484
 20
450.00836097011882
 11
1185.840193391648
 21
452.25432897925037
  0
LINE
  8
_0-0_0
  6
CONTINUOUS
 62
    7
 10
1185.840193391648
 20
452.25432897925037
 11
1188.7606239710162
 21
454.54156827650036
  0
LINE
  8
_0-0_0
  6
CONTINUOUS
 62
    7
 10
1188.7606239710162
 20
454.54156827650036
 11
1191.421716836008
 21
456.8005822532204
  0
LINE
  8
_0-0_0
  6
CONTINUOUS
 62
    7
 10
1191.421716836008
 20
456.8005822532204
 11
1193.7426160264988
 21
458.96273191284445
  0
LINE
  8
_0-0_0
  6
CONTINUOUS
 62
    7
 10
1193.7426160264988
 20
458.96273191284445
 11
1195.6528021950169
 21
460.96232143206498
  0
LINE
  8
_0-0_0
  6
CONTINUOUS
 62
    7
 10
1195.6528021950169
 20
460.96232143206498
 11
1197.0942353014329
 21
462.73859429518188
  0
LINE
  8
_0-0_0
  6
CONTINUOUS
 62
    7
 10
1197.0942353014329
 20
462.73859429518188
 11
1198.0231181302086
 21
464.23757935008678
  0
LINE
  8
_0-0_0
  6
CONTINUOUS
 62
    7
 10
1198.0231181302086
 20
464.23757935008678
 11
1198.4112270466292
 21
465.41373069440908
  0
LINE
  8
_0-0_0
  6
CONTINUOUS
 62
    7
 10
1198.4112270466292
 20
465.41373069440908
 11
1198.2467695576615
 21
466.23131156471334
  0
LINE
  8
_0-0_0
  6
CONTINUOUS
 62
    7
 10
1335.4015478289903
 20
466.23131156471334
 11
1335.2370903400226
 21
465.4137306944092
  0
LINE
  8
_0-0_0
  6
CONTINUOUS
 62
    7
 10
1335.2370903400226
 20
465.4137306944092
 11
1335.6251992564435
 21
464.23757935008678
  0
LINE
  8
_0-0_0
  6
CONTINUOUS
 62
    7
 10
1335.6251992564435
 20
464.23757935008678
 11
1336.5540820852189
 21
462.738594295182
  0
LINE
  8
_0-0_0
  6
CONTINUOUS
 62
    7
 10
1336.5540820852189
 20
462.738594295182
 11
1337.9955151916347
 21
460.96232143206504
  0
LINE
  8
_0-0_0
  6
CONTINUOUS
 62
    7
 10
1337.9955151916347
 20
460.96232143206504
 11
1339.905701360153
 21
458.96273191284445
  0
LINE
  8
_0-0_0
  6
CONTINUOUS
 62
    7
 10
1339.905701360153
 20
458.96273191284445
 11
1342.226600550644
 21
456.80058225322045
  0
LINE
  8
_0-0_0
  6
CONTINUOUS
 62
    7
 10
1342.226600550644
 20
456.80058225322045
 11
1344.8876934156356
 21
454.54156827650036
  0
LINE
  8
_0-0_0
  6
CONTINUOUS
 62
    7
 10
1344.8876934156356
 20
454.54156827650036
 11
1347.8081239950038
 21
452.25432897925043
  0
LINE
  8
_0-0_0
  6
CONTINUOUS
 62
    7
 10
1347.8081239950038
 20
452.25432897925043
 11
1350.8991564834034
 21
450.00836097011882
  0
LINE
  8
_0-0_0
  6
CONTINUOUS
 62
    7
 10
1350.8991564834034
 20
450.00836097011882
 11
1354.0668714228125
 21
447.87190685054816
  0
LINE
  8
_0-0_0
  6
CONTINUOUS
 62
    7
 10
1354.0668714228125
 20
447.87190685054816
 11
1357.2150193977377
 21
445.90988169786385
  0
LINE
  8
_0-0_0
  6
CONTINUOUS
 62
    7
 10
1357.2150193977377
 20
445.90988169786385
 11
1360.2479455250016
 21
444.18190065349745
  0
LINE
  8
_0-0_0
  6
CONTINUOUS
 62
    7
 10
1360.2479455250016
 20
444.18190065349745
 11
1363.0734958789612
 21
442.74046754708149
  0
LINE
  8
_0-0_0
  6
CONTINUOUS
 62
    7
 10
1363.0734958789612
 20
442.74046754708149
 11
1365.6058175419089
 21
441.6293795941541
  0
LINE
  8
_0-0_0
  6
CONTINUOUS
 62
    7
 10
1365.6058175419089
 20
441.6293795941541
 11
1367.7679672015324
 21
440.88239663992715
  0
LINE
  8
_0-0_0
  6
CONTINUOUS
 62
    7
 10
1367.7679672015324
 20
440.88239663992715
 11
1369.4942490345256
 21
440.52221538347351
  0
LINE
  8
_0-0_0
  6
CONTINUOUS
 62
    7
 10
1369.4942490345256
 20
440.52221538347351
 11
1370.732210840933
 21
440.55977975000974
  0
LINE
  8
_0-0_0
  6
CONTINUOUS
 62
    7
 10
1370.732210840933
 20
440.55977975000974
 11
1371.4442377777059
 21
440.99394836526733
  0
LINE
  8
_0-0_0
  6
CONTINUOUS
 62
    7
 10
1371.4442377777059
 20
440.99394836526733
 11
1371.6086952666735
 21
441.81152923557147
  0
LINE
  8
_0-0_0
  6
CONTINUOUS
 62
    7
 10
1371.6086952666735
 20
441.81152923557147
 11
1371.2205863502527
 21
442.987680579894
  0
LINE
  8
_0-0_0
  6
CONTINUOUS
 62
    7
 10
1371.2205863502527
 20
442.987680579894
 11
1370.2917035214773
 21
444.48666563479878
  0
LINE
  8
_0-0_0
  6
CONTINUOUS
 62
    7
 10
1370.2917035214773
 20
444.48666563479878
 11
1368.8502704150615
 21
446.26293849791557
  0
LINE
  8
_0-0_0
  6
CONTINUOUS
 62
    7
 10
1368.8502704150615
 20
446.26293849791557
 11
1366.9400842465432
 21
448.26252801713622
  0
LINE
  8
_0-0_0
  6
CONTINUOUS
 62
    7
 10
1366.9400842465432
 20
448.26252801713622
 11
1364.6191850560522
 21
450.42467767676015
  0
LINE
  8
_0-0_0
  6
CONTINUOUS
 62
    7
 10
1364.6191850560522
 20
450.42467767676015
 11
1361.9580921910606
 21
452.68369165348031
  0
LINE
  8
_0-0_0
  6
CONTINUOUS
 62
    7
 10
1361.9580921910606
 20
452.68369165348031
 11
1359.0376616116923
 21
454.97093095073024
  0
LINE
  8
_0-0_0
  6
CONTINUOUS
 62
    7
 10
1359.0376616116923
 20
454.97093095073024
 11
1355.9466291232927
 21
457.21689895986185
  0
LINE
  8
_0-0_0
  6
CONTINUOUS
 62
    7
 10
1355.9466291232927
 20
457.21689895986185
 11
1352.7789141838837
 21
459.35335307943251
  0
LINE
  8
_0-0_0
  6
CONTINUOUS
 62
    7
 10
1352.7789141838837
 20
459.35335307943251
 11
1349.6307662089584
 21
461.31537823211681
  0
LINE
  8
_0-0_0
  6
CONTINUOUS
 62
    7
 10
1349.6307662089584
 20
461.31537823211681
 11
1346.5978400816948
 21
463.0433592764831
  0
LINE
  8
_0-0_0
  6
CONTINUOUS
 62
    7
 10
1346.5978400816948
 20
463.0433592764831
 11
1343.7722897277349
 21
464.48479238289917
  0
LINE
  8
_0-0_0
  6
CONTINUOUS
 62
    7
 10
1343.7722897277349
 20
464.48479238289917
 11
1341.2399680647873
 21
465.59588033582668
  0
LINE
  8
_0-0_0
  6
CONTINUOUS
 62
    7
 10
1341.2399680647873
 20
465.59588033582668
 11
1339.0778184051637
 21
466.34286329005351
  0
LINE
  8
_0-0_0
  6
CONTINUOUS
 62
    7
 10
1339.0778184051637
 20
466.34286329005351
 11
1337.3515365721705
 21
466.70304454650727
  0
LINE
  8
_0-0_0
  6
CONTINUOUS
 62
    7
 10
1337.3515365721705
 20
466.70304454650727
 11
1336.1135747657631
 21
466.66548017997093
  0
LINE
  8
_0-0_0
  6
CONTINUOUS
 62
    7
 10
1336.1135747657631
 20
466.66548017997093
 11
1335.4015478289903
 21
466.23131156471334
  0
LINE
  8
_0-0_0
  6
CONTINUOUS
 62
    7
 10
1391.8279649617475
 20
436.36085278868472
 11
1389.5645372273725
 21
434.09742505430978
  0
LINE
  8
_0-0_0
  6
AI9-LType1
 62
    7
 10
1703.8438561911064
 20
461.50559767491626
 11
1703.8438561911064
 21
486.58288886415232
  0
LINE
  8
_0-0_0
  6
AI9-LType1
 62
    7
 10
1742.0172367249613
 20
461.50559767491626
 11
1742.0172367249613
 21
486.58288886415232
  0
CIRCLE
  8
_0-0_0
  6
CONTINUOUS
 62
    7
 10
1742.0163754510888
 20
474.06469326953436
 40
6.0177205403645893
  0
CIRCLE
  8
_0-0_0
  6
CONTINUOUS
 62
    7
 10
1703.8438561911064
 20
474.06469326953436
 40
6.0185818142360841
  0
LINE
  8
_0-0_0
  6
AI9-LType1
 62
    7
 10
1761.1020371221446
 20
474.06469326953436
 11
1684.751443257079
 21
474.06469326953436
  0
LINE
  8
_0-0_0
  6
AI9-LType3
 62
    7
 10
1762.9267401896122
 20
437.2789707357332
 11
1682.926740189612
 21
437.2789707357332
  0
LINE
  8
_0-0_0
  6
CONTINUOUS
 62
    7
 10
1669.9305464580336
 20
483.55451519510541
 11
1775.9305464580341
 21
483.55451519510541
  0
LINE
  8
_0-0_0
  6
AI9-LType3
 62
    7
 10
1682.926740189612
 20
483.55451519510541
 11
1682.926740189612
 21
437.2789707357332
  0
LINE
  8
_0-0_0
  6
AI9-LType3
 62
    7
 10
1686.4267401896122
 20
483.55451519510541
 11
1686.4267401896122
 21
437.2789707357332
  0
LINE
  8
_0-0_0
  6
AI9-LType3
 62
    7
 10
1759.426740189612
 20
483.55451519510541
 11
1759.426740189612
 21
437.2789707357332
  0
LINE
  8
_0-0_0
  6
AI9-LType3
 62
    7
 10
1762.9267401896122
 20
483.55451519510541
 11
1762.9267401896122
 21
437.2789707357332
  0
LINE
  8
_0-0_0
  6
CONTINUOUS
 62
    7
 10
1860.5269611381098
 20
434.09742505430978
 11
1588.9542941295283
 21
434.09742505430978
  0
LINE
  8
_0-0_0
  6
CONTINUOUS
 62
    7
 10
1847.9305464580341
 20
436.36085278868472
 11
1597.9305464580336
 21
436.36085278868472
  0
LINE
  8
_0-0_0
  6
CONTINUOUS
 62
    7
 10
1775.9165997595808
 20
483.55451519510541
 11
1775.9305464580341
 21
483.54042395535453
  0
LINE
  8
_0-0_0
  6
CONTINUOUS
 62
    7
 10
1669.9305464580336
 20
483.55451519510541
 11
1597.9305464580336
 21
436.36085278868472
  0
LINE
  8
_0-0_0
  6
CONTINUOUS
 62
    7
 10
1775.9305464580341
 20
483.54042395535453
 11
1847.9305464580341
 21
436.36085278868472
  0
LINE
  8
_0-0_0
  6
CONTINUOUS
 62
    7
 10
1597.9305464580336
 20
436.36085278868472
 11
1600.1939741924089
 21
434.09742505430978
  0
LINE
  8
_0-0_0
  6
CONTINUOUS
 62
    7
 10
1847.9305464580341
 20
436.36085278868472
 11
1845.6671187236586
 21
434.09742505430978
  0
ARC
  8
_0-0_0
  6
CONTINUOUS
 62
    7
 10
1722.9267401896125
 20
392.47456453162471
 40
52.514943128197032
 50
74.746160750132816
 51
105.25383924986699
  0
LINE
  8
_0-0_0
  6
CONTINUOUS
 62
    7
 10
1738.4830893757164
 20
444.09457819335159
 11
1740.9480851639705
 21
445.88874639318544
  0
LINE
  8
_0-0_0
  6
CONTINUOUS
 62
    7
 10
1740.9480851639705
 20
445.88874639318544
 11
1742.8655115044185
 21
447.91708202524353
  0
LINE
  8
_0-0_0
  6
CONTINUOUS
 62
    7
 10
1742.8655115044185
 20
447.91708202524353
 11
1744.1771083679716
 21
450.11795513773325
  0
LINE
  8
_0-0_0
  6
CONTINUOUS
 62
    7
 10
1744.1771083679716
 20
450.11795513773325
 11
1744.8430235476305
 21
452.4244933148268
  0
LINE
  8
_0-0_0
  6
CONTINUOUS
 62
    7
 10
1744.8430235476305
 20
452.4244933148268
 11
1744.8430235476305
 21
454.76661356117819
  0
LINE
  8
_0-0_0
  6
CONTINUOUS
 62
    7
 10
1744.8430235476305
 20
454.76661356117819
 11
1744.1771083679716
 21
457.0731517382718
  0
LINE
  8
_0-0_0
  6
CONTINUOUS
 62
    7
 10
1744.1771083679716
 20
457.0731517382718
 11
1742.8655115044185
 21
459.27402485076146
  0
LINE
  8
_0-0_0
  6
CONTINUOUS
 62
    7
 10
1742.8655115044185
 20
459.27402485076146
 11
1740.9480851639705
 21
461.30236048281955
  0
LINE
  8
_0-0_0
  6
CONTINUOUS
 62
    7
 10
1740.9480851639705
 20
461.30236048281955
 11
1738.4830893757164
 21
463.09652868265346
  0
LINE
  8
_0-0_0
  6
CONTINUOUS
 62
    7
 10
1738.4830893757164
 20
463.09652868265346
 11
1735.5454217893357
 21
464.602014557404
  0
LINE
  8
_0-0_0
  6
CONTINUOUS
 62
    7
 10
1735.5454217893357
 20
464.602014557404
 11
1732.224341947908
 21
465.77307468057973
  0
LINE
  8
_0-0_0
  6
CONTINUOUS
 62
    7
 10
1732.224341947908
 20
465.77307468057973
 11
1728.6207591818677
 21
466.57412698292273
  0
LINE
  8
_0-0_0
  6
CONTINUOUS
 62
    7
 10
1728.6207591818677
 20
466.57412698292273
 11
1724.8441665300611
 21
466.98083189557849
  0
LINE
  8
_0-0_0
  6
CONTINUOUS
 62
    7
 10
1724.8441665300611
 20
466.98083189557849
 11
1721.0093138491638
 21
466.98083189557849
  0
LINE
  8
_0-0_0
  6
CONTINUOUS
 62
    7
 10
1721.0093138491638
 20
466.98083189557849
 11
1717.2327211973573
 21
466.57412698292273
  0
LINE
  8
_0-0_0
  6
CONTINUOUS
 62
    7
 10
1717.2327211973573
 20
466.57412698292273
 11
1713.629138431317
 21
465.77307468057973
  0
LINE
  8
_0-0_0
  6
CONTINUOUS
 62
    7
 10
1713.629138431317
 20
465.77307468057973
 11
1710.3080585898892
 21
464.60201455740412
  0
LINE
  8
_0-0_0
  6
CONTINUOUS
 62
    7
 10
1710.3080585898892
 20
464.60201455740412
 11
1707.3703910035085
 21
463.09652868265351
  0
LINE
  8
_0-0_0
  6
CONTINUOUS
 62
    7
 10
1707.3703910035085
 20
463.09652868265351
 11
1704.9053952152544
 21
461.30236048281961
  0
LINE
  8
_0-0_0
  6
CONTINUOUS
 62
    7
 10
1704.9053952152544
 20
461.30236048281961
 11
1702.9879688748065
 21
459.27402485076152
  0
LINE
  8
_0-0_0
  6
CONTINUOUS
 62
    7
 10
1702.9879688748065
 20
459.27402485076152
 11
1701.6763720112533
 21
457.07315173827192
  0
LINE
  8
_0-0_0
  6
CONTINUOUS
 62
    7
 10
1701.6763720112533
 20
457.07315173827192
 11
1701.0104568315944
 21
454.76661356117825
  0
LINE
  8
_0-0_0
  6
CONTINUOUS
 62
    7
 10
1701.0104568315944
 20
454.76661356117825
 11
1701.0104568315944
 21
452.42449331482692
  0
LINE
  8
_0-0_0
  6
CONTINUOUS
 62
    7
 10
1701.0104568315944
 20
452.42449331482692
 11
1701.6763720112533
 21
450.11795513773325
  0
LINE
  8
_0-0_0
  6
CONTINUOUS
 62
    7
 10
1701.6763720112533
 20
450.11795513773325
 11
1702.9879688748065
 21
447.91708202524364
  0
LINE
  8
_0-0_0
  6
CONTINUOUS
 62
    7
 10
1702.9879688748065
 20
447.91708202524364
 11
1704.9053952152544
 21
445.88874639318544
  0
LINE
  8
_0-0_0
  6
CONTINUOUS
 62
    7
 10
1704.9053952152544
 20
445.88874639318544
 11
1707.3703910035085
 21
444.09457819335159
  0
LINE
  8
_0-0_0
  6
CONTINUOUS
 62
    7
 10
1707.3703910035085
 20
444.09457819335159
 11
1710.3080585898892
 21
442.58909231860099
  0
LINE
  8
_0-0_0
  6
CONTINUOUS
 62
    7
 10
1710.3080585898892
 20
442.58909231860099
 11
1713.629138431317
 21
441.41803219542533
  0
LINE
  8
_0-0_0
  6
CONTINUOUS
 62
    7
 10
1713.629138431317
 20
441.41803219542533
 11
1717.2327211973573
 21
440.61697989308226
  0
LINE
  8
_0-0_0
  6
CONTINUOUS
 62
    7
 10
1717.2327211973573
 20
440.61697989308226
 11
1721.0093138491638
 21
440.21027498042656
  0
LINE
  8
_0-0_0
  6
CONTINUOUS
 62
    7
 10
1721.0093138491638
 20
440.21027498042656
 11
1724.8441665300611
 21
440.21027498042656
  0
LINE
  8
_0-0_0
  6
CONTINUOUS
 62
    7
 10
1724.8441665300611
 20
440.21027498042656
 11
1728.6207591818677
 21
440.61697989308226
  0
LINE
  8
_0-0_0
  6
CONTINUOUS
 62
    7
 10
1728.6207591818677
 20
440.61697989308226
 11
1732.224341947908
 21
441.41803219542527
  0
LINE
  8
_0-0_0
  6
CONTINUOUS
 62
    7
 10
1732.224341947908
 20
441.41803219542527
 11
1735.545421789335
 21
442.58909231860093
  0
LINE
  8
_0-0_0
  6
CONTINUOUS
 62
    7
 10
1735.545421789335
 20
442.58909231860093
 11
1738.4830893757164
 21
444.09457819335148
  0
TEXT
  8
_0-5_D-BYP-STR1
 62
    7
 10
1641.6005949882058
 20
652.48446568402937
 40
15
 41
1
 50
90
  1
φ12
  0
LINE
  8
_0-5_D-BYP-STR1
  6
CONTINUOUS
 62
    7
 10
1163.9681245754628
 20
483.55451519510541
 11
1108.9120536119212
 21
483.55451519510541
  0
TEXT
  8
_0-5_D-BYP-STR1
 62
    7
 10
1108.9120536119212
 20
439.76381534850134
 40
15
 41
1
 50
90
  1
50±2
  0
TEXT
  8
_0-5_D-BYP-STR1
 62
    7
 10
1108.9120536119212
 20
488.82597012470751
 40
15
 41
1
 50
90
  1
25
  0
LINE
  8
_0-0_0
  6
CONTINUOUS
 62
    7
 10
1163.9681245754628
 20
1033.4731552805429
 11
1108.9120536119212
 21
1033.4731552805429
  0
LINE
  8
_0-0_0
  6
CONTINUOUS
 62
    7
 10
1108.9120536119212
 20
783.4732353396621
 11
1108.9120536119212
 21
1083.4731392687195
  0
TEXT
  8
_0-0_0
 62
    7
 10
1105.162053611921
 20
1050.9731472746307
 40
15
 41
1
 50
90
  1
50
  0
LINE
  8
_0-0_0
  6
CONTINUOUS
 62
    7
 10
1163.9681245754628
 20
983.47317129236694
 11
1108.9120536119212
 21
983.47317129236694
  0
TEXT
  8
_0-0_0
 62
    7
 10
1105.162053611921
 20
1000.973163286455
 40
15
 41
1
 50
90
  1
50
  0
LINE
  8
_0-0_0
  6
CONTINUOUS
 62
    7
 10
1163.9681245754628
 20
933.4731873041909
 11
1108.9120536119212
 21
933.4731873041909
  0
TEXT
  8
_0-0_0
 62
    7
 10
1105.162053611921
 20
950.97317929827909
 40
15
 41
1
 50
90
  1
50
  0
LINE
  8
_0-0_0
  6
CONTINUOUS
 62
    7
 10
1163.9681245754628
 20
883.47320331601441
 11
1108.9120536119212
 21
883.47320331601441
  0
TEXT
  8
_0-0_0
 62
    7
 10
1105.162053611921
 20
900.97319531010237
 40
15
 41
1
 50
90
  1
50
  0
LINE
  8
_0-0_0
  6
CONTINUOUS
 62
    7
 10
1163.9681245754628
 20
833.47321932783848
 11
1108.9120536119212
 21
833.47321932783848
  0
TEXT
  8
_0-0_0
 62
    7
 10
1105.1620536119212
 20
850.97321132192656
 40
15
 41
1
 50
90
  1
50
  0
LINE
  8
_0-0_0
  6
CONTINUOUS
 62
    7
 10
1163.9681245754628
 20
783.4732353396621
 11
1108.9120536119212
 21
783.4732353396621
  0
TEXT
  8
_0-0_0
 62
    7
 10
1105.1620536119212
 20
800.97322733375029
 40
15
 41
1
 50
90
  1
50
  0
LINE
  8
_0-0_0
  6
CONTINUOUS
 62
    7
 10
1226.8241586933259
 20
1114.6856026830724
 11
1306.8241586933259
 21
1114.6856026830724
  0
LINE
  8
_0-0_0
  6
CONTINUOUS
 62
    7
 10
1226.8241586933259
 20
1094.2574856073793
 11
1226.8241586933259
 21
1114.6856026830724
  0
LINE
  8
_0-0_0
  6
CONTINUOUS
 62
    7
 10
1306.8241586933259
 20
1094.2574856073793
 11
1306.8241586933259
 21
1114.6856026830724
  0
CIRCLE
  8
_0-0_0
  6
CONTINUOUS
 62
    7
 10
1266.8241586933259
 20
1197.1413889816581
 40
5
  0
CIRCLE
  8
_0-0_0
  6
CONTINUOUS
 62
    7
 10
1266.8241586933259
 20
1197.1413889816581
 40
46
  0
CIRCLE
  8
_0-0_0
  6
DASHED2
 62
    7
 10
1266.8241586933259
 20
1197.1413889816581
 40
42.5
  0
LINE
  8
_0-0_0
  6
CONTINUOUS
 62
    7
 10
1220.8241586933259
 20
1235.7417022056106
 11
1220.8241586933259
 21
1273.9236937525184
  0
LINE
  8
_0-0_0
  6
CONTINUOUS
 62
    7
 10
1312.8241586933259
 20
1235.7417022056106
 11
1312.8241586933259
 21
1273.9236937525184
  0
LINE
  8
_0-0_0
  6
CONTINUOUS
 62
    7
 10
1220.8241586933259
 20
1273.9236937525184
 11
1312.8241586933259
 21
1273.9236937525184
  0
TEXT
  8
_0-0_0
 62
    7
 10
1248.0741586933259
 20
1273.9236937525184
 40
15
 41
1
 50
0
  1
86±2
  0
CIRCLE
  8
_0-0_0
  6
CONTINUOUS
 62
    7
 10
1722.9267401896125
 20
1197.1413889816581
 40
5
  0
CIRCLE
  8
_0-0_0
  6
CONTINUOUS
 62
    7
 10
1722.9267401896125
 20
1197.1413889816581
 40
46
  0
CIRCLE
  8
_0-0_0
  6
DASHED2
 62
    7
 10
1722.9267401896125
 20
1197.1413889816581
 40
42.5
  0
TEXT
  8
_0-0_0
 62
    7
 10
1248.0741586933259
 20
1114.6856026830724
 40
15
 41
1
 50
0
  1
80±2
  0
LINE
  8
_0-0_0
  6
AI9-LType4
 62
    7
 10
1722.9267401896125
 20
1131.3654944015616
 11
1722.9267401896125
 21
1259.2846274737622
  0
LINE
  8
_0-0_0
  6
AI9-LType4
 62
    7
 10
1266.8241586933259
 20
1131.3654944015616
 11
1266.8241586933259
 21
1259.2846274737622
  0
TEXT
  8
_0-0_0
 62
    7
 10
1028.6915157866667
 20
732.22312738530786
 40
15
 41
1
 50
90
  1
650±10
  0
LINE
  8
_0-0_0
  6
CONTINUOUS
 62
    7
 10
1163.9681245754628
 20
1083.4731392687195
 11
1032.4415157866667
 21
1083.4731392687195
  0
LINE
  8
_0-0_0
  6
CONTINUOUS
 62
    7
 10
1231.8241586933259
 20
1044.4731392687195
 11
1231.8241586933259
 21
738.47313926871925
  0
LINE
  8
_0-0_0
  6
CONTINUOUS
 62
    7
 10
1241.8241586933259
 20
1044.4731392687195
 11
1241.8241586933259
 21
738.47313926871925
  0
LINE
  8
_0-0_0
  6
CONTINUOUS
 62
    7
 10
1251.8241586933259
 20
738.47313926871925
 11
1251.8241586933259
 21
1044.4731392687195
  0
LINE
  8
_0-0_0
  6
CONTINUOUS
 62
    7
 10
1261.8241586933259
 20
738.47313926871925
 11
1261.8241586933259
 21
1044.4731392687195
  0
LINE
  8
_0-0_0
  6
CONTINUOUS
 62
    7
 10
1271.8241586933259
 20
738.47313926871925
 11
1271.8241586933259
 21
1044.4731392687195
  0
LINE
  8
_0-0_0
  6
CONTINUOUS
 62
    7
 10
1281.8241586933254
 20
738.47313926871925
 11
1281.8241586933254
 21
1044.4731392687195
  0
LINE
  8
_0-0_0
  6
CONTINUOUS
 62
    7
 10
1291.8241586933257
 20
738.47313926871925
 11
1291.8241586933257
 21
1044.4731392687195
  0
LINE
  8
_0-0_0
  6
CONTINUOUS
 62
    7
 10
1301.8241586933259
 20
738.47313926871925
 11
1301.8241586933259
 21
1044.4731392687195
  0
ARC
  8
_0-0_0
  6
CONTINUOUS
 62
    7
 10
1226.8241586933259
 20
738.47313926871925
 40
5
 50
270
 51
0
  0
ARC
  8
_0-0_0
  6
CONTINUOUS
 62
    7
 10
1246.8241586933259
 20
738.47313926871925
 40
5
 50
180
 51
0
  0
ARC
  8
_0-0_0
  6
CONTINUOUS
 62
    7
 10
1266.8241586933259
 20
738.47313926871925
 40
5
 50
180
 51
0
  0
ARC
  8
_0-0_0
  6
CONTINUOUS
 62
    7
 10
1286.8241586933259
 20
738.47313926871925
 40
5
 50
180
 51
0
  0
ARC
  8
_0-0_0
  6
CONTINUOUS
 62
    7
 10
1306.8241586933259
 20
738.47313926871925
 40
5
 50
180
 51
270
  0
ARC
  8
_0-0_0
  6
CONTINUOUS
 62
    7
 10
1236.8241586933259
 20
1044.4731392687195
 40
5
 50
0
 51
180
  0
ARC
  8
_0-0_0
  6
CONTINUOUS
 62
    7
 10
1256.8241586933259
 20
1044.4731392687195
 40
5
 50
0
 51
180
  0
ARC
  8
_0-0_0
  6
CONTINUOUS
 62
    7
 10
1276.8241586933259
 20
1044.4731392687195
 40
5
 50
0
 51
180
  0
ARC
  8
_0-0_0
  6
CONTINUOUS
 62
    7
 10
1296.8241586933259
 20
1044.4731392687195
 40
5
 50
0
 51
180
  0
LINE
  8
_0-0_0
  6
DASHED2
 62
    7
 10
1226.8241586933259
 20
1053.4731392687195
 11
1226.8241586933259
 21
1083.4731392687195
  0
LINE
  8
_0-0_0
  6
DASHED2
 62
    7
 10
1306.8241586933259
 20
1053.4731392687195
 11
1306.8241586933259
 21
1083.4731392687195
  0
LINE
  8
_0-0_0
  6
CONTINUOUS
 62
    7
 10
1226.8241586933259
 20
1083.4731392687195
 11
1306.8241586933259
 21
1083.4731392687195
  0
LINE
  8
_0-0_0
  6
CONTINUOUS
 62
    7
 10
1223.8241586933259
 20
1083.4731392687195
 11
1309.8241586933259
 21
1083.4731392687195
  0
LINE
  8
_0-0_0
  6
CONTINUOUS
 62
    7
 10
1309.8241586933259
 20
1083.4731392687195
 11
1309.8241586933259
 21
1053.4731392687195
  0
LINE
  8
_0-0_0
  6
CONTINUOUS
 62
    7
 10
1309.8241586933259
 20
1053.4731392687195
 11
1223.8241586933259
 21
1053.4731392687195
  0
LINE
  8
_0-0_0
  6
CONTINUOUS
 62
    7
 10
1223.8241586933259
 20
1053.4731392687195
 11
1223.8241586933259
 21
1083.4731392687195
  0
LINE
  8
_0-0_0
  6
CONTINUOUS
 62
    7
 10
1226.8241586933259
 20
733.47313926871925
 11
1226.8241586933259
 21
1053.4731392687195
  0
LINE
  8
_0-0_0
  6
CONTINUOUS
 62
    7
 10
1306.8241586933259
 20
1053.4731392687195
 11
1306.8241586933259
 21
733.47313926871925
  0
LINE
  8
_0-0_0
  6
CONTINUOUS
 62
    7
 10
1231.8241586933259
 20
1033.4731552805429
 11
1241.8241586933259
 21
1033.4731552805429
  0
LINE
  8
_0-0_0
  6
CONTINUOUS
 62
    7
 10
1231.8241586933259
 20
783.4732353396621
 11
1241.8241586933259
 21
783.4732353396621
  0
LINE
  8
_0-0_0
  6
CONTINUOUS
 62
    7
 10
1231.8241586933259
 20
983.47317129236694
 11
1241.8241586933259
 21
983.47317129236694
  0
LINE
  8
_0-0_0
  6
CONTINUOUS
 62
    7
 10
1231.8241586933259
 20
989.99999999999966
 11
1241.8241586933259
 21
989.99999999999966
  0
LINE
  8
_0-0_0
  6
CONTINUOUS
 62
    7
 10
1231.8241586933259
 20
995.99999999999966
 11
1241.8241586933259
 21
995.99999999999966
  0
LINE
  8
_0-0_0
  6
CONTINUOUS
 62
    7
 10
1231.8241586933259
 20
1001.9999999999997
 11
1241.8241586933259
 21
1001.9999999999997
  0
LINE
  8
_0-0_0
  6
CONTINUOUS
 62
    7
 10
1231.8241586933259
 20
1007.9999999999997
 11
1241.8241586933259
 21
1007.9999999999997
  0
LINE
  8
_0-0_0
  6
CONTINUOUS
 62
    7
 10
1231.8241586933259
 20
1013.9999999999997
 11
1241.8241586933259
 21
1013.9999999999997
  0
LINE
  8
_0-0_0
  6
CONTINUOUS
 62
    7
 10
1231.8241586933259
 20
1019.9999999999997
 11
1241.8241586933259
 21
1019.9999999999997
  0
LINE
  8
_0-0_0
  6
CONTINUOUS
 62
    7
 10
1231.8241586933259
 20
1025.9999999999995
 11
1241.8241586933259
 21
1025.9999999999995
  0
LINE
  8
_0-0_0
  6
CONTINUOUS
 62
    7
 10
1231.8241586933259
 20
933.4731873041909
 11
1241.8241586933259
 21
933.4731873041909
  0
LINE
  8
_0-0_0
  6
CONTINUOUS
 62
    7
 10
1231.8241586933259
 20
883.47320331601441
 11
1241.8241586933259
 21
883.47320331601441
  0
LINE
  8
_0-0_0
  6
CONTINUOUS
 62
    7
 10
1231.8241586933259
 20
833.47321932783848
 11
1241.8241586933259
 21
833.47321932783848
  0
LINE
  8
_0-0_0
  6
CONTINUOUS
 62
    7
 10
1231.8241586933259
 20
890.00003202364758
 11
1241.8241586933259
 21
890.00003202364758
  0
LINE
  8
_0-0_0
  6
CONTINUOUS
 62
    7
 10
1231.8241586933259
 20
896.00003202364758
 11
1241.8241586933259
 21
896.00003202364758
  0
LINE
  8
_0-0_0
  6
CONTINUOUS
 62
    7
 10
1231.8241586933259
 20
902.00003202364758
 11
1241.8241586933259
 21
902.00003202364758
  0
LINE
  8
_0-0_0
  6
CONTINUOUS
 62
    7
 10
1231.8241586933259
 20
908.00003202364758
 11
1241.8241586933259
 21
908.00003202364758
  0
LINE
  8
_0-0_0
  6
CONTINUOUS
 62
    7
 10
1231.8241586933259
 20
914.00003202364758
 11
1241.8241586933259
 21
914.00003202364758
  0
LINE
  8
_0-0_0
  6
CONTINUOUS
 62
    7
 10
1231.8241586933259
 20
920.00003202364758
 11
1241.8241586933259
 21
920.00003202364758
  0
LINE
  8
_0-0_0
  6
CONTINUOUS
 62
    7
 10
1231.8241586933259
 20
926.00003202364758
 11
1241.8241586933259
 21
926.00003202364758
  0
LINE
  8
_0-0_0
  6
CONTINUOUS
 62
    7
 10
1231.8241586933259
 20
790.00006404729515
 11
1241.8241586933259
 21
790.00006404729515
  0
LINE
  8
_0-0_0
  6
CONTINUOUS
 62
    7
 10
1231.8241586933259
 20
796.00006404729515
 11
1241.8241586933259
 21
796.00006404729515
  0
LINE
  8
_0-0_0
  6
CONTINUOUS
 62
    7
 10
1231.8241586933259
 20
802.00006404729515
 11
1241.8241586933259
 21
802.00006404729515
  0
LINE
  8
_0-0_0
  6
CONTINUOUS
 62
    7
 10
1231.8241586933259
 20
808.00006404729515
 11
1241.8241586933259
 21
808.00006404729515
  0
LINE
  8
_0-0_0
  6
CONTINUOUS
 62
    7
 10
1231.8241586933259
 20
814.00006404729515
 11
1241.8241586933259
 21
814.00006404729515
  0
LINE
  8
_0-0_0
  6
CONTINUOUS
 62
    7
 10
1231.8241586933259
 20
820.00006404729515
 11
1241.8241586933259
 21
820.00006404729515
  0
LINE
  8
_0-0_0
  6
CONTINUOUS
 62
    7
 10
1231.8241586933259
 20
826.00006404729515
 11
1241.8241586933259
 21
826.00006404729515
  0
LINE
  8
_0-0_0
  6
CONTINUOUS
 62
    7
 10
1251.8241586933259
 20
1033.4731552805429
 11
1261.8241586933259
 21
1033.4731552805429
  0
LINE
  8
_0-0_0
  6
CONTINUOUS
 62
    7
 10
1251.8241586933259
 20
783.4732353396621
 11
1261.8241586933259
 21
783.4732353396621
  0
LINE
  8
_0-0_0
  6
CONTINUOUS
 62
    7
 10
1251.8241586933259
 20
983.47317129236694
 11
1261.8241586933259
 21
983.47317129236694
  0
LINE
  8
_0-0_0
  6
CONTINUOUS
 62
    7
 10
1251.8241586933259
 20
989.99999999999966
 11
1261.8241586933259
 21
989.99999999999966
  0
LINE
  8
_0-0_0
  6
CONTINUOUS
 62
    7
 10
1251.8241586933259
 20
995.99999999999966
 11
1261.8241586933259
 21
995.99999999999966
  0
LINE
  8
_0-0_0
  6
CONTINUOUS
 62
    7
 10
1251.8241586933259
 20
1001.9999999999997
 11
1261.8241586933259
 21
1001.9999999999997
  0
LINE
  8
_0-0_0
  6
CONTINUOUS
 62
    7
 10
1251.8241586933259
 20
1007.9999999999997
 11
1261.8241586933259
 21
1007.9999999999997
  0
LINE
  8
_0-0_0
  6
CONTINUOUS
 62
    7
 10
1251.8241586933259
 20
1013.9999999999997
 11
1261.8241586933259
 21
1013.9999999999997
  0
LINE
  8
_0-0_0
  6
CONTINUOUS
 62
    7
 10
1251.8241586933259
 20
1019.9999999999997
 11
1261.8241586933259
 21
1019.9999999999997
  0
LINE
  8
_0-0_0
  6
CONTINUOUS
 62
    7
 10
1251.8241586933259
 20
1025.9999999999995
 11
1261.8241586933259
 21
1025.9999999999995
  0
LINE
  8
_0-0_0
  6
CONTINUOUS
 62
    7
 10
1251.8241586933259
 20
933.4731873041909
 11
1261.8241586933259
 21
933.4731873041909
  0
LINE
  8
_0-0_0
  6
CONTINUOUS
 62
    7
 10
1251.8241586933259
 20
883.47320331601441
 11
1261.8241586933259
 21
883.47320331601441
  0
LINE
  8
_0-0_0
  6
CONTINUOUS
 62
    7
 10
1251.8241586933259
 20
833.47321932783848
 11
1261.8241586933259
 21
833.47321932783848
  0
LINE
  8
_0-0_0
  6
CONTINUOUS
 62
    7
 10
1251.8241586933259
 20
890.00003202364758
 11
1261.8241586933259
 21
890.00003202364758
  0
LINE
  8
_0-0_0
  6
CONTINUOUS
 62
    7
 10
1251.8241586933259
 20
896.00003202364758
 11
1261.8241586933259
 21
896.00003202364758
  0
LINE
  8
_0-0_0
  6
CONTINUOUS
 62
    7
 10
1251.8241586933259
 20
902.00003202364758
 11
1261.8241586933259
 21
902.00003202364758
  0
LINE
  8
_0-0_0
  6
CONTINUOUS
 62
    7
 10
1251.8241586933259
 20
908.00003202364758
 11
1261.8241586933259
 21
908.00003202364758
  0
LINE
  8
_0-0_0
  6
CONTINUOUS
 62
    7
 10
1251.8241586933259
 20
914.00003202364758
 11
1261.8241586933259
 21
914.00003202364758
  0
LINE
  8
_0-0_0
  6
CONTINUOUS
 62
    7
 10
1251.8241586933259
 20
920.00003202364758
 11
1261.8241586933259
 21
920.00003202364758
  0
LINE
  8
_0-0_0
  6
CONTINUOUS
 62
    7
 10
1251.8241586933259
 20
926.00003202364758
 11
1261.8241586933259
 21
926.00003202364758
  0
LINE
  8
_0-0_0
  6
CONTINUOUS
 62
    7
 10
1251.8241586933259
 20
790.00006404729515
 11
1261.8241586933259
 21
790.00006404729515
  0
LINE
  8
_0-0_0
  6
CONTINUOUS
 62
    7
 10
1251.8241586933259
 20
796.00006404729515
 11
1261.8241586933259
 21
796.00006404729515
  0
LINE
  8
_0-0_0
  6
CONTINUOUS
 62
    7
 10
1251.8241586933259
 20
802.00006404729515
 11
1261.8241586933259
 21
802.00006404729515
  0
LINE
  8
_0-0_0
  6
CONTINUOUS
 62
    7
 10
1251.8241586933259
 20
808.00006404729515
 11
1261.8241586933259
 21
808.00006404729515
  0
LINE
  8
_0-0_0
  6
CONTINUOUS
 62
    7
 10
1251.8241586933259
 20
814.00006404729515
 11
1261.8241586933259
 21
814.00006404729515
  0
LINE
  8
_0-0_0
  6
CONTINUOUS
 62
    7
 10
1251.8241586933259
 20
820.00006404729515
 11
1261.8241586933259
 21
820.00006404729515
  0
LINE
  8
_0-0_0
  6
CONTINUOUS
 62
    7
 10
1251.8241586933259
 20
826.00006404729515
 11
1261.8241586933259
 21
826.00006404729515
  0
LINE
  8
_0-0_0
  6
CONTINUOUS
 62
    7
 10
1271.8241586933259
 20
1033.4731552805429
 11
1281.8241586933254
 21
1033.4731552805429
  0
LINE
  8
_0-0_0
  6
CONTINUOUS
 62
    7
 10
1271.8241586933259
 20
783.4732353396621
 11
1281.8241586933254
 21
783.4732353396621
  0
LINE
  8
_0-0_0
  6
CONTINUOUS
 62
    7
 10
1271.8241586933259
 20
983.47317129236694
 11
1281.8241586933254
 21
983.47317129236694
  0
LINE
  8
_0-0_0
  6
CONTINUOUS
 62
    7
 10
1271.8241586933259
 20
989.99999999999966
 11
1281.8241586933254
 21
989.99999999999966
  0
LINE
  8
_0-0_0
  6
CONTINUOUS
 62
    7
 10
1271.8241586933259
 20
995.99999999999966
 11
1281.8241586933254
 21
995.99999999999966
  0
LINE
  8
_0-0_0
  6
CONTINUOUS
 62
    7
 10
1271.8241586933259
 20
1001.9999999999997
 11
1281.8241586933254
 21
1001.9999999999997
  0
LINE
  8
_0-0_0
  6
CONTINUOUS
 62
    7
 10
1271.8241586933259
 20
1007.9999999999997
 11
1281.8241586933254
 21
1007.9999999999997
  0
LINE
  8
_0-0_0
  6
CONTINUOUS
 62
    7
 10
1271.8241586933259
 20
1013.9999999999997
 11
1281.8241586933254
 21
1013.9999999999997
  0
LINE
  8
_0-0_0
  6
CONTINUOUS
 62
    7
 10
1271.8241586933259
 20
1019.9999999999997
 11
1281.8241586933254
 21
1019.9999999999997
  0
LINE
  8
_0-0_0
  6
CONTINUOUS
 62
    7
 10
1271.8241586933259
 20
1025.9999999999995
 11
1281.8241586933254
 21
1025.9999999999995
  0
LINE
  8
_0-0_0
  6
CONTINUOUS
 62
    7
 10
1271.8241586933259
 20
933.4731873041909
 11
1281.8241586933254
 21
933.4731873041909
  0
LINE
  8
_0-0_0
  6
CONTINUOUS
 62
    7
 10
1271.8241586933259
 20
883.47320331601441
 11
1281.8241586933254
 21
883.47320331601441
  0
LINE
  8
_0-0_0
  6
CONTINUOUS
 62
    7
 10
1271.8241586933259
 20
833.47321932783848
 11
1281.8241586933254
 21
833.47321932783848
  0
LINE
  8
_0-0_0
  6
CONTINUOUS
 62
    7
 10
1271.8241586933259
 20
890.00003202364758
 11
1281.8241586933254
 21
890.00003202364758
  0
LINE
  8
_0-0_0
  6
CONTINUOUS
 62
    7
 10
1271.8241586933259
 20
896.00003202364758
 11
1281.8241586933254
 21
896.00003202364758
  0
LINE
  8
_0-0_0
  6
CONTINUOUS
 62
    7
 10
1271.8241586933259
 20
902.00003202364758
 11
1281.8241586933254
 21
902.00003202364758
  0
LINE
  8
_0-0_0
  6
CONTINUOUS
 62
    7
 10
1271.8241586933259
 20
908.00003202364758
 11
1281.8241586933254
 21
908.00003202364758
  0
LINE
  8
_0-0_0
  6
CONTINUOUS
 62
    7
 10
1271.8241586933259
 20
914.00003202364758
 11
1281.8241586933254
 21
914.00003202364758
  0
LINE
  8
_0-0_0
  6
CONTINUOUS
 62
    7
 10
1271.8241586933259
 20
920.00003202364758
 11
1281.8241586933254
 21
920.00003202364758
  0
LINE
  8
_0-0_0
  6
CONTINUOUS
 62
    7
 10
1271.8241586933259
 20
926.00003202364758
 11
1281.8241586933254
 21
926.00003202364758
  0
LINE
  8
_0-0_0
  6
CONTINUOUS
 62
    7
 10
1271.8241586933259
 20
790.00006404729515
 11
1281.8241586933254
 21
790.00006404729515
  0
LINE
  8
_0-0_0
  6
CONTINUOUS
 62
    7
 10
1271.8241586933259
 20
796.00006404729515
 11
1281.8241586933254
 21
796.00006404729515
  0
LINE
  8
_0-0_0
  6
CONTINUOUS
 62
    7
 10
1271.8241586933259
 20
802.00006404729515
 11
1281.8241586933254
 21
802.00006404729515
  0
LINE
  8
_0-0_0
  6
CONTINUOUS
 62
    7
 10
1271.8241586933259
 20
808.00006404729515
 11
1281.8241586933254
 21
808.00006404729515
  0
LINE
  8
_0-0_0
  6
CONTINUOUS
 62
    7
 10
1271.8241586933259
 20
814.00006404729515
 11
1281.8241586933254
 21
814.00006404729515
  0
LINE
  8
_0-0_0
  6
CONTINUOUS
 62
    7
 10
1271.8241586933259
 20
820.00006404729515
 11
1281.8241586933254
 21
820.00006404729515
  0
LINE
  8
_0-0_0
  6
CONTINUOUS
 62
    7
 10
1271.8241586933259
 20
826.00006404729515
 11
1281.8241586933254
 21
826.00006404729515
  0
LINE
  8
_0-0_0
  6
CONTINUOUS
 62
    7
 10
1291.8241586933257
 20
1033.4731552805429
 11
1301.8241586933259
 21
1033.4731552805429
  0
LINE
  8
_0-0_0
  6
CONTINUOUS
 62
    7
 10
1291.8241586933257
 20
783.4732353396621
 11
1301.8241586933259
 21
783.4732353396621
  0
LINE
  8
_0-0_0
  6
CONTINUOUS
 62
    7
 10
1291.8241586933257
 20
983.47317129236694
 11
1301.8241586933259
 21
983.47317129236694
  0
LINE
  8
_0-0_0
  6
CONTINUOUS
 62
    7
 10
1291.8241586933257
 20
989.99999999999966
 11
1301.8241586933259
 21
989.99999999999966
  0
LINE
  8
_0-0_0
  6
CONTINUOUS
 62
    7
 10
1291.8241586933257
 20
995.99999999999966
 11
1301.8241586933259
 21
995.99999999999966
  0
LINE
  8
_0-0_0
  6
CONTINUOUS
 62
    7
 10
1291.8241586933257
 20
1001.9999999999997
 11
1301.8241586933259
 21
1001.9999999999997
  0
LINE
  8
_0-0_0
  6
CONTINUOUS
 62
    7
 10
1291.8241586933257
 20
1007.9999999999997
 11
1301.8241586933259
 21
1007.9999999999997
  0
LINE
  8
_0-0_0
  6
CONTINUOUS
 62
    7
 10
1291.8241586933257
 20
1013.9999999999997
 11
1301.8241586933259
 21
1013.9999999999997
  0
LINE
  8
_0-0_0
  6
CONTINUOUS
 62
    7
 10
1291.8241586933257
 20
1019.9999999999997
 11
1301.8241586933259
 21
1019.9999999999997
  0
LINE
  8
_0-0_0
  6
CONTINUOUS
 62
    7
 10
1291.8241586933257
 20
1025.9999999999995
 11
1301.8241586933259
 21
1025.9999999999995
  0
LINE
  8
_0-0_0
  6
CONTINUOUS
 62
    7
 10
1291.8241586933257
 20
933.4731873041909
 11
1301.8241586933259
 21
933.4731873041909
  0
LINE
  8
_0-0_0
  6
CONTINUOUS
 62
    7
 10
1291.8241586933257
 20
883.47320331601441
 11
1301.8241586933259
 21
883.47320331601441
  0
LINE
  8
_0-0_0
  6
CONTINUOUS
 62
    7
 10
1291.8241586933257
 20
833.47321932783848
 11
1301.8241586933259
 21
833.47321932783848
  0
LINE
  8
_0-0_0
  6
CONTINUOUS
 62
    7
 10
1291.8241586933257
 20
890.00003202364758
 11
1301.8241586933259
 21
890.00003202364758
  0
LINE
  8
_0-0_0
  6
CONTINUOUS
 62
    7
 10
1291.8241586933257
 20
896.00003202364758
 11
1301.8241586933259
 21
896.00003202364758
  0
LINE
  8
_0-0_0
  6
CONTINUOUS
 62
    7
 10
1291.8241586933257
 20
902.00003202364758
 11
1301.8241586933259
 21
902.00003202364758
  0
LINE
  8
_0-0_0
  6
CONTINUOUS
 62
    7
 10
1291.8241586933257
 20
908.00003202364758
 11
1301.8241586933259
 21
908.00003202364758
  0
LINE
  8
_0-0_0
  6
CONTINUOUS
 62
    7
 10
1291.8241586933257
 20
914.00003202364758
 11
1301.8241586933259
 21
914.00003202364758
  0
LINE
  8
_0-0_0
  6
CONTINUOUS
 62
    7
 10
1291.8241586933257
 20
920.00003202364758
 11
1301.8241586933259
 21
920.00003202364758
  0
LINE
  8
_0-0_0
  6
CONTINUOUS
 62
    7
 10
1291.8241586933257
 20
926.00003202364758
 11
1301.8241586933259
 21
926.00003202364758
  0
LINE
  8
_0-0_0
  6
CONTINUOUS
 62
    7
 10
1291.8241586933257
 20
790.00006404729515
 11
1301.8241586933259
 21
790.00006404729515
  0
LINE
  8
_0-0_0
  6
CONTINUOUS
 62
    7
 10
1291.8241586933257
 20
796.00006404729515
 11
1301.8241586933259
 21
796.00006404729515
  0
LINE
  8
_0-0_0
  6
CONTINUOUS
 62
    7
 10
1291.8241586933257
 20
802.00006404729515
 11
1301.8241586933259
 21
802.00006404729515
  0
LINE
  8
_0-0_0
  6
CONTINUOUS
 62
    7
 10
1291.8241586933257
 20
808.00006404729515
 11
1301.8241586933259
 21
808.00006404729515
  0
LINE
  8
_0-0_0
  6
CONTINUOUS
 62
    7
 10
1291.8241586933257
 20
814.00006404729515
 11
1301.8241586933259
 21
814.00006404729515
  0
LINE
  8
_0-0_0
  6
CONTINUOUS
 62
    7
 10
1291.8241586933257
 20
820.00006404729515
 11
1301.8241586933259
 21
820.00006404729515
  0
LINE
  8
_0-0_0
  6
CONTINUOUS
 62
    7
 10
1291.8241586933257
 20
826.00006404729515
 11
1301.8241586933259
 21
826.00006404729515
  0
LINE
  8
_0-0_0
  6
CONTINUOUS
 62
    7
 10
1687.9267401896116
 20
1044.4731392687195
 11
1687.9267401896116
 21
738.47313926871925
  0
LINE
  8
_0-0_0
  6
CONTINUOUS
 62
    7
 10
1697.926740189612
 20
1044.4731392687195
 11
1697.926740189612
 21
738.47313926871925
  0
LINE
  8
_0-0_0
  6
CONTINUOUS
 62
    7
 10
1707.9267401896118
 20
738.47313926871925
 11
1707.9267401896118
 21
1044.4731392687195
  0
LINE
  8
_0-0_0
  6
CONTINUOUS
 62
    7
 10
1717.9267401896116
 20
738.47313926871925
 11
1717.9267401896116
 21
1044.4731392687195
  0
LINE
  8
_0-0_0
  6
CONTINUOUS
 62
    7
 10
1727.926740189612
 20
738.47313926871925
 11
1727.926740189612
 21
1044.4731392687195
  0
LINE
  8
_0-0_0
  6
CONTINUOUS
 62
    7
 10
1737.9267401896118
 20
738.47313926871925
 11
1737.9267401896118
 21
1044.4731392687195
  0
LINE
  8
_0-0_0
  6
CONTINUOUS
 62
    7
 10
1747.9267401896116
 20
738.47313926871925
 11
1747.9267401896116
 21
1044.4731392687195
  0
LINE
  8
_0-0_0
  6
CONTINUOUS
 62
    7
 10
1757.926740189612
 20
738.47313926871925
 11
1757.926740189612
 21
1044.4731392687195
  0
ARC
  8
_0-0_0
  6
CONTINUOUS
 62
    7
 10
1682.926740189612
 20
738.47313926871925
 40
5
 50
270
 51
0
  0
ARC
  8
_0-0_0
  6
CONTINUOUS
 62
    7
 10
1702.9267401896116
 20
738.47313926871925
 40
5
 50
180
 51
0
  0
ARC
  8
_0-0_0
  6
CONTINUOUS
 62
    7
 10
1722.9267401896118
 20
738.47313926871925
 40
5
 50
180
 51
0
  0
ARC
  8
_0-0_0
  6
CONTINUOUS
 62
    7
 10
1742.926740189612
 20
738.47313926871925
 40
5
 50
180
 51
0
  0
ARC
  8
_0-0_0
  6
CONTINUOUS
 62
    7
 10
1762.9267401896116
 20
738.47313926871925
 40
5
 50
180
 51
270
  0
ARC
  8
_0-0_0
  6
CONTINUOUS
 62
    7
 10
1692.9267401896118
 20
1044.4731392687195
 40
5
 50
0
 51
180
  0
ARC
  8
_0-0_0
  6
CONTINUOUS
 62
    7
 10
1712.926740189612
 20
1044.4731392687195
 40
5
 50
0
 51
180
  0
ARC
  8
_0-0_0
  6
CONTINUOUS
 62
    7
 10
1732.9267401896116
 20
1044.4731392687195
 40
5
 50
0
 51
180
  0
ARC
  8
_0-0_0
  6
CONTINUOUS
 62
    7
 10
1752.9267401896118
 20
1044.4731392687195
 40
5
 50
0
 51
180
  0
LINE
  8
_0-0_0
  6
DASHED2
 62
    7
 10
1682.926740189612
 20
1053.4731392687195
 11
1682.926740189612
 21
1083.4731392687195
  0
LINE
  8
_0-0_0
  6
DASHED2
 62
    7
 10
1762.9267401896116
 20
1053.4731392687195
 11
1762.9267401896116
 21
1083.4731392687195
  0
LINE
  8
_0-0_0
  6
CONTINUOUS
 62
    7
 10
1682.926740189612
 20
1083.4731392687195
 11
1762.9267401896116
 21
1083.4731392687195
  0
LINE
  8
_0-0_0
  6
CONTINUOUS
 62
    7
 10
1679.926740189612
 20
1083.4731392687195
 11
1765.9267401896116
 21
1083.4731392687195
  0
LINE
  8
_0-0_0
  6
CONTINUOUS
 62
    7
 10
1765.9267401896116
 20
1083.4731392687195
 11
1765.9267401896116
 21
1053.4731392687195
  0
LINE
  8
_0-0_0
  6
CONTINUOUS
 62
    7
 10
1765.9267401896116
 20
1053.4731392687195
 11
1679.926740189612
 21
1053.4731392687195
  0
LINE
  8
_0-0_0
  6
CONTINUOUS
 62
    7
 10
1679.926740189612
 20
1053.4731392687195
 11
1679.926740189612
 21
1083.4731392687195
  0
LINE
  8
_0-0_0
  6
CONTINUOUS
 62
    7
 10
1682.926740189612
 20
733.47313926871925
 11
1682.926740189612
 21
1053.4731392687195
  0
LINE
  8
_0-0_0
  6
CONTINUOUS
 62
    7
 10
1762.9267401896116
 20
1053.4731392687195
 11
1762.9267401896116
 21
733.47313926871925
  0
LINE
  8
_0-0_0
  6
CONTINUOUS
 62
    7
 10
1687.9267401896116
 20
1033.4731552805429
 11
1697.926740189612
 21
1033.4731552805429
  0
LINE
  8
_0-0_0
  6
CONTINUOUS
 62
    7
 10
1687.9267401896116
 20
783.4732353396621
 11
1697.926740189612
 21
783.4732353396621
  0
LINE
  8
_0-0_0
  6
CONTINUOUS
 62
    7
 10
1687.9267401896116
 20
983.47317129236694
 11
1697.926740189612
 21
983.47317129236694
  0
LINE
  8
_0-0_0
  6
CONTINUOUS
 62
    7
 10
1687.9267401896116
 20
989.99999999999966
 11
1697.926740189612
 21
989.99999999999966
  0
LINE
  8
_0-0_0
  6
CONTINUOUS
 62
    7
 10
1687.9267401896116
 20
995.99999999999966
 11
1697.926740189612
 21
995.99999999999966
  0
LINE
  8
_0-0_0
  6
CONTINUOUS
 62
    7
 10
1687.9267401896116
 20
1001.9999999999997
 11
1697.926740189612
 21
1001.9999999999997
  0
LINE
  8
_0-0_0
  6
CONTINUOUS
 62
    7
 10
1687.9267401896116
 20
1007.9999999999997
 11
1697.926740189612
 21
1007.9999999999997
  0
LINE
  8
_0-0_0
  6
CONTINUOUS
 62
    7
 10
1687.9267401896116
 20
1013.9999999999997
 11
1697.926740189612
 21
1013.9999999999997
  0
LINE
  8
_0-0_0
  6
CONTINUOUS
 62
    7
 10
1687.9267401896116
 20
1019.9999999999997
 11
1697.926740189612
 21
1019.9999999999997
  0
LINE
  8
_0-0_0
  6
CONTINUOUS
 62
    7
 10
1687.9267401896116
 20
1025.9999999999995
 11
1697.926740189612
 21
1025.9999999999995
  0
LINE
  8
_0-0_0
  6
CONTINUOUS
 62
    7
 10
1687.9267401896116
 20
933.4731873041909
 11
1697.926740189612
 21
933.4731873041909
  0
LINE
  8
_0-0_0
  6
CONTINUOUS
 62
    7
 10
1687.9267401896116
 20
883.47320331601441
 11
1697.926740189612
 21
883.47320331601441
  0
LINE
  8
_0-0_0
  6
CONTINUOUS
 62
    7
 10
1687.9267401896116
 20
833.47321932783848
 11
1697.926740189612
 21
833.47321932783848
  0
LINE
  8
_0-0_0
  6
CONTINUOUS
 62
    7
 10
1687.9267401896116
 20
890.00003202364758
 11
1697.926740189612
 21
890.00003202364758
  0
LINE
  8
_0-0_0
  6
CONTINUOUS
 62
    7
 10
1687.9267401896116
 20
896.00003202364758
 11
1697.926740189612
 21
896.00003202364758
  0
LINE
  8
_0-0_0
  6
CONTINUOUS
 62
    7
 10
1687.9267401896116
 20
902.00003202364758
 11
1697.926740189612
 21
902.00003202364758
  0
LINE
  8
_0-0_0
  6
CONTINUOUS
 62
    7
 10
1687.9267401896116
 20
908.00003202364758
 11
1697.926740189612
 21
908.00003202364758
  0
LINE
  8
_0-0_0
  6
CONTINUOUS
 62
    7
 10
1687.9267401896116
 20
914.00003202364758
 11
1697.926740189612
 21
914.00003202364758
  0
LINE
  8
_0-0_0
  6
CONTINUOUS
 62
    7
 10
1687.9267401896116
 20
920.00003202364758
 11
1697.926740189612
 21
920.00003202364758
  0
LINE
  8
_0-0_0
  6
CONTINUOUS
 62
    7
 10
1687.9267401896116
 20
926.00003202364758
 11
1697.926740189612
 21
926.00003202364758
  0
LINE
  8
_0-0_0
  6
CONTINUOUS
 62
    7
 10
1687.9267401896116
 20
790.00006404729515
 11
1697.926740189612
 21
790.00006404729515
  0
LINE
  8
_0-0_0
  6
CONTINUOUS
 62
    7
 10
1687.9267401896116
 20
796.00006404729515
 11
1697.926740189612
 21
796.00006404729515
  0
LINE
  8
_0-0_0
  6
CONTINUOUS
 62
    7
 10
1687.9267401896116
 20
802.00006404729515
 11
1697.926740189612
 21
802.00006404729515
  0
LINE
  8
_0-0_0
  6
CONTINUOUS
 62
    7
 10
1687.9267401896116
 20
808.00006404729515
 11
1697.926740189612
 21
808.00006404729515
  0
LINE
  8
_0-0_0
  6
CONTINUOUS
 62
    7
 10
1687.9267401896116
 20
814.00006404729515
 11
1697.926740189612
 21
814.00006404729515
  0
LINE
  8
_0-0_0
  6
CONTINUOUS
 62
    7
 10
1687.9267401896116
 20
820.00006404729515
 11
1697.926740189612
 21
820.00006404729515
  0
LINE
  8
_0-0_0
  6
CONTINUOUS
 62
    7
 10
1687.9267401896116
 20
826.00006404729515
 11
1697.926740189612
 21
826.00006404729515
  0
LINE
  8
_0-0_0
  6
CONTINUOUS
 62
    7
 10
1707.9267401896118
 20
1033.4731552805429
 11
1717.9267401896116
 21
1033.4731552805429
  0
LINE
  8
_0-0_0
  6
CONTINUOUS
 62
    7
 10
1707.9267401896118
 20
783.4732353396621
 11
1717.9267401896116
 21
783.4732353396621
  0
LINE
  8
_0-0_0
  6
CONTINUOUS
 62
    7
 10
1707.9267401896118
 20
983.47317129236694
 11
1717.9267401896116
 21
983.47317129236694
  0
LINE
  8
_0-0_0
  6
CONTINUOUS
 62
    7
 10
1707.9267401896118
 20
989.99999999999966
 11
1717.9267401896116
 21
989.99999999999966
  0
LINE
  8
_0-0_0
  6
CONTINUOUS
 62
    7
 10
1707.9267401896118
 20
995.99999999999966
 11
1717.9267401896116
 21
995.99999999999966
  0
LINE
  8
_0-0_0
  6
CONTINUOUS
 62
    7
 10
1707.9267401896118
 20
1001.9999999999997
 11
1717.9267401896116
 21
1001.9999999999997
  0
LINE
  8
_0-0_0
  6
CONTINUOUS
 62
    7
 10
1707.9267401896118
 20
1007.9999999999997
 11
1717.9267401896116
 21
1007.9999999999997
  0
LINE
  8
_0-0_0
  6
CONTINUOUS
 62
    7
 10
1707.9267401896118
 20
1013.9999999999997
 11
1717.9267401896116
 21
1013.9999999999997
  0
LINE
  8
_0-0_0
  6
CONTINUOUS
 62
    7
 10
1707.9267401896118
 20
1019.9999999999997
 11
1717.9267401896116
 21
1019.9999999999997
  0
LINE
  8
_0-0_0
  6
CONTINUOUS
 62
    7
 10
1707.9267401896118
 20
1025.9999999999995
 11
1717.9267401896116
 21
1025.9999999999995
  0
LINE
  8
_0-0_0
  6
CONTINUOUS
 62
    7
 10
1707.9267401896118
 20
933.4731873041909
 11
1717.9267401896116
 21
933.4731873041909
  0
LINE
  8
_0-0_0
  6
CONTINUOUS
 62
    7
 10
1707.9267401896118
 20
883.47320331601441
 11
1717.9267401896116
 21
883.47320331601441
  0
LINE
  8
_0-0_0
  6
CONTINUOUS
 62
    7
 10
1707.9267401896118
 20
833.47321932783848
 11
1717.9267401896116
 21
833.47321932783848
  0
LINE
  8
_0-0_0
  6
CONTINUOUS
 62
    7
 10
1707.9267401896118
 20
890.00003202364758
 11
1717.9267401896116
 21
890.00003202364758
  0
LINE
  8
_0-0_0
  6
CONTINUOUS
 62
    7
 10
1707.9267401896118
 20
896.00003202364758
 11
1717.9267401896116
 21
896.00003202364758
  0
LINE
  8
_0-0_0
  6
CONTINUOUS
 62
    7
 10
1707.9267401896118
 20
902.00003202364758
 11
1717.9267401896116
 21
902.00003202364758
  0
LINE
  8
_0-0_0
  6
CONTINUOUS
 62
    7
 10
1707.9267401896118
 20
908.00003202364758
 11
1717.9267401896116
 21
908.00003202364758
  0
LINE
  8
_0-0_0
  6
CONTINUOUS
 62
    7
 10
1707.9267401896118
 20
914.00003202364758
 11
1717.9267401896116
 21
914.00003202364758
  0
LINE
  8
_0-0_0
  6
CONTINUOUS
 62
    7
 10
1707.9267401896118
 20
920.00003202364758
 11
1717.9267401896116
 21
920.00003202364758
  0
LINE
  8
_0-0_0
  6
CONTINUOUS
 62
    7
 10
1707.9267401896118
 20
926.00003202364758
 11
1717.9267401896116
 21
926.00003202364758
  0
LINE
  8
_0-0_0
  6
CONTINUOUS
 62
    7
 10
1707.9267401896118
 20
790.00006404729515
 11
1717.9267401896116
 21
790.00006404729515
  0
LINE
  8
_0-0_0
  6
CONTINUOUS
 62
    7
 10
1707.9267401896118
 20
796.00006404729515
 11
1717.9267401896116
 21
796.00006404729515
  0
LINE
  8
_0-0_0
  6
CONTINUOUS
 62
    7
 10
1707.9267401896118
 20
802.00006404729515
 11
1717.9267401896116
 21
802.00006404729515
  0
LINE
  8
_0-0_0
  6
CONTINUOUS
 62
    7
 10
1707.9267401896118
 20
808.00006404729515
 11
1717.9267401896116
 21
808.00006404729515
  0
LINE
  8
_0-0_0
  6
CONTINUOUS
 62
    7
 10
1707.9267401896118
 20
814.00006404729515
 11
1717.9267401896116
 21
814.00006404729515
  0
LINE
  8
_0-0_0
  6
CONTINUOUS
 62
    7
 10
1707.9267401896118
 20
820.00006404729515
 11
1717.9267401896116
 21
820.00006404729515
  0
LINE
  8
_0-0_0
  6
CONTINUOUS
 62
    7
 10
1707.9267401896118
 20
826.00006404729515
 11
1717.9267401896116
 21
826.00006404729515
  0
LINE
  8
_0-0_0
  6
CONTINUOUS
 62
    7
 10
1727.926740189612
 20
1033.4731552805429
 11
1737.9267401896118
 21
1033.4731552805429
  0
LINE
  8
_0-0_0
  6
CONTINUOUS
 62
    7
 10
1727.926740189612
 20
783.4732353396621
 11
1737.9267401896118
 21
783.4732353396621
  0
LINE
  8
_0-0_0
  6
CONTINUOUS
 62
    7
 10
1727.926740189612
 20
983.47317129236694
 11
1737.9267401896118
 21
983.47317129236694
  0
LINE
  8
_0-0_0
  6
CONTINUOUS
 62
    7
 10
1727.926740189612
 20
989.99999999999966
 11
1737.9267401896118
 21
989.99999999999966
  0
LINE
  8
_0-0_0
  6
CONTINUOUS
 62
    7
 10
1727.926740189612
 20
995.99999999999966
 11
1737.9267401896118
 21
995.99999999999966
  0
LINE
  8
_0-0_0
  6
CONTINUOUS
 62
    7
 10
1727.926740189612
 20
1001.9999999999997
 11
1737.9267401896118
 21
1001.9999999999997
  0
LINE
  8
_0-0_0
  6
CONTINUOUS
 62
    7
 10
1727.926740189612
 20
1007.9999999999997
 11
1737.9267401896118
 21
1007.9999999999997
  0
LINE
  8
_0-0_0
  6
CONTINUOUS
 62
    7
 10
1727.926740189612
 20
1013.9999999999997
 11
1737.9267401896118
 21
1013.9999999999997
  0
LINE
  8
_0-0_0
  6
CONTINUOUS
 62
    7
 10
1727.926740189612
 20
1019.9999999999997
 11
1737.9267401896118
 21
1019.9999999999997
  0
LINE
  8
_0-0_0
  6
CONTINUOUS
 62
    7
 10
1727.926740189612
 20
1025.9999999999995
 11
1737.9267401896118
 21
1025.9999999999995
  0
LINE
  8
_0-0_0
  6
CONTINUOUS
 62
    7
 10
1727.926740189612
 20
933.4731873041909
 11
1737.9267401896118
 21
933.4731873041909
  0
LINE
  8
_0-0_0
  6
CONTINUOUS
 62
    7
 10
1727.926740189612
 20
883.47320331601441
 11
1737.9267401896118
 21
883.47320331601441
  0
LINE
  8
_0-0_0
  6
CONTINUOUS
 62
    7
 10
1727.926740189612
 20
833.47321932783848
 11
1737.9267401896118
 21
833.47321932783848
  0
LINE
  8
_0-0_0
  6
CONTINUOUS
 62
    7
 10
1727.926740189612
 20
890.00003202364758
 11
1737.9267401896118
 21
890.00003202364758
  0
LINE
  8
_0-0_0
  6
CONTINUOUS
 62
    7
 10
1727.926740189612
 20
896.00003202364758
 11
1737.9267401896118
 21
896.00003202364758
  0
LINE
  8
_0-0_0
  6
CONTINUOUS
 62
    7
 10
1727.926740189612
 20
902.00003202364758
 11
1737.9267401896118
 21
902.00003202364758
  0
LINE
  8
_0-0_0
  6
CONTINUOUS
 62
    7
 10
1727.926740189612
 20
908.00003202364758
 11
1737.9267401896118
 21
908.00003202364758
  0
LINE
  8
_0-0_0
  6
CONTINUOUS
 62
    7
 10
1727.926740189612
 20
914.00003202364758
 11
1737.9267401896118
 21
914.00003202364758
  0
LINE
  8
_0-0_0
  6
CONTINUOUS
 62
    7
 10
1727.926740189612
 20
920.00003202364758
 11
1737.9267401896118
 21
920.00003202364758
  0
LINE
  8
_0-0_0
  6
CONTINUOUS
 62
    7
 10
1727.926740189612
 20
926.00003202364758
 11
1737.9267401896118
 21
926.00003202364758
  0
LINE
  8
_0-0_0
  6
CONTINUOUS
 62
    7
 10
1727.926740189612
 20
790.00006404729515
 11
1737.9267401896118
 21
790.00006404729515
  0
LINE
  8
_0-0_0
  6
CONTINUOUS
 62
    7
 10
1727.926740189612
 20
796.00006404729515
 11
1737.9267401896118
 21
796.00006404729515
  0
LINE
  8
_0-0_0
  6
CONTINUOUS
 62
    7
 10
1727.926740189612
 20
802.00006404729515
 11
1737.9267401896118
 21
802.00006404729515
  0
LINE
  8
_0-0_0
  6
CONTINUOUS
 62
    7
 10
1727.926740189612
 20
808.00006404729515
 11
1737.9267401896118
 21
808.00006404729515
  0
LINE
  8
_0-0_0
  6
CONTINUOUS
 62
    7
 10
1727.926740189612
 20
814.00006404729515
 11
1737.9267401896118
 21
814.00006404729515
  0
LINE
  8
_0-0_0
  6
CONTINUOUS
 62
    7
 10
1727.926740189612
 20
820.00006404729515
 11
1737.9267401896118
 21
820.00006404729515
  0
LINE
  8
_0-0_0
  6
CONTINUOUS
 62
    7
 10
1727.926740189612
 20
826.00006404729515
 11
1737.9267401896118
 21
826.00006404729515
  0
LINE
  8
_0-0_0
  6
CONTINUOUS
 62
    7
 10
1747.9267401896116
 20
1033.4731552805429
 11
1757.926740189612
 21
1033.4731552805429
  0
LINE
  8
_0-0_0
  6
CONTINUOUS
 62
    7
 10
1747.9267401896116
 20
783.4732353396621
 11
1757.926740189612
 21
783.4732353396621
  0
LINE
  8
_0-0_0
  6
CONTINUOUS
 62
    7
 10
1747.9267401896116
 20
983.47317129236694
 11
1757.926740189612
 21
983.47317129236694
  0
LINE
  8
_0-0_0
  6
CONTINUOUS
 62
    7
 10
1747.9267401896116
 20
989.99999999999966
 11
1757.926740189612
 21
989.99999999999966
  0
LINE
  8
_0-0_0
  6
CONTINUOUS
 62
    7
 10
1747.9267401896116
 20
995.99999999999966
 11
1757.926740189612
 21
995.99999999999966
  0
LINE
  8
_0-0_0
  6
CONTINUOUS
 62
    7
 10
1747.9267401896116
 20
1001.9999999999997
 11
1757.926740189612
 21
1001.9999999999997
  0
LINE
  8
_0-0_0
  6
CONTINUOUS
 62
    7
 10
1747.9267401896116
 20
1007.9999999999997
 11
1757.926740189612
 21
1007.9999999999997
  0
LINE
  8
_0-0_0
  6
CONTINUOUS
 62
    7
 10
1747.9267401896116
 20
1013.9999999999997
 11
1757.926740189612
 21
1013.9999999999997
  0
LINE
  8
_0-0_0
  6
CONTINUOUS
 62
    7
 10
1747.9267401896116
 20
1019.9999999999997
 11
1757.926740189612
 21
1019.9999999999997
  0
LINE
  8
_0-0_0
  6
CONTINUOUS
 62
    7
 10
1747.9267401896116
 20
1025.9999999999995
 11
1757.926740189612
 21
1025.9999999999995
  0
LINE
  8
_0-0_0
  6
CONTINUOUS
 62
    7
 10
1747.9267401896116
 20
933.4731873041909
 11
1757.926740189612
 21
933.4731873041909
  0
LINE
  8
_0-0_0
  6
CONTINUOUS
 62
    7
 10
1747.9267401896116
 20
883.47320331601441
 11
1757.926740189612
 21
883.47320331601441
  0
LINE
  8
_0-0_0
  6
CONTINUOUS
 62
    7
 10
1747.9267401896116
 20
833.47321932783848
 11
1757.926740189612
 21
833.47321932783848
  0
LINE
  8
_0-0_0
  6
CONTINUOUS
 62
    7
 10
1747.9267401896116
 20
890.00003202364758
 11
1757.926740189612
 21
890.00003202364758
  0
LINE
  8
_0-0_0
  6
CONTINUOUS
 62
    7
 10
1747.9267401896116
 20
896.00003202364758
 11
1757.926740189612
 21
896.00003202364758
  0
LINE
  8
_0-0_0
  6
CONTINUOUS
 62
    7
 10
1747.9267401896116
 20
902.00003202364758
 11
1757.926740189612
 21
902.00003202364758
  0
LINE
  8
_0-0_0
  6
CONTINUOUS
 62
    7
 10
1747.9267401896116
 20
908.00003202364758
 11
1757.926740189612
 21
908.00003202364758
  0
LINE
  8
_0-0_0
  6
CONTINUOUS
 62
    7
 10
1747.9267401896116
 20
914.00003202364758
 11
1757.926740189612
 21
914.00003202364758
  0
LINE
  8
_0-0_0
  6
CONTINUOUS
 62
    7
 10
1747.9267401896116
 20
920.00003202364758
 11
1757.926740189612
 21
920.00003202364758
  0
LINE
  8
_0-0_0
  6
CONTINUOUS
 62
    7
 10
1747.9267401896116
 20
926.00003202364758
 11
1757.926740189612
 21
926.00003202364758
  0
LINE
  8
_0-0_0
  6
CONTINUOUS
 62
    7
 10
1747.9267401896116
 20
790.00006404729515
 11
1757.926740189612
 21
790.00006404729515
  0
LINE
  8
_0-0_0
  6
CONTINUOUS
 62
    7
 10
1747.9267401896116
 20
796.00006404729515
 11
1757.926740189612
 21
796.00006404729515
  0
LINE
  8
_0-0_0
  6
CONTINUOUS
 62
    7
 10
1747.9267401896116
 20
802.00006404729515
 11
1757.926740189612
 21
802.00006404729515
  0
LINE
  8
_0-0_0
  6
CONTINUOUS
 62
    7
 10
1747.9267401896116
 20
808.00006404729515
 11
1757.926740189612
 21
808.00006404729515
  0
LINE
  8
_0-0_0
  6
CONTINUOUS
 62
    7
 10
1747.9267401896116
 20
814.00006404729515
 11
1757.926740189612
 21
814.00006404729515
  0
LINE
  8
_0-0_0
  6
CONTINUOUS
 62
    7
 10
1747.9267401896116
 20
820.00006404729515
 11
1757.926740189612
 21
820.00006404729515
  0
LINE
  8
_0-0_0
  6
CONTINUOUS
 62
    7
 10
1747.9267401896116
 20
826.00006404729515
 11
1757.926740189612
 21
826.00006404729515
  0
LINE
  8
_0-0_0
  6
CONTINUOUS
 62
    7
 10
1295.6468784436165
 20
1066.4779512348227
 11
1330.8507746173591
 21
1101.6818474085651
  0
LINE
  8
_0-0_0
  6
CONTINUOUS
 62
    7
 10
1287.7506774326837
 20
1007.9144604037367
 11
1329.8637494909926
 21
1050.0275324620457
  0
LINE
  8
_0-0_0
  6
CONTINUOUS
 62
    7
 10
1297.6209286963499
 20
910.52798126889729
 11
1333.8118499964589
 21
946.71890256900645
  0
TEXT
  8
_0-0_0
 62
    7
 10
1338.686737794746
 20
1104.6429227876647
 40
15
 41
1
 50
0
  1
キャップ
  0
TEXT
  8
_0-0_0
 62
    7
 10
1341.4531900693451
 20
1055.2916664693344
 40
15
 41
1
 50
0
  1
腰みの(透明)
  0
TEXT
  8
_0-0_0
 62
    7
 10
1343.0379941130768
 20
948.69295282173971
 40
15
 41
1
 50
0
  1
高輝度反射シート(白)
  0
LINE
  8
_0-0_0
  6
CONTINUOUS
 62
    7
 10
1333.8118499964589
 20
946.71890256900645
 11
1500.9481047278723
 21
946.71890256900645
  0
LINE
  8
_0-0_0
  6
CONTINUOUS
 62
    7
 10
1329.8637494909926
 20
1050.0275324620457
 11
1444.3586641495199
 21
1050.0275324620457
  0
LINE
  8
_0-0_0
  6
CONTINUOUS
 62
    7
 10
1330.8507746173591
 20
1101.6818474085651
 11
1406.1936925966775
 21
1101.6818474085651
  0
LINE
  8
_0-0_0
  6
CONTINUOUS
 62
    7
 10
1076.527300390228
 20
1083.4731392687195
 11
1076.527300390228
 21
733.47313926871925
  0
LINE
  8
_0-0_0
  6
CONTINUOUS
 62
    7
 10
1076.527300390228
 20
733.47313926871925
 11
1163.9681245754628
 21
733.47313926871925
  0
TEXT
  8
_0-0_0
 62
    7
 10
1076.527300390228
 20
897.22313926871925
 40
15
 41
1
 50
90
  1
350
  0
LINE
  8
_0-0_0
  6
CONTINUOUS
 62
    7
 10
1143.7672323969339
 20
1083.4731392687195
 11
1143.7672323969339
 21
1053.4731392687195
  0
LINE
  8
_0-0_0
  6
CONTINUOUS
 62
    7
 10
1143.7672323969339
 20
1053.4731392687195
 11
1163.9681245754628
 21
1053.4731392687195
  0
TEXT
  8
_0-0_0
 62
    7
 10
1143.7672323969339
 20
1060.9731392687195
 40
15
 41
1
 50
90
  1
30
  0
LINE
  8
_0-0_0
  6
CONTINUOUS
 62
    7
 10
1032.4415157866667
 20
433.47311550189704
 11
1032.4415157866667
 21
1083.4731392687195
  0
LINE
  8
_0-5_D-BYP-STR1
  6
CONTINUOUS
 62
    7
 10
1122.2074449644733
 20
433.47311550189733
 11
1032.4415157866667
 21
433.47311550189733
  0
LINE
  8
_0-0_0
  6
AI9-LType4
 62
    7
 10
1266.8241586933259
 20
411.77873589094276
 11
1266.8241586933259
 21
1100.3291294896494
  0
LINE
  8
_0-0_0
  6
AI9-LType4
 62
    7
 10
1722.9267401896125
 20
411.77873589094276
 11
1722.9267401896125
 21
1100.3291294896494
  0
LINE
  8
_0-0_0
  6
CONTINUOUS
 62
    7
 10
1226.8241586933259
 20
483.55451519510541
 11
1226.8241586933259
 21
1053.4731392687195
  0
LINE
  8
_0-0_0
  6
CONTINUOUS
 62
    7
 10
1306.8241586933259
 20
483.55451519510541
 11
1306.8241586933259
 21
1053.4731392687195
  0
LINE
  8
_0-0_0
  6
CONTINUOUS
 62
    7
 10
1682.926740189612
 20
483.55451519510541
 11
1682.926740189612
 21
1053.4731392687195
  0
LINE
  8
_0-0_0
  6
CONTINUOUS
 62
    7
 10
1762.9267401896122
 20
483.55451519510541
 11
1762.9267401896122
 21
1053.4731392687195
  0
TEXT
  8
_0-3_D-STR-TXT
 62
    7
 10
1804.570012650549
 20
24.139070107421787
 40
15
 41
1
 50
0
  1
RP-K650-25
  0
TEXT
  8
_0-0_0
 62
    7
 10
1366.1431544924428
 20
-43.176567217046994
 40
15
 41
1
 50
0
  1
250台座/接着固定タイプ/腰みの付き防塵タイプ
  0
ENDSEC
  0
EOF
